  0
SECTION
  2
HEADER
  9
$ACADVER
  1
AC1018
  9
$ACADMAINTVER
 70
     0
  9
$DWGCODEPAGE
  3
ANSI_1252
  9
$INSBASE
 10
0.0
 20
0.0
 30
0.0
  9
$EXTMIN
 10
1.000000000000000E+20
 20
1.000000000000000E+20
 30
1.000000000000000E+20
  9
$EXTMAX
 10
-1.000000000000000E+20
 20
-1.000000000000000E+20
 30
-1.000000000000000E+20
  9
$LIMMIN
 10
0.0
 20
0.0
  9
$LIMMAX
 10
12.0
 20
9.0
  9
$ORTHOMODE
 70
     0
  9
$REGENMODE
 70
     1
  9
$FILLMODE
 70
     1
  9
$QTEXTMODE
 70
     0
  9
$MIRRTEXT
 70
     1
  9
$LTSCALE
 40
1.0
  9
$ATTMODE
 70
     1
  9
$TEXTSIZE
 40
0.2
  9
$TRACEWID
 40
0.05
  9
$TEXTSTYLE
  7
Standard
  9
$CLAYER
  8
0
  9
$CELTYPE
  6
ByLayer
  9
$CECOLOR
 62
   256
  9
$CELTSCALE
 40
1.0
  9
$DISPSILH
 70
     0
  9
$DIMSCALE
 40
1.0
  9
$DIMASZ
 40
0.18
  9
$DIMEXO
 40
0.0625
  9
$DIMDLI
 40
0.38
  9
$DIMRND
 40
0.0
  9
$DIMDLE
 40
0.0
  9
$DIMEXE
 40
0.18
  9
$DIMTP
 40
0.0
  9
$DIMTM
 40
0.0
  9
$DIMTXT
 40
0.18
  9
$DIMCEN
 40
0.09
  9
$DIMTSZ
 40
0.0
  9
$DIMTOL
 70
     0
  9
$DIMLIM
 70
     0
  9
$DIMTIH
 70
     1
  9
$DIMTOH
 70
     1
  9
$DIMSE1
 70
     0
  9
$DIMSE2
 70
     0
  9
$DIMTAD
 70
     0
  9
$DIMZIN
 70
     0
  9
$DIMBLK
  1

  9
$DIMASO
 70
     1
  9
$DIMSHO
 70
     1
  9
$DIMPOST
  1

  9
$DIMAPOST
  1

  9
$DIMALT
 70
     0
  9
$DIMALTD
 70
     2
  9
$DIMALTF
 40
25.4
  9
$DIMLFAC
 40
1.0
  9
$DIMTOFL
 70
     0
  9
$DIMTVP
 40
0.0
  9
$DIMTIX
 70
     0
  9
$DIMSOXD
 70
     0
  9
$DIMSAH
 70
     0
  9
$DIMBLK1
  1

  9
$DIMBLK2
  1

  9
$DIMSTYLE
  2
Standard
  9
$DIMCLRD
 70
     0
  9
$DIMCLRE
 70
     0
  9
$DIMCLRT
 70
     0
  9
$DIMTFAC
 40
1.0
  9
$DIMGAP
 40
0.09
  9
$DIMJUST
 70
     0
  9
$DIMSD1
 70
     0
  9
$DIMSD2
 70
     0
  9
$DIMTOLJ
 70
     1
  9
$DIMTZIN
 70
     0
  9
$DIMALTZ
 70
     0
  9
$DIMALTTZ
 70
     0
  9
$DIMUPT
 70
     0
  9
$DIMDEC
 70
     4
  9
$DIMTDEC
 70
     4
  9
$DIMALTU
 70
     2
  9
$DIMALTTD
 70
     2
  9
$DIMTXSTY
  7
Standard
  9
$DIMAUNIT
 70
     0
  9
$DIMADEC
 70
     0
  9
$DIMALTRND
 40
0.0
  9
$DIMAZIN
 70
     0
  9
$DIMDSEP
 70
    46
  9
$DIMATFIT
 70
     3
  9
$DIMFRAC
 70
     0
  9
$DIMLDRBLK
  1

  9
$DIMLUNIT
 70
     2
  9
$DIMLWD
 70
    -2
  9
$DIMLWE
 70
    -2
  9
$DIMTMOVE
 70
     0
  9
$LUNITS
 70
     2
  9
$LUPREC
 70
     4
  9
$SKETCHINC
 40
0.1
  9
$FILLETRAD
 40
0.5
  9
$AUNITS
 70
     0
  9
$AUPREC
 70
     0
  9
$MENU
  1
.
  9
$ELEVATION
 40
0.0
  9
$PELEVATION
 40
0.0
  9
$THICKNESS
 40
0.0
  9
$LIMCHECK
 70
     0
  9
$CHAMFERA
 40
0.5
  9
$CHAMFERB
 40
0.5
  9
$CHAMFERC
 40
1.0
  9
$CHAMFERD
 40
0.0
  9
$SKPOLY
 70
     0
  9
$TDCREATE
 40
2457548.348331123
  9
$TDUCREATE
 40
2457548.264997789
  9
$TDUPDATE
 40
2457548.348331134
  9
$TDUUPDATE
 40
2457548.264997801
  9
$TDINDWG
 40
0.0000000116
  9
$TDUSRTIMER
 40
0.0000000116
  9
$USRTIMER
 70
     1
  9
$ANGBASE
 50
0.0
  9
$ANGDIR
 70
     0
  9
$PDMODE
 70
     0
  9
$PDSIZE
 40
0.0
  9
$PLINEWID
 40
0.0
  9
$SPLFRAME
 70
     0
  9
$SPLINETYPE
 70
     6
  9
$SPLINESEGS
 70
     8
  9
$HANDSEED
  5
582
  9
$SURFTAB1
 70
     6
  9
$SURFTAB2
 70
     6
  9
$SURFTYPE
 70
     6
  9
$SURFU
 70
     6
  9
$SURFV
 70
     6
  9
$UCSBASE
  2

  9
$UCSNAME
  2

  9
$UCSORG
 10
0.0
 20
0.0
 30
0.0
  9
$UCSXDIR
 10
1.0
 20
0.0
 30
0.0
  9
$UCSYDIR
 10
0.0
 20
1.0
 30
0.0
  9
$UCSORTHOREF
  2

  9
$UCSORTHOVIEW
 70
     0
  9
$UCSORGTOP
 10
0.0
 20
0.0
 30
0.0
  9
$UCSORGBOTTOM
 10
0.0
 20
0.0
 30
0.0
  9
$UCSORGLEFT
 10
0.0
 20
0.0
 30
0.0
  9
$UCSORGRIGHT
 10
0.0
 20
0.0
 30
0.0
  9
$UCSORGFRONT
 10
0.0
 20
0.0
 30
0.0
  9
$UCSORGBACK
 10
0.0
 20
0.0
 30
0.0
  9
$PUCSBASE
  2

  9
$PUCSNAME
  2

  9
$PUCSORG
 10
0.0
 20
0.0
 30
0.0
  9
$PUCSXDIR
 10
1.0
 20
0.0
 30
0.0
  9
$PUCSYDIR
 10
0.0
 20
1.0
 30
0.0
  9
$PUCSORTHOREF
  2

  9
$PUCSORTHOVIEW
 70
     0
  9
$PUCSORGTOP
 10
0.0
 20
0.0
 30
0.0
  9
$PUCSORGBOTTOM
 10
0.0
 20
0.0
 30
0.0
  9
$PUCSORGLEFT
 10
0.0
 20
0.0
 30
0.0
  9
$PUCSORGRIGHT
 10
0.0
 20
0.0
 30
0.0
  9
$PUCSORGFRONT
 10
0.0
 20
0.0
 30
0.0
  9
$PUCSORGBACK
 10
0.0
 20
0.0
 30
0.0
  9
$USERI1
 70
     0
  9
$USERI2
 70
     0
  9
$USERI3
 70
     0
  9
$USERI4
 70
     0
  9
$USERI5
 70
     0
  9
$USERR1
 40
0.0
  9
$USERR2
 40
0.0
  9
$USERR3
 40
0.0
  9
$USERR4
 40
0.0
  9
$USERR5
 40
0.0
  9
$WORLDVIEW
 70
     1
  9
$SHADEDGE
 70
     3
  9
$SHADEDIF
 70
    70
  9
$TILEMODE
 70
     1
  9
$MAXACTVP
 70
    64
  9
$PINSBASE
 10
0.0
 20
0.0
 30
0.0
  9
$PLIMCHECK
 70
     0
  9
$PEXTMIN
 10
1.000000000000000E+20
 20
1.000000000000000E+20
 30
1.000000000000000E+20
  9
$PEXTMAX
 10
-1.000000000000000E+20
 20
-1.000000000000000E+20
 30
-1.000000000000000E+20
  9
$PLIMMIN
 10
0.0
 20
0.0
  9
$PLIMMAX
 10
12.0
 20
9.0
  9
$UNITMODE
 70
     0
  9
$VISRETAIN
 70
     1
  9
$PLINEGEN
 70
     0
  9
$PSLTSCALE
 70
     1
  9
$TREEDEPTH
 70
  3020
  9
$CMLSTYLE
  2
Standard
  9
$CMLJUST
 70
     0
  9
$CMLSCALE
 40
1.0
  9
$PROXYGRAPHICS
 70
     1
  9
$MEASUREMENT
 70
     0
  9
$CELWEIGHT
370
    -1
  9
$ENDCAPS
280
     0
  9
$JOINSTYLE
280
     0
  9
$LWDISPLAY
290
     1
  9
$INSUNITS
 70
     1
  9
$HYPERLINKBASE
  1

  9
$STYLESHEET
  1

  9
$XEDIT
290
     1
  9
$CEPSNTYPE
380
     0
  9
$PSTYLEMODE
290
     1
  9
$FINGERPRINTGUID
  2
{CA1FC99C-7E17-49C5-8791-6E88C383B17D}
  9
$VERSIONGUID
  2
{FAEB1C32-E019-11D5-929B-00C0DF256EC4}
  9
$EXTNAMES
290
     1
  9
$PSVPSCALE
 40
0.0
  9
$OLESTARTUP
290
     0
  9
$SORTENTS
280
   127
  9
$INDEXCTL
280
     0
  9
$HIDETEXT
280
     1
  9
$XCLIPFRAME
290
     0
  9
$HALOGAP
280
     0
  9
$OBSCOLOR
 70
   257
  9
$OBSLTYPE
280
     0
  9
$INTERSECTIONDISPLAY
280
     0
  9
$INTERSECTIONCOLOR
 70
   257
  9
$DIMASSOC
280
     2
  9
$PROJECTNAME
  1

  0
ENDSEC
  0
SECTION
  2
CLASSES
  0
CLASS
  1
ACDBDICTIONARYWDFLT
  2
AcDbDictionaryWithDefault
  3
ObjectDBX Classes
 90
        0
 91
        3
280
     0
281
     0
  0
CLASS
  1
VISUALSTYLE
  2
AcDbVisualStyle
  3
ObjectDBX Classes
 90
     4095
 91
        3
280
     0
281
     0
  0
ENDSEC
  0
SECTION
  2
TABLES
  0
TABLE
  2
VPORT
  5
8
330
0
100
AcDbSymbolTable
 70
     1
  0
VPORT
  5
29
330
8
100
AcDbSymbolTableRecord
100
AcDbViewportTableRecord
  2
*Active
 70
     0
 10
0.0
 20
0.0
 11
1.0
 21
1.0
 12
0.0
 22
0.0
 13
0.0
 23
0.0
 14
0.5
 24
0.5
 15
0.5
 25
0.5
 16
0.0
 26
0.0
 36
1.0
 17
98.28073660194892
 27
-180.5646029550759
 37
0.0
 40
150.8050930070036
 41
1.677191976488246
 42
50.0
 43
0.0
 44
0.0
 50
0.0
 51
0.0
 71
     0
 72
   100
 73
     1
 74
     3
 75
     0
 76
     0
 77
     0
 78
     0
281
     0
 65
     1
110
0.0
120
0.0
130
0.0
111
1.0
121
0.0
131
0.0
112
0.0
122
1.0
132
0.0
 79
     0
146
0.0
  0
ENDTAB
  0
TABLE
  2
LTYPE
  5
5
330
0
100
AcDbSymbolTable
 70
     1
  0
LTYPE
  5
14
330
5
100
AcDbSymbolTableRecord
100
AcDbLinetypeTableRecord
  2
ByBlock
 70
     0
  3

 72
    65
 73
     0
 40
0.0
  0
LTYPE
  5
15
330
5
100
AcDbSymbolTableRecord
100
AcDbLinetypeTableRecord
  2
ByLayer
 70
     0
  3

 72
    65
 73
     0
 40
0.0
  0
LTYPE
  5
16
330
5
100
AcDbSymbolTableRecord
100
AcDbLinetypeTableRecord
  2
Continuous
 70
     0
  3
Solid line
 72
    65
 73
     0
 40
0.0
  0
ENDTAB
  0
TABLE
  2
LAYER
  5
2
330
0
100
AcDbSymbolTable
 70
     2
  0
LAYER
  5
10
330
2
100
AcDbSymbolTableRecord
100
AcDbLayerTableRecord
  2
0
 70
     0
 62
     7
  6
Continuous
370
    -3
390
F
  0
LAYER
  5
3B
330
2
100
AcDbSymbolTableRecord
100
AcDbLayerTableRecord
  2
Capa 1
 70
     0
 62
     7
  6
Continuous
370
    -3
390
F
  0
ENDTAB
  0
TABLE
  2
STYLE
  5
3
330
0
100
AcDbSymbolTable
 70
     1
  0
STYLE
  5
11
330
3
100
AcDbSymbolTableRecord
100
AcDbTextStyleTableRecord
  2
Standard
 70
     0
 40
0.0
 41
1.0
 50
0.0
 71
     0
 42
0.2
  3
txt
  4

  0
ENDTAB
  0
TABLE
  2
VIEW
  5
6
330
0
100
AcDbSymbolTable
 70
     0
  0
ENDTAB
  0
TABLE
  2
UCS
  5
7
330
0
100
AcDbSymbolTable
 70
     0
  0
ENDTAB
  0
TABLE
  2
APPID
  5
9
330
0
100
AcDbSymbolTable
 70
     1
  0
APPID
  5
12
330
9
100
AcDbSymbolTableRecord
100
AcDbRegAppTableRecord
  2
ACAD
 70
     0
  0
ENDTAB
  0
TABLE
  2
DIMSTYLE
  5
A
330
0
100
AcDbSymbolTable
 70
     1
100
AcDbDimStyleTable
  0
DIMSTYLE
105
27
330
A
100
AcDbSymbolTableRecord
100
AcDbDimStyleTableRecord
  2
Standard
 70
     0
340
11
  0
ENDTAB
  0
TABLE
  2
BLOCK_RECORD
  5
1
330
0
100
AcDbSymbolTable
 70
    13
  0
BLOCK_RECORD
  5
1F
330
1
100
AcDbSymbolTableRecord
100
AcDbBlockTableRecord
  2
*Model_Space
340
22
  0
BLOCK_RECORD
  5
1B
330
1
100
AcDbSymbolTableRecord
100
AcDbBlockTableRecord
  2
*Paper_Space
340
1E
  0
BLOCK_RECORD
  5
23
330
1
100
AcDbSymbolTableRecord
100
AcDbBlockTableRecord
  2
*Paper_Space0
340
26
  0
BLOCK_RECORD
  5
521
330
1
100
AcDbSymbolTableRecord
100
AcDbBlockTableRecord
  2
block 2
340
0
102
{BLKREFS
331
522
102
}
  0
BLOCK_RECORD
  5
529
330
1
100
AcDbSymbolTableRecord
100
AcDbBlockTableRecord
  2
block 3
340
0
102
{BLKREFS
331
52A
102
}
  0
BLOCK_RECORD
  5
531
330
1
100
AcDbSymbolTableRecord
100
AcDbBlockTableRecord
  2
block 4
340
0
102
{BLKREFS
331
532
102
}
  0
BLOCK_RECORD
  5
539
330
1
100
AcDbSymbolTableRecord
100
AcDbBlockTableRecord
  2
block 5
340
0
102
{BLKREFS
331
53A
102
}
  0
BLOCK_RECORD
  5
541
330
1
100
AcDbSymbolTableRecord
100
AcDbBlockTableRecord
  2
block 6
340
0
102
{BLKREFS
331
542
102
}
  0
BLOCK_RECORD
  5
549
330
1
100
AcDbSymbolTableRecord
100
AcDbBlockTableRecord
  2
block 7
340
0
102
{BLKREFS
331
54A
102
}
  0
BLOCK_RECORD
  5
551
330
1
100
AcDbSymbolTableRecord
100
AcDbBlockTableRecord
  2
block 8
340
0
102
{BLKREFS
331
552
102
}
  0
BLOCK_RECORD
  5
559
330
1
100
AcDbSymbolTableRecord
100
AcDbBlockTableRecord
  2
block 9
340
0
102
{BLKREFS
331
55A
102
}
  0
BLOCK_RECORD
  5
561
330
1
100
AcDbSymbolTableRecord
100
AcDbBlockTableRecord
  2
block 10
340
0
102
{BLKREFS
331
562
102
}
  0
BLOCK_RECORD
  5
569
330
1
100
AcDbSymbolTableRecord
100
AcDbBlockTableRecord
  2
block 11
340
0
102
{BLKREFS
331
56A
102
}
  0
BLOCK_RECORD
  5
571
330
1
100
AcDbSymbolTableRecord
100
AcDbBlockTableRecord
  2
block 12
340
0
102
{BLKREFS
331
572
102
}
  0
BLOCK_RECORD
  5
579
330
1
100
AcDbSymbolTableRecord
100
AcDbBlockTableRecord
  2
block 13
340
0
102
{BLKREFS
331
57A
102
}
  0
ENDTAB
  0
ENDSEC
  0
SECTION
  2
BLOCKS
  0
BLOCK
  5
20
330
1F
100
AcDbEntity
  8
0
100
AcDbBlockBegin
  2
*Model_Space
 70
     0
 71
     0
 10
0.0
 20
0.0
 30
0.0
  3
*Model_Space
  1

  0
ENDBLK
  5
21
330
1F
100
AcDbEntity
  8
0
100
AcDbBlockEnd
  0
BLOCK
  5
1C
330
1B
100
AcDbEntity
 67
     1
  8
0
100
AcDbBlockBegin
  2
*Paper_Space
 70
     0
 71
     0
 10
0.0
 20
0.0
 30
0.0
  3
*Paper_Space
  1

  0
ENDBLK
  5
1D
330
1B
100
AcDbEntity
 67
     1
  8
0
100
AcDbBlockEnd
  0
BLOCK
  5
24
330
23
100
AcDbEntity
  8
0
100
AcDbBlockBegin
  2
*Paper_Space0
 70
     0
 71
     0
 10
0.0
 20
0.0
 30
0.0
  3
*Paper_Space0
  1

  0
ENDBLK
  5
25
330
23
100
AcDbEntity
  8
0
100
AcDbBlockEnd
  0
BLOCK
  5
523
330
521
100
AcDbEntity
  8
0
100
AcDbBlockBegin
  2
block 2
 70
     0
 71
     0
 10
0.0
 20
0.0
 30
0.0
  3
block 2
  1

  0
POLYLINE
  5
525
330
521
100
AcDbEntity
  8
Capa 1
370
     0
100
AcDb2dPolyline
 66
     1
 10
0.0
 20
0.0
 30
0.0
  0
VERTEX
  5
526
330
525
100
AcDbEntity
  8
Capa 1
370
     0
100
AcDbVertex
100
AcDb2dVertex
 10
150.6784857479207
 20
-147.6747069943313
 30
0.0
  0
VERTEX
  5
527
330
525
100
AcDbEntity
  8
Capa 1
370
     0
100
AcDbVertex
100
AcDb2dVertex
 10
150.6784857479207
 20
-147.6747069943313
 30
0.0
  0
SEQEND
  5
528
330
525
100
AcDbEntity
  8
Capa 1
370
     0
  0
ENDBLK
  5
524
330
521
100
AcDbEntity
  8
0
100
AcDbBlockEnd
  0
BLOCK
  5
52B
330
529
100
AcDbEntity
  8
0
100
AcDbBlockBegin
  2
block 3
 70
     0
 71
     0
 10
0.0
 20
0.0
 30
0.0
  3
block 3
  1

  0
POLYLINE
  5
52D
330
529
100
AcDbEntity
  8
Capa 1
370
     0
100
AcDb2dPolyline
 66
     1
 10
0.0
 20
0.0
 30
0.0
  0
VERTEX
  5
52E
330
52D
100
AcDbEntity
  8
Capa 1
370
     0
100
AcDbVertex
100
AcDb2dVertex
 10
213.6396727981526
 20
-170.0902207691094
 30
0.0
  0
VERTEX
  5
52F
330
52D
100
AcDbEntity
  8
Capa 1
370
     0
100
AcDbVertex
100
AcDb2dVertex
 10
213.6396727981526
 20
-170.0902207691094
 30
0.0
  0
SEQEND
  5
530
330
52D
100
AcDbEntity
  8
Capa 1
370
     0
  0
ENDBLK
  5
52C
330
529
100
AcDbEntity
  8
0
100
AcDbBlockEnd
  0
BLOCK
  5
533
330
531
100
AcDbEntity
  8
0
100
AcDbBlockBegin
  2
block 4
 70
     0
 71
     0
 10
0.0
 20
0.0
 30
0.0
  3
block 4
  1

  0
POLYLINE
  5
535
330
531
100
AcDbEntity
  8
Capa 1
370
     0
100
AcDb2dPolyline
 66
     1
 10
0.0
 20
0.0
 30
0.0
  0
VERTEX
  5
536
330
535
100
AcDbEntity
  8
Capa 1
370
     0
100
AcDbVertex
100
AcDb2dVertex
 10
139.5394585154624
 20
-160.1724798861722
 30
0.0
  0
VERTEX
  5
537
330
535
100
AcDbEntity
  8
Capa 1
370
     0
100
AcDbVertex
100
AcDb2dVertex
 10
139.5394585154624
 20
-160.1724798861722
 30
0.0
  0
SEQEND
  5
538
330
535
100
AcDbEntity
  8
Capa 1
370
     0
  0
ENDBLK
  5
534
330
531
100
AcDbEntity
  8
0
100
AcDbBlockEnd
  0
BLOCK
  5
53B
330
539
100
AcDbEntity
  8
0
100
AcDbBlockBegin
  2
block 5
 70
     0
 71
     0
 10
0.0
 20
0.0
 30
0.0
  3
block 5
  1

  0
POLYLINE
  5
53D
330
539
100
AcDbEntity
  8
Capa 1
370
     0
100
AcDb2dPolyline
 66
     1
 10
0.0
 20
0.0
 30
0.0
  0
VERTEX
  5
53E
330
53D
100
AcDbEntity
  8
Capa 1
370
     0
100
AcDbVertex
100
AcDb2dVertex
 10
139.5394585154624
 20
-170.3014051223552
 30
0.0
  0
VERTEX
  5
53F
330
53D
100
AcDbEntity
  8
Capa 1
370
     0
100
AcDbVertex
100
AcDb2dVertex
 10
139.5394585154624
 20
-170.3014051223552
 30
0.0
  0
SEQEND
  5
540
330
53D
100
AcDbEntity
  8
Capa 1
370
     0
  0
ENDBLK
  5
53C
330
539
100
AcDbEntity
  8
0
100
AcDbBlockEnd
  0
BLOCK
  5
543
330
541
100
AcDbEntity
  8
0
100
AcDbBlockBegin
  2
block 6
 70
     0
 71
     0
 10
0.0
 20
0.0
 30
0.0
  3
block 6
  1

  0
POLYLINE
  5
545
330
541
100
AcDbEntity
  8
Capa 1
370
     0
100
AcDb2dPolyline
 66
     1
 10
0.0
 20
0.0
 30
0.0
  0
VERTEX
  5
546
330
545
100
AcDbEntity
  8
Capa 1
370
     0
100
AcDbVertex
100
AcDb2dVertex
 10
74.77493623347641
 20
-154.2369248746352
 30
0.0
  0
VERTEX
  5
547
330
545
100
AcDbEntity
  8
Capa 1
370
     0
100
AcDbVertex
100
AcDb2dVertex
 10
74.77493623347641
 20
-154.2369248746352
 30
0.0
  0
SEQEND
  5
548
330
545
100
AcDbEntity
  8
Capa 1
370
     0
  0
ENDBLK
  5
544
330
541
100
AcDbEntity
  8
0
100
AcDbBlockEnd
  0
BLOCK
  5
54B
330
549
100
AcDbEntity
  8
0
100
AcDbBlockBegin
  2
block 7
 70
     0
 71
     0
 10
0.0
 20
0.0
 30
0.0
  3
block 7
  1

  0
POLYLINE
  5
54D
330
549
100
AcDbEntity
  8
Capa 1
370
     0
100
AcDb2dPolyline
 66
     1
 10
0.0
 20
0.0
 30
0.0
  0
VERTEX
  5
54E
330
54D
100
AcDbEntity
  8
Capa 1
370
     0
100
AcDbVertex
100
AcDb2dVertex
 10
-1.439360893737382
 20
-154.2369248746352
 30
0.0
  0
VERTEX
  5
54F
330
54D
100
AcDbEntity
  8
Capa 1
370
     0
100
AcDbVertex
100
AcDb2dVertex
 10
-1.439360893737382
 20
-154.2369248746352
 30
0.0
  0
SEQEND
  5
550
330
54D
100
AcDbEntity
  8
Capa 1
370
     0
  0
ENDBLK
  5
54C
330
549
100
AcDbEntity
  8
0
100
AcDbBlockEnd
  0
BLOCK
  5
553
330
551
100
AcDbEntity
  8
0
100
AcDbBlockBegin
  2
block 8
 70
     0
 71
     0
 10
0.0
 20
0.0
 30
0.0
  3
block 8
  1

  0
POLYLINE
  5
555
330
551
100
AcDbEntity
  8
Capa 1
370
     0
100
AcDb2dPolyline
 66
     1
 10
0.0
 20
0.0
 30
0.0
  0
VERTEX
  5
556
330
555
100
AcDbEntity
  8
Capa 1
370
     0
100
AcDbVertex
100
AcDb2dVertex
 10
92.33527694089187
 20
-166.3881211606599
 30
0.0
  0
VERTEX
  5
557
330
555
100
AcDbEntity
  8
Capa 1
370
     0
100
AcDbVertex
100
AcDb2dVertex
 10
92.33527694089187
 20
-166.3881211606599
 30
0.0
  0
SEQEND
  5
558
330
555
100
AcDbEntity
  8
Capa 1
370
     0
  0
ENDBLK
  5
554
330
551
100
AcDbEntity
  8
0
100
AcDbBlockEnd
  0
BLOCK
  5
55B
330
559
100
AcDbEntity
  8
0
100
AcDbBlockBegin
  2
block 9
 70
     0
 71
     0
 10
0.0
 20
0.0
 30
0.0
  3
block 9
  1

  0
POLYLINE
  5
55D
330
559
100
AcDbEntity
  8
Capa 1
370
     0
100
AcDb2dPolyline
 66
     1
 10
0.0
 20
0.0
 30
0.0
  0
VERTEX
  5
55E
330
55D
100
AcDbEntity
  8
Capa 1
370
     0
100
AcDbVertex
100
AcDb2dVertex
 10
57.89758570601172
 20
-166.3881211606599
 30
0.0
  0
VERTEX
  5
55F
330
55D
100
AcDbEntity
  8
Capa 1
370
     0
100
AcDbVertex
100
AcDb2dVertex
 10
57.89758570601172
 20
-166.3881211606599
 30
0.0
  0
SEQEND
  5
560
330
55D
100
AcDbEntity
  8
Capa 1
370
     0
  0
ENDBLK
  5
55C
330
559
100
AcDbEntity
  8
0
100
AcDbBlockEnd
  0
BLOCK
  5
563
330
561
100
AcDbEntity
  8
0
100
AcDbBlockBegin
  2
block 10
 70
     0
 71
     0
 10
0.0
 20
0.0
 30
0.0
  3
block 10
  1

  0
POLYLINE
  5
565
330
561
100
AcDbEntity
  8
Capa 1
370
     0
100
AcDb2dPolyline
 66
     1
 10
0.0
 20
0.0
 30
0.0
  0
VERTEX
  5
566
330
565
100
AcDbEntity
  8
Capa 1
370
     0
100
AcDbVertex
100
AcDb2dVertex
 10
167.7706379788907
 20
-192.2149684849324
 30
0.0
  0
VERTEX
  5
567
330
565
100
AcDbEntity
  8
Capa 1
370
     0
100
AcDbVertex
100
AcDb2dVertex
 10
167.7706379788907
 20
-192.2149684849324
 30
0.0
  0
SEQEND
  5
568
330
565
100
AcDbEntity
  8
Capa 1
370
     0
  0
ENDBLK
  5
564
330
561
100
AcDbEntity
  8
0
100
AcDbBlockEnd
  0
BLOCK
  5
56B
330
569
100
AcDbEntity
  8
0
100
AcDbBlockBegin
  2
block 11
 70
     0
 71
     0
 10
0.0
 20
0.0
 30
0.0
  3
block 11
  1

  0
POLYLINE
  5
56D
330
569
100
AcDbEntity
  8
Capa 1
370
     0
100
AcDb2dPolyline
 66
     1
 10
0.0
 20
0.0
 30
0.0
  0
VERTEX
  5
56E
330
56D
100
AcDbEntity
  8
Capa 1
370
     0
100
AcDbVertex
100
AcDb2dVertex
 10
177.8954291004914
 20
-192.2149684849324
 30
0.0
  0
VERTEX
  5
56F
330
56D
100
AcDbEntity
  8
Capa 1
370
     0
100
AcDbVertex
100
AcDb2dVertex
 10
177.8954291004914
 20
-192.2149684849324
 30
0.0
  0
SEQEND
  5
570
330
56D
100
AcDbEntity
  8
Capa 1
370
     0
  0
ENDBLK
  5
56C
330
569
100
AcDbEntity
  8
0
100
AcDbBlockEnd
  0
BLOCK
  5
573
330
571
100
AcDbEntity
  8
0
100
AcDbBlockBegin
  2
block 12
 70
     0
 71
     0
 10
0.0
 20
0.0
 30
0.0
  3
block 12
  1

  0
POLYLINE
  5
575
330
571
100
AcDbEntity
  8
Capa 1
370
     0
100
AcDb2dPolyline
 66
     1
 10
0.0
 20
0.0
 30
0.0
  0
VERTEX
  5
576
330
575
100
AcDbEntity
  8
Capa 1
370
     0
100
AcDbVertex
100
AcDb2dVertex
 10
172.8349283422079
 20
-193.0497151210084
 30
0.0
  0
VERTEX
  5
577
330
575
100
AcDbEntity
  8
Capa 1
370
     0
100
AcDbVertex
100
AcDb2dVertex
 10
172.8349283422079
 20
-193.0497151210084
 30
0.0
  0
SEQEND
  5
578
330
575
100
AcDbEntity
  8
Capa 1
370
     0
  0
ENDBLK
  5
574
330
571
100
AcDbEntity
  8
0
100
AcDbBlockEnd
  0
BLOCK
  5
57B
330
579
100
AcDbEntity
  8
0
100
AcDbBlockBegin
  2
block 13
 70
     0
 71
     0
 10
0.0
 20
0.0
 30
0.0
  3
block 13
  1

  0
POLYLINE
  5
57D
330
579
100
AcDbEntity
  8
Capa 1
370
     0
100
AcDb2dPolyline
 66
     1
 10
0.0
 20
0.0
 30
0.0
  0
VERTEX
  5
57E
330
57D
100
AcDbEntity
  8
Capa 1
370
     0
100
AcDbVertex
100
AcDb2dVertex
 10
150.6784857479207
 20
-182.1139485221799
 30
0.0
  0
VERTEX
  5
57F
330
57D
100
AcDbEntity
  8
Capa 1
370
     0
100
AcDbVertex
100
AcDb2dVertex
 10
150.6784857479207
 20
-182.1139485221799
 30
0.0
  0
SEQEND
  5
580
330
57D
100
AcDbEntity
  8
Capa 1
370
     0
  0
ENDBLK
  5
57C
330
579
100
AcDbEntity
  8
0
100
AcDbBlockEnd
  0
ENDSEC
  0
SECTION
  2
ENTITIES
  0
POLYLINE
  5
3C
330
1F
100
AcDbEntity
  8
Capa 1
 62
     7
420
 16777215
370
     9
100
AcDb2dPolyline
 66
     1
 10
0.0
 20
0.0
 30
0.0
  0
VERTEX
  5
3D
330
3C
100
AcDbEntity
  8
Capa 1
 62
     7
420
 16777215
370
     9
100
AcDbVertex
100
AcDb2dVertex
 10
185.0378010605114
 20
-182.1635578971675
 30
0.0
  0
VERTEX
  5
3E
330
3C
100
AcDbEntity
  8
Capa 1
 62
     7
420
 16777215
370
     9
100
AcDbVertex
100
AcDb2dVertex
 10
180.6687309661176
 20
-182.1635578971675
 30
0.0
  0
SEQEND
  5
3F
330
3C
100
AcDbEntity
  8
Capa 1
370
     9
  0
POLYLINE
  5
40
330
1F
100
AcDbEntity
  8
Capa 1
 62
     7
420
 16777215
370
     9
100
AcDb2dPolyline
 66
     1
 10
0.0
 20
0.0
 30
0.0
  0
VERTEX
  5
41
330
40
100
AcDbEntity
  8
Capa 1
 62
     7
420
 16777215
370
     9
100
AcDbVertex
100
AcDb2dVertex
 10
160.5524739181952
 20
-172.4890407554889
 30
0.0
  0
VERTEX
  5
42
330
40
100
AcDbEntity
  8
Capa 1
 62
     7
420
 16777215
370
     9
100
AcDbVertex
100
AcDb2dVertex
 10
159.7935193827947
 20
-171.7280191627972
 30
0.0
  0
SEQEND
  5
43
330
40
100
AcDbEntity
  8
Capa 1
370
     9
  0
POLYLINE
  5
44
330
1F
100
AcDbEntity
  8
Capa 1
 62
     7
420
 16777215
370
     9
100
AcDb2dPolyline
 66
     1
 10
0.0
 20
0.0
 30
0.0
  0
VERTEX
  5
45
330
44
100
AcDbEntity
  8
Capa 1
 62
     7
420
 16777215
370
     9
100
AcDbVertex
100
AcDb2dVertex
 10
159.7935193827947
 20
-158.0585692964229
 30
0.0
  0
VERTEX
  5
46
330
44
100
AcDbEntity
  8
Capa 1
 62
     7
420
 16777215
370
     9
100
AcDbVertex
100
AcDb2dVertex
 10
160.5524739181952
 20
-157.2975477037312
 30
0.0
  0
SEQEND
  5
47
330
44
100
AcDbEntity
  8
Capa 1
370
     9
  0
POLYLINE
  5
48
330
1F
100
AcDbEntity
  8
Capa 1
 62
     7
420
 16777215
370
     9
100
AcDb2dPolyline
 66
     1
 10
0.0
 20
0.0
 30
0.0
  0
VERTEX
  5
49
330
48
100
AcDbEntity
  8
Capa 1
 62
     7
420
 16777215
370
     9
100
AcDbVertex
100
AcDb2dVertex
 10
165.8699787996783
 20
-157.2975477037312
 30
0.0
  0
VERTEX
  5
4A
330
48
100
AcDbEntity
  8
Capa 1
 62
     7
420
 16777215
370
     9
100
AcDbVertex
100
AcDb2dVertex
 10
166.63100039237
 20
-158.0585692964229
 30
0.0
  0
SEQEND
  5
4B
330
48
100
AcDbEntity
  8
Capa 1
370
     9
  0
POLYLINE
  5
4C
330
1F
100
AcDbEntity
  8
Capa 1
 62
     7
420
 16777215
370
     9
100
AcDb2dPolyline
 66
     1
 10
0.0
 20
0.0
 30
0.0
  0
VERTEX
  5
4D
330
4C
100
AcDbEntity
  8
Capa 1
 62
     7
420
 16777215
370
     9
100
AcDbVertex
100
AcDb2dVertex
 10
166.63100039237
 20
-171.7280191627972
 30
0.0
  0
VERTEX
  5
4E
330
4C
100
AcDbEntity
  8
Capa 1
 62
     7
420
 16777215
370
     9
100
AcDbVertex
100
AcDb2dVertex
 10
165.8699787996783
 20
-172.4890407554889
 30
0.0
  0
SEQEND
  5
4F
330
4C
100
AcDbEntity
  8
Capa 1
370
     9
  0
POLYLINE
  5
50
330
1F
100
AcDbEntity
  8
Capa 1
 62
     7
420
 16777215
370
     9
100
AcDb2dPolyline
 66
     1
 10
0.0
 20
0.0
 30
0.0
  0
VERTEX
  5
51
330
50
100
AcDbEntity
  8
Capa 1
 62
     7
420
 16777215
370
     9
100
AcDbVertex
100
AcDb2dVertex
 10
188.9627983468565
 20
-181.7832193555959
 30
0.0
  0
VERTEX
  5
52
330
50
100
AcDbEntity
  8
Capa 1
 62
     7
420
 16777215
370
     9
100
AcDbVertex
100
AcDb2dVertex
 10
185.5717908607251
 20
-181.7832193555959
 30
0.0
  0
SEQEND
  5
53
330
50
100
AcDbEntity
  8
Capa 1
370
     9
  0
POLYLINE
  5
54
330
1F
100
AcDbEntity
  8
Capa 1
 62
     7
420
 16777215
370
     9
100
AcDb2dPolyline
 66
     1
 10
0.0
 20
0.0
 30
0.0
  0
VERTEX
  5
55
330
54
100
AcDbEntity
  8
Capa 1
 62
     7
420
 16777215
370
     9
100
AcDbVertex
100
AcDb2dVertex
 10
185.5717908607251
 20
-157.4729030639304
 30
0.0
  0
VERTEX
  5
56
330
54
100
AcDbEntity
  8
Capa 1
 62
     7
420
 16777215
370
     9
100
AcDbVertex
100
AcDb2dVertex
 10
188.9627983468565
 20
-157.4729030639304
 30
0.0
  0
SEQEND
  5
57
330
54
100
AcDbEntity
  8
Capa 1
370
     9
  0
POLYLINE
  5
58
330
1F
100
AcDbEntity
  8
Capa 1
 62
     7
420
 16777215
370
     9
100
AcDb2dPolyline
 66
     1
 10
0.0
 20
0.0
 30
0.0
  0
VERTEX
  5
59
330
58
100
AcDbEntity
  8
Capa 1
 62
     7
420
 16777215
370
     9
100
AcDbVertex
100
AcDb2dVertex
 10
166.7564018680331
 20
-157.0925645223588
 30
0.0
  0
VERTEX
  5
5A
330
58
100
AcDbEntity
  8
Capa 1
 62
     7
420
 16777215
370
     9
100
AcDbVertex
100
AcDb2dVertex
 10
183.8206488255726
 20
-157.0925645223588
 30
0.0
  0
SEQEND
  5
5B
330
58
100
AcDbEntity
  8
Capa 1
370
     9
  0
POLYLINE
  5
5C
330
1F
100
AcDbEntity
  8
Capa 1
 62
     7
420
 16777215
370
     9
100
AcDb2dPolyline
 66
     1
 10
0.0
 20
0.0
 30
0.0
  0
VERTEX
  5
5D
330
5C
100
AcDbEntity
  8
Capa 1
 62
     7
420
 16777215
370
     9
100
AcDbVertex
100
AcDb2dVertex
 10
185.4284748885387
 20
-181.7732285786886
 30
0.0
  0
VERTEX
  5
5E
330
5C
100
AcDbEntity
  8
Capa 1
 62
     7
420
 16777215
370
     9
100
AcDbVertex
100
AcDb2dVertex
 10
185.0378010605114
 20
-182.1635578971675
 30
0.0
  0
SEQEND
  5
5F
330
5C
100
AcDbEntity
  8
Capa 1
370
     9
  0
POLYLINE
  5
60
330
1F
100
AcDbEntity
  8
Capa 1
 62
     7
420
 16777215
370
     9
100
AcDb2dPolyline
 66
     1
 10
0.0
 20
0.0
 30
0.0
  0
VERTEX
  5
61
330
60
100
AcDbEntity
  8
Capa 1
 62
     7
420
 16777215
370
     9
100
AcDbVertex
100
AcDb2dVertex
 10
166.7564018680331
 20
-183.9367485434256
 30
0.0
  0
VERTEX
  5
62
330
60
100
AcDbEntity
  8
Capa 1
 62
     7
420
 16777215
370
     9
100
AcDbVertex
100
AcDb2dVertex
 10
166.7564018680331
 20
-182.1635578971675
 30
0.0
  0
SEQEND
  5
63
330
60
100
AcDbEntity
  8
Capa 1
370
     9
  0
POLYLINE
  5
64
330
1F
100
AcDbEntity
  8
Capa 1
 62
     7
420
 16777215
370
     9
100
AcDb2dPolyline
 66
     1
 10
0.0
 20
0.0
 30
0.0
  0
VERTEX
  5
65
330
64
100
AcDbEntity
  8
Capa 1
 62
     7
420
 16777215
370
     9
100
AcDbVertex
100
AcDb2dVertex
 10
183.8206488255726
 20
-157.0925645223588
 30
0.0
  0
VERTEX
  5
66
330
64
100
AcDbEntity
  8
Capa 1
 62
     7
420
 16777215
370
     9
100
AcDbVertex
100
AcDb2dVertex
 10
185.0378010605114
 20
-157.0925645223588
 30
0.0
  0
SEQEND
  5
67
330
64
100
AcDbEntity
  8
Capa 1
370
     9
  0
POLYLINE
  5
68
330
1F
100
AcDbEntity
  8
Capa 1
 62
     7
420
 16777215
370
     9
100
AcDb2dPolyline
 66
     1
 10
0.0
 20
0.0
 30
0.0
  0
VERTEX
  5
69
330
68
100
AcDbEntity
  8
Capa 1
 62
     7
420
 16777215
370
     9
100
AcDbVertex
100
AcDb2dVertex
 10
185.0378010605114
 20
-157.0925645223588
 30
0.0
  0
VERTEX
  5
6A
330
68
100
AcDbEntity
  8
Capa 1
 62
     7
420
 16777215
370
     9
100
AcDbVertex
100
AcDb2dVertex
 10
185.4222737166653
 20
-157.4791042358038
 30
0.0
  0
SEQEND
  5
6B
330
68
100
AcDbEntity
  8
Capa 1
370
     9
  0
POLYLINE
  5
6C
330
1F
100
AcDbEntity
  8
Capa 1
 62
     7
420
 16777215
370
     9
100
AcDb2dPolyline
 66
     1
 10
0.0
 20
0.0
 30
0.0
  0
VERTEX
  5
6D
330
6C
100
AcDbEntity
  8
Capa 1
 62
     7
420
 16777215
370
     9
100
AcDbVertex
100
AcDb2dVertex
 10
150.6784857479207
 20
-147.6747069943313
 30
0.0
  0
VERTEX
  5
6E
330
6C
100
AcDbEntity
  8
Capa 1
 62
     7
420
 16777215
370
     9
100
AcDbVertex
100
AcDb2dVertex
 10
157.777104995278
 20
-153.0263183211184
 30
0.0
  0
SEQEND
  5
6F
330
6C
100
AcDbEntity
  8
Capa 1
370
     9
  0
POLYLINE
  5
70
330
1F
100
AcDbEntity
  8
Capa 1
 62
     7
420
 16777215
370
     9
100
AcDb2dPolyline
 66
     1
 10
0.0
 20
0.0
 30
0.0
  0
VERTEX
  5
71
330
70
100
AcDbEntity
  8
Capa 1
 62
     7
420
 16777215
370
     9
100
AcDbVertex
100
AcDb2dVertex
 10
157.777104995278
 20
-176.7626817049413
 30
0.0
  0
VERTEX
  5
72
330
70
100
AcDbEntity
  8
Capa 1
 62
     7
420
 16777215
370
     9
100
AcDbVertex
100
AcDb2dVertex
 10
150.6784857479207
 20
-182.1139485221799
 30
0.0
  0
SEQEND
  5
73
330
70
100
AcDbEntity
  8
Capa 1
370
     9
  0
POLYLINE
  5
74
330
1F
100
AcDbEntity
  8
Capa 1
 62
     7
420
 16777215
370
     9
100
AcDb2dPolyline
 66
     1
 10
0.0
 20
0.0
 30
0.0
  0
VERTEX
  5
75
330
74
100
AcDbEntity
  8
Capa 1
 62
     7
420
 16777215
370
     9
100
AcDbVertex
100
AcDb2dVertex
 10
160.5524739181952
 20
-172.4890407554889
 30
0.0
  0
VERTEX
  5
76
330
74
100
AcDbEntity
  8
Capa 1
 62
     7
420
 16777215
370
     9
100
AcDbVertex
100
AcDb2dVertex
 10
159.7935193827947
 20
-171.7280191627972
 30
0.0
  0
SEQEND
  5
77
330
74
100
AcDbEntity
  8
Capa 1
370
     9
  0
POLYLINE
  5
78
330
1F
100
AcDbEntity
  8
Capa 1
 62
     7
420
 16777215
370
     9
100
AcDb2dPolyline
 66
     1
 10
0.0
 20
0.0
 30
0.0
  0
VERTEX
  5
79
330
78
100
AcDbEntity
  8
Capa 1
 62
     7
420
 16777215
370
     9
100
AcDbVertex
100
AcDb2dVertex
 10
159.7935193827947
 20
-158.0585692964229
 30
0.0
  0
VERTEX
  5
7A
330
78
100
AcDbEntity
  8
Capa 1
 62
     7
420
 16777215
370
     9
100
AcDbVertex
100
AcDb2dVertex
 10
160.5524739181952
 20
-157.2975477037312
 30
0.0
  0
SEQEND
  5
7B
330
78
100
AcDbEntity
  8
Capa 1
370
     9
  0
POLYLINE
  5
7C
330
1F
100
AcDbEntity
  8
Capa 1
 62
     7
420
 16777215
370
     9
100
AcDb2dPolyline
 66
     1
 10
0.0
 20
0.0
 30
0.0
  0
VERTEX
  5
7D
330
7C
100
AcDbEntity
  8
Capa 1
 62
     7
420
 16777215
370
     9
100
AcDbVertex
100
AcDb2dVertex
 10
165.8699787996783
 20
-157.2975477037312
 30
0.0
  0
VERTEX
  5
7E
330
7C
100
AcDbEntity
  8
Capa 1
 62
     7
420
 16777215
370
     9
100
AcDbVertex
100
AcDb2dVertex
 10
166.63100039237
 20
-158.0585692964229
 30
0.0
  0
SEQEND
  5
7F
330
7C
100
AcDbEntity
  8
Capa 1
370
     9
  0
POLYLINE
  5
80
330
1F
100
AcDbEntity
  8
Capa 1
 62
     7
420
 16777215
370
     9
100
AcDb2dPolyline
 66
     1
 10
0.0
 20
0.0
 30
0.0
  0
VERTEX
  5
81
330
80
100
AcDbEntity
  8
Capa 1
 62
     7
420
 16777215
370
     9
100
AcDbVertex
100
AcDb2dVertex
 10
166.63100039237
 20
-171.7280191627972
 30
0.0
  0
VERTEX
  5
82
330
80
100
AcDbEntity
  8
Capa 1
 62
     7
420
 16777215
370
     9
100
AcDbVertex
100
AcDb2dVertex
 10
165.8699787996783
 20
-172.4890407554889
 30
0.0
  0
SEQEND
  5
83
330
80
100
AcDbEntity
  8
Capa 1
370
     9
  0
POLYLINE
  5
84
330
1F
100
AcDbEntity
  8
Capa 1
 62
     7
420
 16777215
370
     9
100
AcDb2dPolyline
 66
     1
 10
0.0
 20
0.0
 30
0.0
  0
VERTEX
  5
85
330
84
100
AcDbEntity
  8
Capa 1
 62
     7
420
 16777215
370
     9
100
AcDbVertex
100
AcDb2dVertex
 10
165.8699787996783
 20
-157.2975477037312
 30
0.0
  0
VERTEX
  5
86
330
84
100
AcDbEntity
  8
Capa 1
 62
     7
420
 16777215
370
     9
100
AcDbVertex
100
AcDb2dVertex
 10
166.63100039237
 20
-158.0585692964229
 30
0.0
  0
SEQEND
  5
87
330
84
100
AcDbEntity
  8
Capa 1
370
     9
  0
POLYLINE
  5
88
330
1F
100
AcDbEntity
  8
Capa 1
 62
     7
420
 16777215
370
     9
100
AcDb2dPolyline
 66
     1
 10
0.0
 20
0.0
 30
0.0
  0
VERTEX
  5
89
330
88
100
AcDbEntity
  8
Capa 1
 62
     7
420
 16777215
370
     9
100
AcDbVertex
100
AcDb2dVertex
 10
166.63100039237
 20
-171.7280191627972
 30
0.0
  0
VERTEX
  5
8A
330
88
100
AcDbEntity
  8
Capa 1
 62
     7
420
 16777215
370
     9
100
AcDbVertex
100
AcDb2dVertex
 10
165.8699787996783
 20
-172.4890407554889
 30
0.0
  0
SEQEND
  5
8B
330
88
100
AcDbEntity
  8
Capa 1
370
     9
  0
POLYLINE
  5
8C
330
1F
100
AcDbEntity
  8
Capa 1
 62
     7
420
 16777215
370
     9
100
AcDb2dPolyline
 66
     1
 10
0.0
 20
0.0
 30
0.0
  0
VERTEX
  5
8D
330
8C
100
AcDbEntity
  8
Capa 1
 62
     7
420
 16777215
370
     9
100
AcDbVertex
100
AcDb2dVertex
 10
160.5524739181952
 20
-172.4890407554889
 30
0.0
  0
VERTEX
  5
8E
330
8C
100
AcDbEntity
  8
Capa 1
 62
     7
420
 16777215
370
     9
100
AcDbVertex
100
AcDb2dVertex
 10
159.7935193827947
 20
-171.7280191627972
 30
0.0
  0
SEQEND
  5
8F
330
8C
100
AcDbEntity
  8
Capa 1
370
     9
  0
POLYLINE
  5
90
330
1F
100
AcDbEntity
  8
Capa 1
 62
     7
420
 16777215
370
     9
100
AcDb2dPolyline
 66
     1
 10
0.0
 20
0.0
 30
0.0
  0
VERTEX
  5
91
330
90
100
AcDbEntity
  8
Capa 1
 62
     7
420
 16777215
370
     9
100
AcDbVertex
100
AcDb2dVertex
 10
159.7935193827947
 20
-158.0585692964229
 30
0.0
  0
VERTEX
  5
92
330
90
100
AcDbEntity
  8
Capa 1
 62
     7
420
 16777215
370
     9
100
AcDbVertex
100
AcDb2dVertex
 10
160.5524739181952
 20
-157.2975477037312
 30
0.0
  0
SEQEND
  5
93
330
90
100
AcDbEntity
  8
Capa 1
370
     9
  0
POLYLINE
  5
94
330
1F
100
AcDbEntity
  8
Capa 1
 62
     7
420
 16777215
370
     9
100
AcDb2dPolyline
 66
     1
 10
0.0
 20
0.0
 30
0.0
  0
VERTEX
  5
95
330
94
100
AcDbEntity
  8
Capa 1
 62
     7
420
 16777215
370
     9
100
AcDbVertex
100
AcDb2dVertex
 10
165.1106797547293
 20
-172.4890407554889
 30
0.0
  0
VERTEX
  5
96
330
94
100
AcDbEntity
  8
Capa 1
 62
     7
420
 16777215
370
     9
100
AcDbVertex
100
AcDb2dVertex
 10
161.3134955108869
 20
-172.4890407554889
 30
0.0
  0
SEQEND
  5
97
330
94
100
AcDbEntity
  8
Capa 1
370
     9
  0
POLYLINE
  5
98
330
1F
100
AcDbEntity
  8
Capa 1
 62
     7
420
 16777215
370
     9
100
AcDb2dPolyline
 66
     1
 10
0.0
 20
0.0
 30
0.0
  0
VERTEX
  5
99
330
98
100
AcDbEntity
  8
Capa 1
 62
     7
420
 16777215
370
     9
100
AcDbVertex
100
AcDb2dVertex
 10
161.3134955108869
 20
-157.2975477037312
 30
0.0
  0
VERTEX
  5
9A
330
98
100
AcDbEntity
  8
Capa 1
 62
     7
420
 16777215
370
     9
100
AcDbVertex
100
AcDb2dVertex
 10
165.1106797547293
 20
-157.2975477037312
 30
0.0
  0
SEQEND
  5
9B
330
98
100
AcDbEntity
  8
Capa 1
370
     9
  0
POLYLINE
  5
9C
330
1F
100
AcDbEntity
  8
Capa 1
 62
     7
420
 16777215
370
     9
100
AcDb2dPolyline
 66
     1
 10
0.0
 20
0.0
 30
0.0
  0
VERTEX
  5
9D
330
9C
100
AcDbEntity
  8
Capa 1
 62
     7
420
 16777215
370
     9
100
AcDbVertex
100
AcDb2dVertex
 10
161.3134955108869
 20
-158.0806179075285
 30
0.0
  0
VERTEX
  5
9E
330
9C
100
AcDbEntity
  8
Capa 1
 62
     7
420
 16777215
370
     9
100
AcDbVertex
100
AcDb2dVertex
 10
161.3134955108869
 20
-157.2975477037312
 30
0.0
  0
SEQEND
  5
9F
330
9C
100
AcDbEntity
  8
Capa 1
370
     9
  0
POLYLINE
  5
A0
330
1F
100
AcDbEntity
  8
Capa 1
 62
     7
420
 16777215
370
     9
100
AcDb2dPolyline
 66
     1
 10
0.0
 20
0.0
 30
0.0
  0
VERTEX
  5
A1
330
A0
100
AcDbEntity
  8
Capa 1
 62
     7
420
 16777215
370
     9
100
AcDbVertex
100
AcDb2dVertex
 10
161.3134955108869
 20
-157.2975477037312
 30
0.0
  0
VERTEX
  5
A2
330
A0
100
AcDbEntity
  8
Capa 1
 62
     7
420
 16777215
370
     9
100
AcDbVertex
100
AcDb2dVertex
 10
165.1106797547293
 20
-157.2975477037312
 30
0.0
  0
SEQEND
  5
A3
330
A0
100
AcDbEntity
  8
Capa 1
370
     9
  0
POLYLINE
  5
A4
330
1F
100
AcDbEntity
  8
Capa 1
 62
     7
420
 16777215
370
     9
100
AcDb2dPolyline
 66
     1
 10
0.0
 20
0.0
 30
0.0
  0
VERTEX
  5
A5
330
A4
100
AcDbEntity
  8
Capa 1
 62
     7
420
 16777215
370
     9
100
AcDbVertex
100
AcDb2dVertex
 10
166.63100039237
 20
-171.7280191627972
 30
0.0
  0
VERTEX
  5
A6
330
A4
100
AcDbEntity
  8
Capa 1
 62
     7
420
 16777215
370
     9
100
AcDbVertex
100
AcDb2dVertex
 10
166.63100039237
 20
-158.0585692964229
 30
0.0
  0
SEQEND
  5
A7
330
A4
100
AcDbEntity
  8
Capa 1
370
     9
  0
POLYLINE
  5
A8
330
1F
100
AcDbEntity
  8
Capa 1
 62
     7
420
 16777215
370
     9
100
AcDb2dPolyline
 66
     1
 10
0.0
 20
0.0
 30
0.0
  0
VERTEX
  5
A9
330
A8
100
AcDbEntity
  8
Capa 1
 62
     7
420
 16777215
370
     9
100
AcDbVertex
100
AcDb2dVertex
 10
161.3134955108869
 20
-164.1095350067157
 30
0.0
  0
VERTEX
  5
AA
330
A8
100
AcDbEntity
  8
Capa 1
 62
     7
420
 16777215
370
     9
100
AcDbVertex
100
AcDb2dVertex
 10
165.1106797547293
 20
-164.1095350067157
 30
0.0
  0
SEQEND
  5
AB
330
A8
100
AcDbEntity
  8
Capa 1
370
     9
  0
POLYLINE
  5
AC
330
1F
100
AcDbEntity
  8
Capa 1
 62
     7
420
 16777215
370
     9
100
AcDb2dPolyline
 66
     1
 10
0.0
 20
0.0
 30
0.0
  0
VERTEX
  5
AD
330
AC
100
AcDbEntity
  8
Capa 1
 62
     7
420
 16777215
370
     9
100
AcDbVertex
100
AcDb2dVertex
 10
165.1106797547293
 20
-158.0806179075285
 30
0.0
  0
VERTEX
  5
AE
330
AC
100
AcDbEntity
  8
Capa 1
 62
     7
420
 16777215
370
     9
100
AcDbVertex
100
AcDb2dVertex
 10
161.3134955108869
 20
-158.0806179075285
 30
0.0
  0
SEQEND
  5
AF
330
AC
100
AcDbEntity
  8
Capa 1
370
     9
  0
POLYLINE
  5
B0
330
1F
100
AcDbEntity
  8
Capa 1
 62
     7
420
 16777215
370
     9
100
AcDb2dPolyline
 66
     1
 10
0.0
 20
0.0
 30
0.0
  0
VERTEX
  5
B1
330
B0
100
AcDbEntity
  8
Capa 1
 62
     7
420
 16777215
370
     9
100
AcDbVertex
100
AcDb2dVertex
 10
161.3134955108869
 20
-171.7039034944004
 30
0.0
  0
VERTEX
  5
B2
330
B0
100
AcDbEntity
  8
Capa 1
 62
     7
420
 16777215
370
     9
100
AcDbVertex
100
AcDb2dVertex
 10
165.1106797547293
 20
-171.7039034944004
 30
0.0
  0
SEQEND
  5
B3
330
B0
100
AcDbEntity
  8
Capa 1
370
     9
  0
POLYLINE
  5
B4
330
1F
100
AcDbEntity
  8
Capa 1
 62
     7
420
 16777215
370
     9
100
AcDb2dPolyline
 66
     1
 10
0.0
 20
0.0
 30
0.0
  0
VERTEX
  5
B5
330
B4
100
AcDbEntity
  8
Capa 1
 62
     7
420
 16777215
370
     9
100
AcDbVertex
100
AcDb2dVertex
 10
165.1106797547293
 20
-165.6773979620529
 30
0.0
  0
VERTEX
  5
B6
330
B4
100
AcDbEntity
  8
Capa 1
 62
     7
420
 16777215
370
     9
100
AcDbVertex
100
AcDb2dVertex
 10
161.3134955108869
 20
-165.6773979620529
 30
0.0
  0
SEQEND
  5
B7
330
B4
100
AcDbEntity
  8
Capa 1
370
     9
  0
POLYLINE
  5
B8
330
1F
100
AcDbEntity
  8
Capa 1
 62
     7
420
 16777215
370
     9
100
AcDb2dPolyline
 66
     1
 10
0.0
 20
0.0
 30
0.0
  0
VERTEX
  5
B9
330
B8
100
AcDbEntity
  8
Capa 1
 62
     7
420
 16777215
370
     9
100
AcDbVertex
100
AcDb2dVertex
 10
161.3134955108869
 20
-172.4890407554889
 30
0.0
  0
VERTEX
  5
BA
330
B8
100
AcDbEntity
  8
Capa 1
 62
     7
420
 16777215
370
     9
100
AcDbVertex
100
AcDb2dVertex
 10
161.3134955108869
 20
-171.7039034944004
 30
0.0
  0
SEQEND
  5
BB
330
B8
100
AcDbEntity
  8
Capa 1
370
     9
  0
POLYLINE
  5
BC
330
1F
100
AcDbEntity
  8
Capa 1
 62
     7
420
 16777215
370
     9
100
AcDb2dPolyline
 66
     1
 10
0.0
 20
0.0
 30
0.0
  0
VERTEX
  5
BD
330
BC
100
AcDbEntity
  8
Capa 1
 62
     7
420
 16777215
370
     9
100
AcDbVertex
100
AcDb2dVertex
 10
161.3134955108869
 20
-165.6773979620529
 30
0.0
  0
VERTEX
  5
BE
330
BC
100
AcDbEntity
  8
Capa 1
 62
     7
420
 16777215
370
     9
100
AcDbVertex
100
AcDb2dVertex
 10
161.3134955108869
 20
-164.1095350067157
 30
0.0
  0
SEQEND
  5
BF
330
BC
100
AcDbEntity
  8
Capa 1
370
     9
  0
POLYLINE
  5
C0
330
1F
100
AcDbEntity
  8
Capa 1
 62
     7
420
 16777215
370
     9
100
AcDb2dPolyline
 66
     1
 10
0.0
 20
0.0
 30
0.0
  0
VERTEX
  5
C1
330
C0
100
AcDbEntity
  8
Capa 1
 62
     7
420
 16777215
370
     9
100
AcDbVertex
100
AcDb2dVertex
 10
161.3134955108869
 20
-158.0806179075285
 30
0.0
  0
VERTEX
  5
C2
330
C0
100
AcDbEntity
  8
Capa 1
 62
     7
420
 16777215
370
     9
100
AcDbVertex
100
AcDb2dVertex
 10
161.3134955108869
 20
-157.2975477037312
 30
0.0
  0
SEQEND
  5
C3
330
C0
100
AcDbEntity
  8
Capa 1
370
     9
  0
POLYLINE
  5
C4
330
1F
100
AcDbEntity
  8
Capa 1
 62
     7
420
 16777215
370
     9
100
AcDb2dPolyline
 66
     1
 10
0.0
 20
0.0
 30
0.0
  0
VERTEX
  5
C5
330
C4
100
AcDbEntity
  8
Capa 1
 62
     7
420
 16777215
370
     9
100
AcDbVertex
100
AcDb2dVertex
 10
165.1106797547293
 20
-171.7039034944004
 30
0.0
  0
VERTEX
  5
C6
330
C4
100
AcDbEntity
  8
Capa 1
 62
     7
420
 16777215
370
     9
100
AcDbVertex
100
AcDb2dVertex
 10
165.1106797547293
 20
-172.4890407554889
 30
0.0
  0
SEQEND
  5
C7
330
C4
100
AcDbEntity
  8
Capa 1
370
     9
  0
POLYLINE
  5
C8
330
1F
100
AcDbEntity
  8
Capa 1
 62
     7
420
 16777215
370
     9
100
AcDb2dPolyline
 66
     1
 10
0.0
 20
0.0
 30
0.0
  0
VERTEX
  5
C9
330
C8
100
AcDbEntity
  8
Capa 1
 62
     7
420
 16777215
370
     9
100
AcDbVertex
100
AcDb2dVertex
 10
165.1106797547293
 20
-157.2975477037312
 30
0.0
  0
VERTEX
  5
CA
330
C8
100
AcDbEntity
  8
Capa 1
 62
     7
420
 16777215
370
     9
100
AcDbVertex
100
AcDb2dVertex
 10
165.1106797547293
 20
-158.0806179075285
 30
0.0
  0
SEQEND
  5
CB
330
C8
100
AcDbEntity
  8
Capa 1
370
     9
  0
POLYLINE
  5
CC
330
1F
100
AcDbEntity
  8
Capa 1
 62
     7
420
 16777215
370
     9
100
AcDb2dPolyline
 66
     1
 10
0.0
 20
0.0
 30
0.0
  0
VERTEX
  5
CD
330
CC
100
AcDbEntity
  8
Capa 1
 62
     7
420
 16777215
370
     9
100
AcDbVertex
100
AcDb2dVertex
 10
165.1106797547293
 20
-164.1095350067157
 30
0.0
  0
VERTEX
  5
CE
330
CC
100
AcDbEntity
  8
Capa 1
 62
     7
420
 16777215
370
     9
100
AcDbVertex
100
AcDb2dVertex
 10
165.1106797547293
 20
-165.6773979620529
 30
0.0
  0
SEQEND
  5
CF
330
CC
100
AcDbEntity
  8
Capa 1
370
     9
  0
POLYLINE
  5
D0
330
1F
100
AcDbEntity
  8
Capa 1
 62
     7
420
 16777215
370
     9
100
AcDb2dPolyline
 66
     1
 10
0.0
 20
0.0
 30
0.0
  0
VERTEX
  5
D1
330
D0
100
AcDbEntity
  8
Capa 1
 62
     7
420
 16777215
370
     9
100
AcDbVertex
100
AcDb2dVertex
 10
166.63100039237
 20
-171.7280191627972
 30
0.0
  0
VERTEX
  5
D2
330
D0
100
AcDbEntity
  8
Capa 1
 62
     7
420
 16777215
370
     9
100
AcDbVertex
100
AcDb2dVertex
 10
166.63100039237
 20
-158.0585692964229
 30
0.0
  0
SEQEND
  5
D3
330
D0
100
AcDbEntity
  8
Capa 1
370
     9
  0
POLYLINE
  5
D4
330
1F
100
AcDbEntity
  8
Capa 1
 62
     7
420
 16777215
370
     9
100
AcDb2dPolyline
 66
     1
 10
0.0
 20
0.0
 30
0.0
  0
VERTEX
  5
D5
330
D4
100
AcDbEntity
  8
Capa 1
 62
     7
420
 16777215
370
     9
100
AcDbVertex
100
AcDb2dVertex
 10
161.3134955108869
 20
-157.2975477037312
 30
0.0
  0
VERTEX
  5
D6
330
D4
100
AcDbEntity
  8
Capa 1
 62
     7
420
 16777215
370
     9
100
AcDbVertex
100
AcDb2dVertex
 10
165.1106797547293
 20
-157.2975477037312
 30
0.0
  0
SEQEND
  5
D7
330
D4
100
AcDbEntity
  8
Capa 1
370
     9
  0
POLYLINE
  5
D8
330
1F
100
AcDbEntity
  8
Capa 1
 62
     7
420
 16777215
370
     9
100
AcDb2dPolyline
 66
     1
 10
0.0
 20
0.0
 30
0.0
  0
VERTEX
  5
D9
330
D8
100
AcDbEntity
  8
Capa 1
 62
     7
420
 16777215
370
     9
100
AcDbVertex
100
AcDb2dVertex
 10
165.1106797547293
 20
-172.4890407554889
 30
0.0
  0
VERTEX
  5
DA
330
D8
100
AcDbEntity
  8
Capa 1
 62
     7
420
 16777215
370
     9
100
AcDbVertex
100
AcDb2dVertex
 10
161.3134955108869
 20
-172.4890407554889
 30
0.0
  0
SEQEND
  5
DB
330
D8
100
AcDbEntity
  8
Capa 1
370
     9
  0
POLYLINE
  5
DC
330
1F
100
AcDbEntity
  8
Capa 1
 62
     7
420
 16777215
370
     9
100
AcDb2dPolyline
 66
     1
 10
0.0
 20
0.0
 30
0.0
  0
VERTEX
  5
DD
330
DC
100
AcDbEntity
  8
Capa 1
 62
     7
420
 16777215
370
     9
100
AcDbVertex
100
AcDb2dVertex
 10
161.3134955108869
 20
-165.6773979620529
 30
0.0
  0
VERTEX
  5
DE
330
DC
100
AcDbEntity
  8
Capa 1
 62
     7
420
 16777215
370
     9
100
AcDbVertex
100
AcDb2dVertex
 10
161.3134955108869
 20
-164.1095350067157
 30
0.0
  0
SEQEND
  5
DF
330
DC
100
AcDbEntity
  8
Capa 1
370
     9
  0
POLYLINE
  5
E0
330
1F
100
AcDbEntity
  8
Capa 1
 62
     7
420
 16777215
370
     9
100
AcDb2dPolyline
 66
     1
 10
0.0
 20
0.0
 30
0.0
  0
VERTEX
  5
E1
330
E0
100
AcDbEntity
  8
Capa 1
 62
     7
420
 16777215
370
     9
100
AcDbVertex
100
AcDb2dVertex
 10
161.3134955108869
 20
-172.4890407554889
 30
0.0
  0
VERTEX
  5
E2
330
E0
100
AcDbEntity
  8
Capa 1
 62
     7
420
 16777215
370
     9
100
AcDbVertex
100
AcDb2dVertex
 10
161.3134955108869
 20
-171.7039034944004
 30
0.0
  0
SEQEND
  5
E3
330
E0
100
AcDbEntity
  8
Capa 1
370
     9
  0
POLYLINE
  5
E4
330
1F
100
AcDbEntity
  8
Capa 1
 62
     7
420
 16777215
370
     9
100
AcDb2dPolyline
 66
     1
 10
0.0
 20
0.0
 30
0.0
  0
VERTEX
  5
E5
330
E4
100
AcDbEntity
  8
Capa 1
 62
     7
420
 16777215
370
     9
100
AcDbVertex
100
AcDb2dVertex
 10
166.63100039237
 20
-172.277856402243
 30
0.0
  0
VERTEX
  5
E6
330
E4
100
AcDbEntity
  8
Capa 1
 62
     7
420
 16777215
370
     9
100
AcDbVertex
100
AcDb2dVertex
 10
166.3777858742042
 20
-172.277856402243
 30
0.0
  0
SEQEND
  5
E7
330
E4
100
AcDbEntity
  8
Capa 1
370
     9
  0
POLYLINE
  5
E8
330
1F
100
AcDbEntity
  8
Capa 1
 62
     7
420
 16777215
370
     9
100
AcDb2dPolyline
 66
     1
 10
0.0
 20
0.0
 30
0.0
  0
VERTEX
  5
E9
330
E8
100
AcDbEntity
  8
Capa 1
 62
     7
420
 16777215
370
     9
100
AcDbVertex
100
AcDb2dVertex
 10
166.3777858742042
 20
-172.277856402243
 30
0.0
  0
VERTEX
  5
EA
330
E8
100
AcDbEntity
  8
Capa 1
 62
     7
420
 16777215
370
     9
100
AcDbVertex
100
AcDb2dVertex
 10
166.3777858742042
 20
-172.6643961156881
 30
0.0
  0
SEQEND
  5
EB
330
E8
100
AcDbEntity
  8
Capa 1
370
     9
  0
POLYLINE
  5
EC
330
1F
100
AcDbEntity
  8
Capa 1
 62
     7
420
 16777215
370
     9
100
AcDb2dPolyline
 66
     1
 10
0.0
 20
0.0
 30
0.0
  0
VERTEX
  5
ED
330
EC
100
AcDbEntity
  8
Capa 1
 62
     7
420
 16777215
370
     9
100
AcDbVertex
100
AcDb2dVertex
 10
166.7564018680331
 20
-174.0231417750706
 30
0.0
  0
VERTEX
  5
EE
330
EC
100
AcDbEntity
  8
Capa 1
 62
     7
420
 16777215
370
     9
100
AcDbVertex
100
AcDb2dVertex
 10
166.7564018680331
 20
-173.2958821181344
 30
0.0
  0
SEQEND
  5
EF
330
EC
100
AcDbEntity
  8
Capa 1
370
     9
  0
POLYLINE
  5
F0
330
1F
100
AcDbEntity
  8
Capa 1
 62
     7
420
 16777215
370
     9
100
AcDb2dPolyline
 66
     1
 10
0.0
 20
0.0
 30
0.0
  0
VERTEX
  5
F1
330
F0
100
AcDbEntity
  8
Capa 1
 62
     7
420
 16777215
370
     9
100
AcDbVertex
100
AcDb2dVertex
 10
166.63100039237
 20
-171.7280191627972
 30
0.0
  0
VERTEX
  5
F2
330
F0
100
AcDbEntity
  8
Capa 1
 62
     7
420
 16777215
370
     9
100
AcDbVertex
100
AcDb2dVertex
 10
166.63100039237
 20
-158.0585692964229
 30
0.0
  0
SEQEND
  5
F3
330
F0
100
AcDbEntity
  8
Capa 1
370
     9
  0
POLYLINE
  5
F4
330
1F
100
AcDbEntity
  8
Capa 1
 62
     7
420
 16777215
370
     9
100
AcDb2dPolyline
 66
     1
 10
0.0
 20
0.0
 30
0.0
  0
VERTEX
  5
F5
330
F4
100
AcDbEntity
  8
Capa 1
 62
     7
420
 16777215
370
     9
100
AcDbVertex
100
AcDb2dVertex
 10
165.1106797547293
 20
-158.0806179075285
 30
0.0
  0
VERTEX
  5
F6
330
F4
100
AcDbEntity
  8
Capa 1
 62
     7
420
 16777215
370
     9
100
AcDbVertex
100
AcDb2dVertex
 10
161.3134955108869
 20
-158.0806179075285
 30
0.0
  0
SEQEND
  5
F7
330
F4
100
AcDbEntity
  8
Capa 1
370
     9
  0
POLYLINE
  5
F8
330
1F
100
AcDbEntity
  8
Capa 1
 62
     7
420
 16777215
370
     9
100
AcDb2dPolyline
 66
     1
 10
0.0
 20
0.0
 30
0.0
  0
VERTEX
  5
F9
330
F8
100
AcDbEntity
  8
Capa 1
 62
     7
420
 16777215
370
     9
100
AcDbVertex
100
AcDb2dVertex
 10
166.63100039237
 20
-171.7280191627972
 30
0.0
  0
VERTEX
  5
FA
330
F8
100
AcDbEntity
  8
Capa 1
 62
     7
420
 16777215
370
     9
100
AcDbVertex
100
AcDb2dVertex
 10
166.63100039237
 20
-172.277856402243
 30
0.0
  0
SEQEND
  5
FB
330
F8
100
AcDbEntity
  8
Capa 1
370
     9
  0
POLYLINE
  5
FC
330
1F
100
AcDbEntity
  8
Capa 1
 62
     7
420
 16777215
370
     9
100
AcDb2dPolyline
 66
     1
 10
0.0
 20
0.0
 30
0.0
  0
VERTEX
  5
FD
330
FC
100
AcDbEntity
  8
Capa 1
 62
     7
420
 16777215
370
     9
100
AcDbVertex
100
AcDb2dVertex
 10
161.3134955108869
 20
-164.1095350067157
 30
0.0
  0
VERTEX
  5
FE
330
FC
100
AcDbEntity
  8
Capa 1
 62
     7
420
 16777215
370
     9
100
AcDbVertex
100
AcDb2dVertex
 10
165.1106797547293
 20
-164.1095350067157
 30
0.0
  0
SEQEND
  5
FF
330
FC
100
AcDbEntity
  8
Capa 1
370
     9
  0
POLYLINE
  5
100
330
1F
100
AcDbEntity
  8
Capa 1
 62
     7
420
 16777215
370
     9
100
AcDb2dPolyline
 66
     1
 10
0.0
 20
0.0
 30
0.0
  0
VERTEX
  5
101
330
100
100
AcDbEntity
  8
Capa 1
 62
     7
420
 16777215
370
     9
100
AcDbVertex
100
AcDb2dVertex
 10
165.1106797547293
 20
-165.6773979620529
 30
0.0
  0
VERTEX
  5
102
330
100
100
AcDbEntity
  8
Capa 1
 62
     7
420
 16777215
370
     9
100
AcDbVertex
100
AcDb2dVertex
 10
161.3134955108869
 20
-165.6773979620529
 30
0.0
  0
SEQEND
  5
103
330
100
100
AcDbEntity
  8
Capa 1
370
     9
  0
POLYLINE
  5
104
330
1F
100
AcDbEntity
  8
Capa 1
 62
     7
420
 16777215
370
     9
100
AcDb2dPolyline
 66
     1
 10
0.0
 20
0.0
 30
0.0
  0
VERTEX
  5
105
330
104
100
AcDbEntity
  8
Capa 1
 62
     7
420
 16777215
370
     9
100
AcDbVertex
100
AcDb2dVertex
 10
161.3134955108869
 20
-171.7039034944004
 30
0.0
  0
VERTEX
  5
106
330
104
100
AcDbEntity
  8
Capa 1
 62
     7
420
 16777215
370
     9
100
AcDbVertex
100
AcDb2dVertex
 10
165.1106797547293
 20
-171.7039034944004
 30
0.0
  0
SEQEND
  5
107
330
104
100
AcDbEntity
  8
Capa 1
370
     9
  0
POLYLINE
  5
108
330
1F
100
AcDbEntity
  8
Capa 1
 62
     7
420
 16777215
370
     9
100
AcDb2dPolyline
 66
     1
 10
0.0
 20
0.0
 30
0.0
  0
VERTEX
  5
109
330
108
100
AcDbEntity
  8
Capa 1
 62
     7
420
 16777215
370
     9
100
AcDbVertex
100
AcDb2dVertex
 10
166.7564018680331
 20
-157.0925645223588
 30
0.0
  0
VERTEX
  5
10A
330
108
100
AcDbEntity
  8
Capa 1
 62
     7
420
 16777215
370
     9
100
AcDbVertex
100
AcDb2dVertex
 10
166.7564018680331
 20
-157.72990718713
 30
0.0
  0
SEQEND
  5
10B
330
108
100
AcDbEntity
  8
Capa 1
370
     9
  0
POLYLINE
  5
10C
330
1F
100
AcDbEntity
  8
Capa 1
 62
     7
420
 16777215
370
     9
100
AcDb2dPolyline
 66
     1
 10
0.0
 20
0.0
 30
0.0
  0
VERTEX
  5
10D
330
10C
100
AcDbEntity
  8
Capa 1
 62
     7
420
 16777215
370
     9
100
AcDbVertex
100
AcDb2dVertex
 10
166.3777858742042
 20
-172.277856402243
 30
0.0
  0
VERTEX
  5
10E
330
10C
100
AcDbEntity
  8
Capa 1
 62
     7
420
 16777215
370
     9
100
AcDbVertex
100
AcDb2dVertex
 10
166.3777858742042
 20
-171.9829562287057
 30
0.0
  0
SEQEND
  5
10F
330
10C
100
AcDbEntity
  8
Capa 1
370
     9
  0
POLYLINE
  5
110
330
1F
100
AcDbEntity
  8
Capa 1
 62
     7
420
 16777215
370
     9
100
AcDb2dPolyline
 66
     1
 10
0.0
 20
0.0
 30
0.0
  0
VERTEX
  5
111
330
110
100
AcDbEntity
  8
Capa 1
 62
     7
420
 16777215
370
     9
100
AcDbVertex
100
AcDb2dVertex
 10
165.1106797547293
 20
-164.1095350067157
 30
0.0
  0
VERTEX
  5
112
330
110
100
AcDbEntity
  8
Capa 1
 62
     7
420
 16777215
370
     9
100
AcDbVertex
100
AcDb2dVertex
 10
165.1106797547293
 20
-165.6773979620529
 30
0.0
  0
SEQEND
  5
113
330
110
100
AcDbEntity
  8
Capa 1
370
     9
  0
POLYLINE
  5
114
330
1F
100
AcDbEntity
  8
Capa 1
 62
     7
420
 16777215
370
     9
100
AcDb2dPolyline
 66
     1
 10
0.0
 20
0.0
 30
0.0
  0
VERTEX
  5
115
330
114
100
AcDbEntity
  8
Capa 1
 62
     7
420
 16777215
370
     9
100
AcDbVertex
100
AcDb2dVertex
 10
166.7564018680331
 20
-174.0231417750706
 30
0.0
  0
VERTEX
  5
116
330
114
100
AcDbEntity
  8
Capa 1
 62
     7
420
 16777215
370
     9
100
AcDbVertex
100
AcDb2dVertex
 10
166.7564018680331
 20
-178.4600802505239
 30
0.0
  0
SEQEND
  5
117
330
114
100
AcDbEntity
  8
Capa 1
370
     9
  0
POLYLINE
  5
118
330
1F
100
AcDbEntity
  8
Capa 1
 62
     7
420
 16777215
370
     9
100
AcDb2dPolyline
 66
     1
 10
0.0
 20
0.0
 30
0.0
  0
VERTEX
  5
119
330
118
100
AcDbEntity
  8
Capa 1
 62
     7
420
 16777215
370
     9
100
AcDbVertex
100
AcDb2dVertex
 10
165.1106797547293
 20
-172.4890407554889
 30
0.0
  0
VERTEX
  5
11A
330
118
100
AcDbEntity
  8
Capa 1
 62
     7
420
 16777215
370
     9
100
AcDbVertex
100
AcDb2dVertex
 10
161.3134955108869
 20
-172.4890407554889
 30
0.0
  0
SEQEND
  5
11B
330
118
100
AcDbEntity
  8
Capa 1
370
     9
  0
POLYLINE
  5
11C
330
1F
100
AcDbEntity
  8
Capa 1
 62
     7
420
 16777215
370
     9
100
AcDb2dPolyline
 66
     1
 10
0.0
 20
0.0
 30
0.0
  0
VERTEX
  5
11D
330
11C
100
AcDbEntity
  8
Capa 1
 62
     7
420
 16777215
370
     9
100
AcDbVertex
100
AcDb2dVertex
 10
165.1106797547293
 20
-157.2975477037312
 30
0.0
  0
VERTEX
  5
11E
330
11C
100
AcDbEntity
  8
Capa 1
 62
     7
420
 16777215
370
     9
100
AcDbVertex
100
AcDb2dVertex
 10
165.1106797547293
 20
-158.0806179075285
 30
0.0
  0
SEQEND
  5
11F
330
11C
100
AcDbEntity
  8
Capa 1
370
     9
  0
POLYLINE
  5
120
330
1F
100
AcDbEntity
  8
Capa 1
 62
     7
420
 16777215
370
     9
100
AcDb2dPolyline
 66
     1
 10
0.0
 20
0.0
 30
0.0
  0
VERTEX
  5
121
330
120
100
AcDbEntity
  8
Capa 1
 62
     7
420
 16777215
370
     9
100
AcDbVertex
100
AcDb2dVertex
 10
185.0378010605114
 20
-182.1635578971675
 30
0.0
  0
VERTEX
  5
122
330
120
100
AcDbEntity
  8
Capa 1
 62
     7
420
 16777215
370
     9
100
AcDbVertex
100
AcDb2dVertex
 10
185.0378010605114
 20
-159.4514214011094
 30
0.0
  0
SEQEND
  5
123
330
120
100
AcDbEntity
  8
Capa 1
370
     9
  0
POLYLINE
  5
124
330
1F
100
AcDbEntity
  8
Capa 1
 62
     7
420
 16777215
370
     9
100
AcDb2dPolyline
 66
     1
 10
0.0
 20
0.0
 30
0.0
  0
VERTEX
  5
125
330
124
100
AcDbEntity
  8
Capa 1
 62
     7
420
 16777215
370
     9
100
AcDbVertex
100
AcDb2dVertex
 10
166.7564018680331
 20
-181.3808322029187
 30
0.0
  0
VERTEX
  5
126
330
124
100
AcDbEntity
  8
Capa 1
 62
     7
420
 16777215
370
     9
100
AcDbVertex
100
AcDb2dVertex
 10
166.7564018680331
 20
-178.4600802505239
 30
0.0
  0
SEQEND
  5
127
330
124
100
AcDbEntity
  8
Capa 1
370
     9
  0
POLYLINE
  5
128
330
1F
100
AcDbEntity
  8
Capa 1
 62
     7
420
 16777215
370
     9
100
AcDb2dPolyline
 66
     1
 10
0.0
 20
0.0
 30
0.0
  0
VERTEX
  5
129
330
128
100
AcDbEntity
  8
Capa 1
 62
     7
420
 16777215
370
     9
100
AcDbVertex
100
AcDb2dVertex
 10
185.4184841116315
 20
-159.7580348992966
 30
0.0
  0
VERTEX
  5
12A
330
128
100
AcDbEntity
  8
Capa 1
 62
     7
420
 16777215
370
     9
100
AcDbVertex
100
AcDb2dVertex
 10
185.4184841116315
 20
-181.7832193555959
 30
0.0
  0
SEQEND
  5
12B
330
128
100
AcDbEntity
  8
Capa 1
370
     9
  0
POLYLINE
  5
12C
330
1F
100
AcDbEntity
  8
Capa 1
 62
     7
420
 16777215
370
     9
100
AcDb2dPolyline
 66
     1
 10
0.0
 20
0.0
 30
0.0
  0
VERTEX
  5
12D
330
12C
100
AcDbEntity
  8
Capa 1
 62
     7
420
 16777215
370
     9
100
AcDbVertex
100
AcDb2dVertex
 10
165.1106797547293
 20
-171.7039034944004
 30
0.0
  0
VERTEX
  5
12E
330
12C
100
AcDbEntity
  8
Capa 1
 62
     7
420
 16777215
370
     9
100
AcDbVertex
100
AcDb2dVertex
 10
165.1106797547293
 20
-172.4890407554889
 30
0.0
  0
SEQEND
  5
12F
330
12C
100
AcDbEntity
  8
Capa 1
370
     9
  0
POLYLINE
  5
130
330
1F
100
AcDbEntity
  8
Capa 1
 62
     7
420
 16777215
370
     9
100
AcDb2dPolyline
 66
     1
 10
0.0
 20
0.0
 30
0.0
  0
VERTEX
  5
131
330
130
100
AcDbEntity
  8
Capa 1
 62
     7
420
 16777215
370
     9
100
AcDbVertex
100
AcDb2dVertex
 10
166.7564018680331
 20
-183.9367485434256
 30
0.0
  0
VERTEX
  5
132
330
130
100
AcDbEntity
  8
Capa 1
 62
     7
420
 16777215
370
     9
100
AcDbVertex
100
AcDb2dVertex
 10
178.909665211349
 20
-183.9367485434256
 30
0.0
  0
SEQEND
  5
133
330
130
100
AcDbEntity
  8
Capa 1
370
     9
  0
POLYLINE
  5
134
330
1F
100
AcDbEntity
  8
Capa 1
 62
     7
420
 16777215
370
     9
100
AcDb2dPolyline
 66
     1
 10
0.0
 20
0.0
 30
0.0
  0
VERTEX
  5
135
330
134
100
AcDbEntity
  8
Capa 1
 62
     7
420
 16777215
370
     9
100
AcDbVertex
100
AcDb2dVertex
 10
166.7564018680331
 20
-182.1635578971675
 30
0.0
  0
VERTEX
  5
136
330
134
100
AcDbEntity
  8
Capa 1
 62
     7
420
 16777215
370
     9
100
AcDbVertex
100
AcDb2dVertex
 10
166.7564018680331
 20
-181.3808322029187
 30
0.0
  0
SEQEND
  5
137
330
134
100
AcDbEntity
  8
Capa 1
370
     9
  0
POLYLINE
  5
138
330
1F
100
AcDbEntity
  8
Capa 1
 62
     7
420
 16777215
370
     9
100
AcDb2dPolyline
 66
     1
 10
0.0
 20
0.0
 30
0.0
  0
VERTEX
  5
139
330
138
100
AcDbEntity
  8
Capa 1
 62
     7
420
 16777215
370
     9
100
AcDbVertex
100
AcDb2dVertex
 10
185.0378010605114
 20
-157.0925645223588
 30
0.0
  0
VERTEX
  5
13A
330
138
100
AcDbEntity
  8
Capa 1
 62
     7
420
 16777215
370
     9
100
AcDbVertex
100
AcDb2dVertex
 10
185.0378010605114
 20
-157.508732056977
 30
0.0
  0
SEQEND
  5
13B
330
138
100
AcDbEntity
  8
Capa 1
370
     9
  0
POLYLINE
  5
13C
330
1F
100
AcDbEntity
  8
Capa 1
 62
     7
420
 16777215
370
     9
100
AcDb2dPolyline
 66
     1
 10
0.0
 20
0.0
 30
0.0
  0
VERTEX
  5
13D
330
13C
100
AcDbEntity
  8
Capa 1
 62
     7
420
 16777215
370
     9
100
AcDbVertex
100
AcDb2dVertex
 10
185.4184841116315
 20
-157.4729030639304
 30
0.0
  0
VERTEX
  5
13E
330
13C
100
AcDbEntity
  8
Capa 1
 62
     7
420
 16777215
370
     9
100
AcDbVertex
100
AcDb2dVertex
 10
185.4184841116315
 20
-157.8773572738987
 30
0.0
  0
SEQEND
  5
13F
330
13C
100
AcDbEntity
  8
Capa 1
370
     9
  0
POLYLINE
  5
140
330
1F
100
AcDbEntity
  8
Capa 1
 62
     7
420
 16777215
370
     9
100
AcDb2dPolyline
 66
     1
 10
0.0
 20
0.0
 30
0.0
  0
VERTEX
  5
141
330
140
100
AcDbEntity
  8
Capa 1
 62
     7
420
 16777215
370
     9
100
AcDbVertex
100
AcDb2dVertex
 10
150.6784857479207
 20
-147.6747069943313
 30
0.0
  0
VERTEX
  5
142
330
140
100
AcDbEntity
  8
Capa 1
 62
     7
420
 16777215
370
     9
100
AcDbVertex
100
AcDb2dVertex
 10
150.6784857479207
 20
-182.1139485221799
 30
0.0
  0
SEQEND
  5
143
330
140
100
AcDbEntity
  8
Capa 1
370
     9
  0
POLYLINE
  5
144
330
1F
100
AcDbEntity
  8
Capa 1
 62
     7
420
 16777215
370
     9
100
AcDb2dPolyline
 66
     1
 10
0.0
 20
0.0
 30
0.0
  0
VERTEX
  5
145
330
144
100
AcDbEntity
  8
Capa 1
 62
     7
420
 16777215
370
     9
100
AcDbVertex
100
AcDb2dVertex
 10
159.7935193827947
 20
-157.0705159112532
 30
0.0
  0
VERTEX
  5
146
330
144
100
AcDbEntity
  8
Capa 1
 62
     7
420
 16777215
370
     9
100
AcDbVertex
100
AcDb2dVertex
 10
159.7935193827947
 20
-172.7160725479668
 30
0.0
  0
SEQEND
  5
147
330
144
100
AcDbEntity
  8
Capa 1
370
     9
  0
POLYLINE
  5
148
330
1F
100
AcDbEntity
  8
Capa 1
 62
     7
420
 16777215
370
     9
100
AcDb2dPolyline
 66
     1
 10
0.0
 20
0.0
 30
0.0
  0
VERTEX
  5
149
330
148
100
AcDbEntity
  8
Capa 1
 62
     7
420
 16777215
370
     9
100
AcDbVertex
100
AcDb2dVertex
 10
161.3134955108869
 20
-164.1095350067157
 30
0.0
  0
VERTEX
  5
14A
330
148
100
AcDbEntity
  8
Capa 1
 62
     7
420
 16777215
370
     9
100
AcDbVertex
100
AcDb2dVertex
 10
165.1106797547293
 20
-164.1095350067157
 30
0.0
  0
SEQEND
  5
14B
330
148
100
AcDbEntity
  8
Capa 1
370
     9
  0
POLYLINE
  5
14C
330
1F
100
AcDbEntity
  8
Capa 1
 62
     7
420
 16777215
370
     9
100
AcDb2dPolyline
 66
     1
 10
0.0
 20
0.0
 30
0.0
  0
VERTEX
  5
14D
330
14C
100
AcDbEntity
  8
Capa 1
 62
     7
420
 16777215
370
     9
100
AcDbVertex
100
AcDb2dVertex
 10
165.1106797547293
 20
-158.0806179075285
 30
0.0
  0
VERTEX
  5
14E
330
14C
100
AcDbEntity
  8
Capa 1
 62
     7
420
 16777215
370
     9
100
AcDbVertex
100
AcDb2dVertex
 10
161.3134955108869
 20
-158.0806179075285
 30
0.0
  0
SEQEND
  5
14F
330
14C
100
AcDbEntity
  8
Capa 1
370
     9
  0
POLYLINE
  5
150
330
1F
100
AcDbEntity
  8
Capa 1
 62
     7
420
 16777215
370
     9
100
AcDb2dPolyline
 66
     1
 10
0.0
 20
0.0
 30
0.0
  0
VERTEX
  5
151
330
150
100
AcDbEntity
  8
Capa 1
 62
     7
420
 16777215
370
     9
100
AcDbVertex
100
AcDb2dVertex
 10
161.3134955108869
 20
-171.7039034944004
 30
0.0
  0
VERTEX
  5
152
330
150
100
AcDbEntity
  8
Capa 1
 62
     7
420
 16777215
370
     9
100
AcDbVertex
100
AcDb2dVertex
 10
165.1106797547293
 20
-171.7039034944004
 30
0.0
  0
SEQEND
  5
153
330
150
100
AcDbEntity
  8
Capa 1
370
     9
  0
POLYLINE
  5
154
330
1F
100
AcDbEntity
  8
Capa 1
 62
     7
420
 16777215
370
     9
100
AcDb2dPolyline
 66
     1
 10
0.0
 20
0.0
 30
0.0
  0
VERTEX
  5
155
330
154
100
AcDbEntity
  8
Capa 1
 62
     7
420
 16777215
370
     9
100
AcDbVertex
100
AcDb2dVertex
 10
165.1106797547293
 20
-165.6773979620529
 30
0.0
  0
VERTEX
  5
156
330
154
100
AcDbEntity
  8
Capa 1
 62
     7
420
 16777215
370
     9
100
AcDbVertex
100
AcDb2dVertex
 10
161.3134955108869
 20
-165.6773979620529
 30
0.0
  0
SEQEND
  5
157
330
154
100
AcDbEntity
  8
Capa 1
370
     9
  0
POLYLINE
  5
158
330
1F
100
AcDbEntity
  8
Capa 1
 62
     7
420
 16777215
370
     9
100
AcDb2dPolyline
 66
     1
 10
0.0
 20
0.0
 30
0.0
  0
VERTEX
  5
159
330
158
100
AcDbEntity
  8
Capa 1
 62
     7
420
 16777215
370
     9
100
AcDbVertex
100
AcDb2dVertex
 10
161.3134955108869
 20
-172.4890407554889
 30
0.0
  0
VERTEX
  5
15A
330
158
100
AcDbEntity
  8
Capa 1
 62
     7
420
 16777215
370
     9
100
AcDbVertex
100
AcDb2dVertex
 10
161.3134955108869
 20
-171.7039034944004
 30
0.0
  0
SEQEND
  5
15B
330
158
100
AcDbEntity
  8
Capa 1
370
     9
  0
POLYLINE
  5
15C
330
1F
100
AcDbEntity
  8
Capa 1
 62
     7
420
 16777215
370
     9
100
AcDb2dPolyline
 66
     1
 10
0.0
 20
0.0
 30
0.0
  0
VERTEX
  5
15D
330
15C
100
AcDbEntity
  8
Capa 1
 62
     7
420
 16777215
370
     9
100
AcDbVertex
100
AcDb2dVertex
 10
161.3134955108869
 20
-165.6773979620529
 30
0.0
  0
VERTEX
  5
15E
330
15C
100
AcDbEntity
  8
Capa 1
 62
     7
420
 16777215
370
     9
100
AcDbVertex
100
AcDb2dVertex
 10
161.3134955108869
 20
-164.1095350067157
 30
0.0
  0
SEQEND
  5
15F
330
15C
100
AcDbEntity
  8
Capa 1
370
     9
  0
POLYLINE
  5
160
330
1F
100
AcDbEntity
  8
Capa 1
 62
     7
420
 16777215
370
     9
100
AcDb2dPolyline
 66
     1
 10
0.0
 20
0.0
 30
0.0
  0
VERTEX
  5
161
330
160
100
AcDbEntity
  8
Capa 1
 62
     7
420
 16777215
370
     9
100
AcDbVertex
100
AcDb2dVertex
 10
161.3134955108869
 20
-158.0806179075285
 30
0.0
  0
VERTEX
  5
162
330
160
100
AcDbEntity
  8
Capa 1
 62
     7
420
 16777215
370
     9
100
AcDbVertex
100
AcDb2dVertex
 10
161.3134955108869
 20
-157.2975477037312
 30
0.0
  0
SEQEND
  5
163
330
160
100
AcDbEntity
  8
Capa 1
370
     9
  0
POLYLINE
  5
164
330
1F
100
AcDbEntity
  8
Capa 1
 62
     7
420
 16777215
370
     9
100
AcDb2dPolyline
 66
     1
 10
0.0
 20
0.0
 30
0.0
  0
VERTEX
  5
165
330
164
100
AcDbEntity
  8
Capa 1
 62
     7
420
 16777215
370
     9
100
AcDbVertex
100
AcDb2dVertex
 10
165.1106797547293
 20
-171.7039034944004
 30
0.0
  0
VERTEX
  5
166
330
164
100
AcDbEntity
  8
Capa 1
 62
     7
420
 16777215
370
     9
100
AcDbVertex
100
AcDb2dVertex
 10
165.1106797547293
 20
-172.4890407554889
 30
0.0
  0
SEQEND
  5
167
330
164
100
AcDbEntity
  8
Capa 1
370
     9
  0
POLYLINE
  5
168
330
1F
100
AcDbEntity
  8
Capa 1
 62
     7
420
 16777215
370
     9
100
AcDb2dPolyline
 66
     1
 10
0.0
 20
0.0
 30
0.0
  0
VERTEX
  5
169
330
168
100
AcDbEntity
  8
Capa 1
 62
     7
420
 16777215
370
     9
100
AcDbVertex
100
AcDb2dVertex
 10
165.1106797547293
 20
-157.2975477037312
 30
0.0
  0
VERTEX
  5
16A
330
168
100
AcDbEntity
  8
Capa 1
 62
     7
420
 16777215
370
     9
100
AcDbVertex
100
AcDb2dVertex
 10
165.1106797547293
 20
-158.0806179075285
 30
0.0
  0
SEQEND
  5
16B
330
168
100
AcDbEntity
  8
Capa 1
370
     9
  0
POLYLINE
  5
16C
330
1F
100
AcDbEntity
  8
Capa 1
 62
     7
420
 16777215
370
     9
100
AcDb2dPolyline
 66
     1
 10
0.0
 20
0.0
 30
0.0
  0
VERTEX
  5
16D
330
16C
100
AcDbEntity
  8
Capa 1
 62
     7
420
 16777215
370
     9
100
AcDbVertex
100
AcDb2dVertex
 10
165.1106797547293
 20
-164.1095350067157
 30
0.0
  0
VERTEX
  5
16E
330
16C
100
AcDbEntity
  8
Capa 1
 62
     7
420
 16777215
370
     9
100
AcDbVertex
100
AcDb2dVertex
 10
165.1106797547293
 20
-165.6773979620529
 30
0.0
  0
SEQEND
  5
16F
330
16C
100
AcDbEntity
  8
Capa 1
370
     9
  0
POLYLINE
  5
170
330
1F
100
AcDbEntity
  8
Capa 1
 62
     7
420
 16777215
370
     9
100
AcDb2dPolyline
 66
     1
 10
0.0
 20
0.0
 30
0.0
  0
VERTEX
  5
171
330
170
100
AcDbEntity
  8
Capa 1
 62
     7
420
 16777215
370
     9
100
AcDbVertex
100
AcDb2dVertex
 10
49.54684650454038
 20
-200.7474364732506
 30
0.0
  0
VERTEX
  5
172
330
170
100
AcDbEntity
  8
Capa 1
 62
     7
420
 16777215
370
     9
100
AcDbVertex
100
AcDb2dVertex
 10
49.15427787399616
 20
-201.138110301278
 30
0.0
  0
SEQEND
  5
173
330
170
100
AcDbEntity
  8
Capa 1
370
     9
  0
POLYLINE
  5
174
330
1F
100
AcDbEntity
  8
Capa 1
 62
     7
420
 16777215
370
     9
100
AcDb2dPolyline
 66
     1
 10
0.0
 20
0.0
 30
0.0
  0
VERTEX
  5
175
330
174
100
AcDbEntity
  8
Capa 1
 62
     7
420
 16777215
370
     9
100
AcDbVertex
100
AcDb2dVertex
 10
24.85705294517463
 20
-201.1281195243708
 30
0.0
  0
VERTEX
  5
176
330
174
100
AcDbEntity
  8
Capa 1
 62
     7
420
 16777215
370
     9
100
AcDbVertex
100
AcDb2dVertex
 10
24.47654214882878
 20
-200.7474364732506
 30
0.0
  0
SEQEND
  5
177
330
174
100
AcDbEntity
  8
Capa 1
370
     9
  0
POLYLINE
  5
178
330
1F
100
AcDbEntity
  8
Capa 1
 62
     7
420
 16777215
370
     9
100
AcDb2dPolyline
 66
     1
 10
0.0
 20
0.0
 30
0.0
  0
VERTEX
  5
179
330
178
100
AcDbEntity
  8
Capa 1
 62
     7
420
 16777215
370
     9
100
AcDbVertex
100
AcDb2dVertex
 10
49.54684650454038
 20
-199.1754394033312
 30
0.0
  0
VERTEX
  5
17A
330
178
100
AcDbEntity
  8
Capa 1
 62
     7
420
 16777215
370
     9
100
AcDbVertex
100
AcDb2dVertex
 10
49.54684650454038
 20
-200.7474364732506
 30
0.0
  0
SEQEND
  5
17B
330
178
100
AcDbEntity
  8
Capa 1
370
     9
  0
POLYLINE
  5
17C
330
1F
100
AcDbEntity
  8
Capa 1
 62
     7
420
 16777215
370
     9
100
AcDb2dPolyline
 66
     1
 10
0.0
 20
0.0
 30
0.0
  0
VERTEX
  5
17D
330
17C
100
AcDbEntity
  8
Capa 1
 62
     7
420
 16777215
370
     9
100
AcDbVertex
100
AcDb2dVertex
 10
24.47654214882878
 20
-200.7474364732506
 30
0.0
  0
VERTEX
  5
17E
330
17C
100
AcDbEntity
  8
Capa 1
 62
     7
420
 16777215
370
     9
100
AcDbVertex
100
AcDb2dVertex
 10
24.47654214882878
 20
-199.1754394033312
 30
0.0
  0
SEQEND
  5
17F
330
17C
100
AcDbEntity
  8
Capa 1
370
     9
  0
POLYLINE
  5
180
330
1F
100
AcDbEntity
  8
Capa 1
 62
     7
420
 16777215
370
     9
100
AcDb2dPolyline
 66
     1
 10
0.0
 20
0.0
 30
0.0
  0
VERTEX
  5
181
330
180
100
AcDbEntity
  8
Capa 1
 62
     7
420
 16777215
370
     9
100
AcDbVertex
100
AcDb2dVertex
 10
83.47345782418373
 20
-180.8203151674686
 30
0.0
  0
VERTEX
  5
182
330
180
100
AcDbEntity
  8
Capa 1
 62
     7
420
 16777215
370
     9
100
AcDbVertex
100
AcDb2dVertex
 10
81.95520424383412
 20
-182.3406358051093
 30
0.0
  0
SEQEND
  5
183
330
180
100
AcDbEntity
  8
Capa 1
370
     9
  0
POLYLINE
  5
184
330
1F
100
AcDbEntity
  8
Capa 1
 62
     7
420
 16777215
370
     9
100
AcDb2dPolyline
 66
     1
 10
0.0
 20
0.0
 30
0.0
  0
VERTEX
  5
185
330
184
100
AcDbEntity
  8
Capa 1
 62
     7
420
 16777215
370
     9
100
AcDbVertex
100
AcDb2dVertex
 10
68.02651094219476
 20
-182.0874212869434
 30
0.0
  0
VERTEX
  5
186
330
184
100
AcDbEntity
  8
Capa 1
 62
     7
420
 16777215
370
     9
100
AcDbVertex
100
AcDb2dVertex
 10
66.75940482271987
 20
-180.8203151674686
 30
0.0
  0
SEQEND
  5
187
330
184
100
AcDbEntity
  8
Capa 1
370
     9
  0
POLYLINE
  5
188
330
1F
100
AcDbEntity
  8
Capa 1
 62
     7
420
 16777215
370
     9
100
AcDb2dPolyline
 66
     1
 10
0.0
 20
0.0
 30
0.0
  0
VERTEX
  5
189
330
188
100
AcDbEntity
  8
Capa 1
 62
     7
420
 16777215
370
     9
100
AcDbVertex
100
AcDb2dVertex
 10
66.75940482271987
 20
-177.0231309236262
 30
0.0
  0
VERTEX
  5
18A
330
188
100
AcDbEntity
  8
Capa 1
 62
     7
420
 16777215
370
     9
100
AcDbVertex
100
AcDb2dVertex
 10
68.28196477242604
 20
-175.5031547955339
 30
0.0
  0
SEQEND
  5
18B
330
188
100
AcDbEntity
  8
Capa 1
370
     9
  0
POLYLINE
  5
18C
330
1F
100
AcDbEntity
  8
Capa 1
 62
     7
420
 16777215
370
     9
100
AcDb2dPolyline
 66
     1
 10
0.0
 20
0.0
 30
0.0
  0
VERTEX
  5
18D
330
18C
100
AcDbEntity
  8
Capa 1
 62
     7
420
 16777215
370
     9
100
AcDbVertex
100
AcDb2dVertex
 10
81.95520424383412
 20
-175.5031547955339
 30
0.0
  0
VERTEX
  5
18E
330
18C
100
AcDbEntity
  8
Capa 1
 62
     7
420
 16777215
370
     9
100
AcDbVertex
100
AcDb2dVertex
 10
83.47345782418373
 20
-177.0231309236262
 30
0.0
  0
SEQEND
  5
18F
330
18C
100
AcDbEntity
  8
Capa 1
370
     9
  0
POLYLINE
  5
190
330
1F
100
AcDbEntity
  8
Capa 1
 62
     7
420
 16777215
370
     9
100
AcDb2dPolyline
 66
     1
 10
0.0
 20
0.0
 30
0.0
  0
VERTEX
  5
191
330
190
100
AcDbEntity
  8
Capa 1
 62
     7
420
 16777215
370
     9
100
AcDbVertex
100
AcDb2dVertex
 10
66.75940482271987
 20
-180.8203151674686
 30
0.0
  0
VERTEX
  5
192
330
190
100
AcDbEntity
  8
Capa 1
 62
     7
420
 16777215
370
     9
100
AcDbVertex
100
AcDb2dVertex
 10
66.75940482271987
 20
-177.0231309236262
 30
0.0
  0
SEQEND
  5
193
330
190
100
AcDbEntity
  8
Capa 1
370
     9
  0
POLYLINE
  5
194
330
1F
100
AcDbEntity
  8
Capa 1
 62
     7
420
 16777215
370
     9
100
AcDb2dPolyline
 66
     1
 10
0.0
 20
0.0
 30
0.0
  0
VERTEX
  5
195
330
194
100
AcDbEntity
  8
Capa 1
 62
     7
420
 16777215
370
     9
100
AcDbVertex
100
AcDb2dVertex
 10
83.47345782418373
 20
-177.0231309236262
 30
0.0
  0
VERTEX
  5
196
330
194
100
AcDbEntity
  8
Capa 1
 62
     7
420
 16777215
370
     9
100
AcDbVertex
100
AcDb2dVertex
 10
83.47345782418373
 20
-180.8203151674686
 30
0.0
  0
SEQEND
  5
197
330
194
100
AcDbEntity
  8
Capa 1
370
     9
  0
POLYLINE
  5
198
330
1F
100
AcDbEntity
  8
Capa 1
 62
     7
420
 16777215
370
     9
100
AcDb2dPolyline
 66
     1
 10
0.0
 20
0.0
 30
0.0
  0
VERTEX
  5
199
330
198
100
AcDbEntity
  8
Capa 1
 62
     7
420
 16777215
370
     9
100
AcDbVertex
100
AcDb2dVertex
 10
16.12580294735744
 20
-166.3881211606599
 30
0.0
  0
VERTEX
  5
19A
330
198
100
AcDbEntity
  8
Capa 1
 62
     7
420
 16777215
370
     9
100
AcDbVertex
100
AcDb2dVertex
 10
10.77453613011887
 20
-173.4867404080172
 30
0.0
  0
SEQEND
  5
19B
330
198
100
AcDbEntity
  8
Capa 1
370
     9
  0
POLYLINE
  5
19C
330
1F
100
AcDbEntity
  8
Capa 1
 62
     7
420
 16777215
370
     9
100
AcDb2dPolyline
 66
     1
 10
0.0
 20
0.0
 30
0.0
  0
VERTEX
  5
19D
330
19C
100
AcDbEntity
  8
Capa 1
 62
     7
420
 16777215
370
     9
100
AcDbVertex
100
AcDb2dVertex
 10
-12.96096597983268
 20
-173.4867404080172
 30
0.0
  0
VERTEX
  5
19E
330
19C
100
AcDbEntity
  8
Capa 1
 62
     7
420
 16777215
370
     9
100
AcDbVertex
100
AcDb2dVertex
 10
-18.31223279707125
 20
-166.3881211606599
 30
0.0
  0
SEQEND
  5
19F
330
19C
100
AcDbEntity
  8
Capa 1
370
     9
  0
POLYLINE
  5
1A0
330
1F
100
AcDbEntity
  8
Capa 1
 62
     7
420
 16777215
370
     9
100
AcDb2dPolyline
 66
     1
 10
0.0
 20
0.0
 30
0.0
  0
VERTEX
  5
1A1
330
1A0
100
AcDbEntity
  8
Capa 1
 62
     7
420
 16777215
370
     9
100
AcDbVertex
100
AcDb2dVertex
 10
83.47345782418373
 20
-180.8203151674686
 30
0.0
  0
VERTEX
  5
1A2
330
1A0
100
AcDbEntity
  8
Capa 1
 62
     7
420
 16777215
370
     9
100
AcDbVertex
100
AcDb2dVertex
 10
81.95520424383412
 20
-182.3406358051093
 30
0.0
  0
SEQEND
  5
1A3
330
1A0
100
AcDbEntity
  8
Capa 1
370
     9
  0
POLYLINE
  5
1A4
330
1F
100
AcDbEntity
  8
Capa 1
 62
     7
420
 16777215
370
     9
100
AcDb2dPolyline
 66
     1
 10
0.0
 20
0.0
 30
0.0
  0
VERTEX
  5
1A5
330
1A4
100
AcDbEntity
  8
Capa 1
 62
     7
420
 16777215
370
     9
100
AcDbVertex
100
AcDb2dVertex
 10
68.02651094219476
 20
-182.0874212869434
 30
0.0
  0
VERTEX
  5
1A6
330
1A4
100
AcDbEntity
  8
Capa 1
 62
     7
420
 16777215
370
     9
100
AcDbVertex
100
AcDb2dVertex
 10
66.75940482271987
 20
-180.8203151674686
 30
0.0
  0
SEQEND
  5
1A7
330
1A4
100
AcDbEntity
  8
Capa 1
370
     9
  0
POLYLINE
  5
1A8
330
1F
100
AcDbEntity
  8
Capa 1
 62
     7
420
 16777215
370
     9
100
AcDb2dPolyline
 66
     1
 10
0.0
 20
0.0
 30
0.0
  0
VERTEX
  5
1A9
330
1A8
100
AcDbEntity
  8
Capa 1
 62
     7
420
 16777215
370
     9
100
AcDbVertex
100
AcDb2dVertex
 10
66.75940482271987
 20
-177.0231309236262
 30
0.0
  0
VERTEX
  5
1AA
330
1A8
100
AcDbEntity
  8
Capa 1
 62
     7
420
 16777215
370
     9
100
AcDbVertex
100
AcDb2dVertex
 10
68.28196477242604
 20
-175.5031547955339
 30
0.0
  0
SEQEND
  5
1AB
330
1A8
100
AcDbEntity
  8
Capa 1
370
     9
  0
POLYLINE
  5
1AC
330
1F
100
AcDbEntity
  8
Capa 1
 62
     7
420
 16777215
370
     9
100
AcDb2dPolyline
 66
     1
 10
0.0
 20
0.0
 30
0.0
  0
VERTEX
  5
1AD
330
1AC
100
AcDbEntity
  8
Capa 1
 62
     7
420
 16777215
370
     9
100
AcDbVertex
100
AcDb2dVertex
 10
81.95520424383412
 20
-175.5031547955339
 30
0.0
  0
VERTEX
  5
1AE
330
1AC
100
AcDbEntity
  8
Capa 1
 62
     7
420
 16777215
370
     9
100
AcDbVertex
100
AcDb2dVertex
 10
83.47345782418373
 20
-177.0231309236262
 30
0.0
  0
SEQEND
  5
1AF
330
1AC
100
AcDbEntity
  8
Capa 1
370
     9
  0
POLYLINE
  5
1B0
330
1F
100
AcDbEntity
  8
Capa 1
 62
     7
420
 16777215
370
     9
100
AcDb2dPolyline
 66
     1
 10
0.0
 20
0.0
 30
0.0
  0
VERTEX
  5
1B1
330
1B0
100
AcDbEntity
  8
Capa 1
 62
     7
420
 16777215
370
     9
100
AcDbVertex
100
AcDb2dVertex
 10
66.75940482271987
 20
-180.8203151674686
 30
0.0
  0
VERTEX
  5
1B2
330
1B0
100
AcDbEntity
  8
Capa 1
 62
     7
420
 16777215
370
     9
100
AcDbVertex
100
AcDb2dVertex
 10
66.75940482271987
 20
-177.0231309236262
 30
0.0
  0
SEQEND
  5
1B3
330
1B0
100
AcDbEntity
  8
Capa 1
370
     9
  0
POLYLINE
  5
1B4
330
1F
100
AcDbEntity
  8
Capa 1
 62
     7
420
 16777215
370
     9
100
AcDb2dPolyline
 66
     1
 10
0.0
 20
0.0
 30
0.0
  0
VERTEX
  5
1B5
330
1B4
100
AcDbEntity
  8
Capa 1
 62
     7
420
 16777215
370
     9
100
AcDbVertex
100
AcDb2dVertex
 10
83.47345782418373
 20
-177.0231309236262
 30
0.0
  0
VERTEX
  5
1B6
330
1B4
100
AcDbEntity
  8
Capa 1
 62
     7
420
 16777215
370
     9
100
AcDbVertex
100
AcDb2dVertex
 10
83.47345782418373
 20
-180.8203151674686
 30
0.0
  0
SEQEND
  5
1B7
330
1B4
100
AcDbEntity
  8
Capa 1
370
     9
  0
POLYLINE
  5
1B8
330
1F
100
AcDbEntity
  8
Capa 1
 62
     7
420
 16777215
370
     9
100
AcDb2dPolyline
 66
     1
 10
0.0
 20
0.0
 30
0.0
  0
VERTEX
  5
1B9
330
1B8
100
AcDbEntity
  8
Capa 1
 62
     7
420
 16777215
370
     9
100
AcDbVertex
100
AcDb2dVertex
 10
-9.449380151717516
 20
-177.0231309236262
 30
0.0
  0
VERTEX
  5
1BA
330
1B8
100
AcDbEntity
  8
Capa 1
 62
     7
420
 16777215
370
     9
100
AcDbVertex
100
AcDb2dVertex
 10
-7.933365883433326
 20
-175.5031547955339
 30
0.0
  0
SEQEND
  5
1BB
330
1B8
100
AcDbEntity
  8
Capa 1
370
     9
  0
POLYLINE
  5
1BC
330
1F
100
AcDbEntity
  8
Capa 1
 62
     7
420
 16777215
370
     9
100
AcDb2dPolyline
 66
     1
 10
0.0
 20
0.0
 30
0.0
  0
VERTEX
  5
1BD
330
1BC
100
AcDbEntity
  8
Capa 1
 62
     7
420
 16777215
370
     9
100
AcDbVertex
100
AcDb2dVertex
 10
5.740907116620329
 20
-175.5031547955339
 30
0.0
  0
VERTEX
  5
1BE
330
1BC
100
AcDbEntity
  8
Capa 1
 62
     7
420
 16777215
370
     9
100
AcDbVertex
100
AcDb2dVertex
 10
7.263983830649282
 20
-177.0231309236262
 30
0.0
  0
SEQEND
  5
1BF
330
1BC
100
AcDbEntity
  8
Capa 1
370
     9
  0
POLYLINE
  5
1C0
330
1F
100
AcDbEntity
  8
Capa 1
 62
     7
420
 16777215
370
     9
100
AcDb2dPolyline
 66
     1
 10
0.0
 20
0.0
 30
0.0
  0
VERTEX
  5
1C1
330
1C0
100
AcDbEntity
  8
Capa 1
 62
     7
420
 16777215
370
     9
100
AcDbVertex
100
AcDb2dVertex
 10
7.263983830649282
 20
-180.8203151674686
 30
0.0
  0
VERTEX
  5
1C2
330
1C0
100
AcDbEntity
  8
Capa 1
 62
     7
420
 16777215
370
     9
100
AcDbVertex
100
AcDb2dVertex
 10
5.996877711174392
 20
-182.0874212869434
 30
0.0
  0
SEQEND
  5
1C3
330
1C0
100
AcDbEntity
  8
Capa 1
370
     9
  0
POLYLINE
  5
1C4
330
1F
100
AcDbEntity
  8
Capa 1
 62
     7
420
 16777215
370
     9
100
AcDb2dPolyline
 66
     1
 10
0.0
 20
0.0
 30
0.0
  0
VERTEX
  5
1C5
330
1C4
100
AcDbEntity
  8
Capa 1
 62
     7
420
 16777215
370
     9
100
AcDbVertex
100
AcDb2dVertex
 10
-7.933365883433326
 20
-182.3406358051093
 30
0.0
  0
VERTEX
  5
1C6
330
1C4
100
AcDbEntity
  8
Capa 1
 62
     7
420
 16777215
370
     9
100
AcDbVertex
100
AcDb2dVertex
 10
-9.449380151717516
 20
-180.8203151674686
 30
0.0
  0
SEQEND
  5
1C7
330
1C4
100
AcDbEntity
  8
Capa 1
370
     9
  0
POLYLINE
  5
1C8
330
1F
100
AcDbEntity
  8
Capa 1
 62
     7
420
 16777215
370
     9
100
AcDb2dPolyline
 66
     1
 10
0.0
 20
0.0
 30
0.0
  0
VERTEX
  5
1C9
330
1C8
100
AcDbEntity
  8
Capa 1
 62
     7
420
 16777215
370
     9
100
AcDbVertex
100
AcDb2dVertex
 10
7.263983830649282
 20
-177.0231309236262
 30
0.0
  0
VERTEX
  5
1CA
330
1C8
100
AcDbEntity
  8
Capa 1
 62
     7
420
 16777215
370
     9
100
AcDbVertex
100
AcDb2dVertex
 10
7.263983830649282
 20
-180.8203151674686
 30
0.0
  0
SEQEND
  5
1CB
330
1C8
100
AcDbEntity
  8
Capa 1
370
     9
  0
POLYLINE
  5
1CC
330
1F
100
AcDbEntity
  8
Capa 1
 62
     7
420
 16777215
370
     9
100
AcDb2dPolyline
 66
     1
 10
0.0
 20
0.0
 30
0.0
  0
VERTEX
  5
1CD
330
1CC
100
AcDbEntity
  8
Capa 1
 62
     7
420
 16777215
370
     9
100
AcDbVertex
100
AcDb2dVertex
 10
-9.449380151717516
 20
-180.8203151674686
 30
0.0
  0
VERTEX
  5
1CE
330
1CC
100
AcDbEntity
  8
Capa 1
 62
     7
420
 16777215
370
     9
100
AcDbVertex
100
AcDb2dVertex
 10
-9.449380151717516
 20
-177.0231309236262
 30
0.0
  0
SEQEND
  5
1CF
330
1CC
100
AcDbEntity
  8
Capa 1
370
     9
  0
POLYLINE
  5
1D0
330
1F
100
AcDbEntity
  8
Capa 1
 62
     7
420
 16777215
370
     9
100
AcDb2dPolyline
 66
     1
 10
0.0
 20
0.0
 30
0.0
  0
VERTEX
  5
1D1
330
1D0
100
AcDbEntity
  8
Capa 1
 62
     7
420
 16777215
370
     9
100
AcDbVertex
100
AcDb2dVertex
 10
7.263983830649282
 20
-180.8203151674686
 30
0.0
  0
VERTEX
  5
1D2
330
1D0
100
AcDbEntity
  8
Capa 1
 62
     7
420
 16777215
370
     9
100
AcDbVertex
100
AcDb2dVertex
 10
5.996877711174392
 20
-182.0874212869434
 30
0.0
  0
SEQEND
  5
1D3
330
1D0
100
AcDbEntity
  8
Capa 1
370
     9
  0
POLYLINE
  5
1D4
330
1F
100
AcDbEntity
  8
Capa 1
 62
     7
420
 16777215
370
     9
100
AcDb2dPolyline
 66
     1
 10
0.0
 20
0.0
 30
0.0
  0
VERTEX
  5
1D5
330
1D4
100
AcDbEntity
  8
Capa 1
 62
     7
420
 16777215
370
     9
100
AcDbVertex
100
AcDb2dVertex
 10
-7.933365883433326
 20
-182.3406358051093
 30
0.0
  0
VERTEX
  5
1D6
330
1D4
100
AcDbEntity
  8
Capa 1
 62
     7
420
 16777215
370
     9
100
AcDbVertex
100
AcDb2dVertex
 10
-9.449380151717516
 20
-180.8203151674686
 30
0.0
  0
SEQEND
  5
1D7
330
1D4
100
AcDbEntity
  8
Capa 1
370
     9
  0
POLYLINE
  5
1D8
330
1F
100
AcDbEntity
  8
Capa 1
 62
     7
420
 16777215
370
     9
100
AcDb2dPolyline
 66
     1
 10
0.0
 20
0.0
 30
0.0
  0
VERTEX
  5
1D9
330
1D8
100
AcDbEntity
  8
Capa 1
 62
     7
420
 16777215
370
     9
100
AcDbVertex
100
AcDb2dVertex
 10
-9.449380151717516
 20
-177.0231309236262
 30
0.0
  0
VERTEX
  5
1DA
330
1D8
100
AcDbEntity
  8
Capa 1
 62
     7
420
 16777215
370
     9
100
AcDbVertex
100
AcDb2dVertex
 10
-7.933365883433326
 20
-175.5031547955339
 30
0.0
  0
SEQEND
  5
1DB
330
1D8
100
AcDbEntity
  8
Capa 1
370
     9
  0
POLYLINE
  5
1DC
330
1F
100
AcDbEntity
  8
Capa 1
 62
     7
420
 16777215
370
     9
100
AcDb2dPolyline
 66
     1
 10
0.0
 20
0.0
 30
0.0
  0
VERTEX
  5
1DD
330
1DC
100
AcDbEntity
  8
Capa 1
 62
     7
420
 16777215
370
     9
100
AcDbVertex
100
AcDb2dVertex
 10
5.740907116620329
 20
-175.5031547955339
 30
0.0
  0
VERTEX
  5
1DE
330
1DC
100
AcDbEntity
  8
Capa 1
 62
     7
420
 16777215
370
     9
100
AcDbVertex
100
AcDb2dVertex
 10
7.263983830649282
 20
-177.0231309236262
 30
0.0
  0
SEQEND
  5
1DF
330
1DC
100
AcDbEntity
  8
Capa 1
370
     9
  0
POLYLINE
  5
1E0
330
1F
100
AcDbEntity
  8
Capa 1
 62
     7
420
 16777215
370
     9
100
AcDb2dPolyline
 66
     1
 10
0.0
 20
0.0
 30
0.0
  0
VERTEX
  5
1E1
330
1E0
100
AcDbEntity
  8
Capa 1
 62
     7
420
 16777215
370
     9
100
AcDbVertex
100
AcDb2dVertex
 10
7.263983830649282
 20
-177.0231309236262
 30
0.0
  0
VERTEX
  5
1E2
330
1E0
100
AcDbEntity
  8
Capa 1
 62
     7
420
 16777215
370
     9
100
AcDbVertex
100
AcDb2dVertex
 10
7.263983830649282
 20
-180.8203151674686
 30
0.0
  0
SEQEND
  5
1E3
330
1E0
100
AcDbEntity
  8
Capa 1
370
     9
  0
POLYLINE
  5
1E4
330
1F
100
AcDbEntity
  8
Capa 1
 62
     7
420
 16777215
370
     9
100
AcDb2dPolyline
 66
     1
 10
0.0
 20
0.0
 30
0.0
  0
VERTEX
  5
1E5
330
1E4
100
AcDbEntity
  8
Capa 1
 62
     7
420
 16777215
370
     9
100
AcDbVertex
100
AcDb2dVertex
 10
-9.449380151717516
 20
-180.8203151674686
 30
0.0
  0
VERTEX
  5
1E6
330
1E4
100
AcDbEntity
  8
Capa 1
 62
     7
420
 16777215
370
     9
100
AcDbVertex
100
AcDb2dVertex
 10
-9.449380151717516
 20
-177.0231309236262
 30
0.0
  0
SEQEND
  5
1E7
330
1E4
100
AcDbEntity
  8
Capa 1
370
     9
  0
POLYLINE
  5
1E8
330
1F
100
AcDbEntity
  8
Capa 1
 62
     7
420
 16777215
370
     9
100
AcDb2dPolyline
 66
     1
 10
0.0
 20
0.0
 30
0.0
  0
VERTEX
  5
1E9
330
1E8
100
AcDbEntity
  8
Capa 1
 62
     7
420
 16777215
370
     9
100
AcDbVertex
100
AcDb2dVertex
 10
92.33527694089187
 20
-166.3881211606599
 30
0.0
  0
VERTEX
  5
1EA
330
1E8
100
AcDbEntity
  8
Capa 1
 62
     7
420
 16777215
370
     9
100
AcDbVertex
100
AcDb2dVertex
 10
86.98366561410478
 20
-173.4867404080172
 30
0.0
  0
SEQEND
  5
1EB
330
1E8
100
AcDbEntity
  8
Capa 1
370
     9
  0
POLYLINE
  5
1EC
330
1F
100
AcDbEntity
  8
Capa 1
 62
     7
420
 16777215
370
     9
100
AcDb2dPolyline
 66
     1
 10
0.0
 20
0.0
 30
0.0
  0
VERTEX
  5
1ED
330
1EC
100
AcDbEntity
  8
Capa 1
 62
     7
420
 16777215
370
     9
100
AcDbVertex
100
AcDb2dVertex
 10
63.24885252325029
 20
-173.4867404080172
 30
0.0
  0
VERTEX
  5
1EE
330
1EC
100
AcDbEntity
  8
Capa 1
 62
     7
420
 16777215
370
     9
100
AcDbVertex
100
AcDb2dVertex
 10
57.89758570601172
 20
-166.3881211606599
 30
0.0
  0
SEQEND
  5
1EF
330
1EC
100
AcDbEntity
  8
Capa 1
370
     9
  0
POLYLINE
  5
1F0
330
1F
100
AcDbEntity
  8
Capa 1
 62
     7
420
 16777215
370
     9
100
AcDb2dPolyline
 66
     1
 10
0.0
 20
0.0
 30
0.0
  0
VERTEX
  5
1F1
330
1F0
100
AcDbEntity
  8
Capa 1
 62
     7
420
 16777215
370
     9
100
AcDbVertex
100
AcDb2dVertex
 10
-7.677223034105
 20
-186.1698594369645
 30
0.0
  0
VERTEX
  5
1F2
330
1F0
100
AcDbEntity
  8
Capa 1
 62
     7
420
 16777215
370
     9
100
AcDbVertex
100
AcDb2dVertex
 10
-7.677223034105
 20
-182.3406358051093
 30
0.0
  0
SEQEND
  5
1F3
330
1F0
100
AcDbEntity
  8
Capa 1
370
     9
  0
POLYLINE
  5
1F4
330
1F
100
AcDbEntity
  8
Capa 1
 62
     7
420
 16777215
370
     9
100
AcDb2dPolyline
 66
     1
 10
0.0
 20
0.0
 30
0.0
  0
VERTEX
  5
1F5
330
1F4
100
AcDbEntity
  8
Capa 1
 62
     7
420
 16777215
370
     9
100
AcDbVertex
100
AcDb2dVertex
 10
81.70026717792562
 20
-182.3406358051093
 30
0.0
  0
VERTEX
  5
1F6
330
1F4
100
AcDbEntity
  8
Capa 1
 62
     7
420
 16777215
370
     9
100
AcDbVertex
100
AcDb2dVertex
 10
81.70026717792562
 20
-186.1698594369645
 30
0.0
  0
SEQEND
  5
1F7
330
1F4
100
AcDbEntity
  8
Capa 1
370
     9
  0
POLYLINE
  5
1F8
330
1F
100
AcDbEntity
  8
Capa 1
 62
     7
420
 16777215
370
     9
100
AcDb2dPolyline
 66
     1
 10
0.0
 20
0.0
 30
0.0
  0
VERTEX
  5
1F9
330
1F8
100
AcDbEntity
  8
Capa 1
 62
     7
420
 16777215
370
     9
100
AcDbVertex
100
AcDb2dVertex
 10
83.47345782418373
 20
-180.8203151674686
 30
0.0
  0
VERTEX
  5
1FA
330
1F8
100
AcDbEntity
  8
Capa 1
 62
     7
420
 16777215
370
     9
100
AcDbVertex
100
AcDb2dVertex
 10
81.95520424383412
 20
-182.3406358051093
 30
0.0
  0
SEQEND
  5
1FB
330
1F8
100
AcDbEntity
  8
Capa 1
370
     9
  0
POLYLINE
  5
1FC
330
1F
100
AcDbEntity
  8
Capa 1
 62
     7
420
 16777215
370
     9
100
AcDb2dPolyline
 66
     1
 10
0.0
 20
0.0
 30
0.0
  0
VERTEX
  5
1FD
330
1FC
100
AcDbEntity
  8
Capa 1
 62
     7
420
 16777215
370
     9
100
AcDbVertex
100
AcDb2dVertex
 10
68.02651094219476
 20
-182.0874212869434
 30
0.0
  0
VERTEX
  5
1FE
330
1FC
100
AcDbEntity
  8
Capa 1
 62
     7
420
 16777215
370
     9
100
AcDbVertex
100
AcDb2dVertex
 10
66.75940482271987
 20
-180.8203151674686
 30
0.0
  0
SEQEND
  5
1FF
330
1FC
100
AcDbEntity
  8
Capa 1
370
     9
  0
POLYLINE
  5
200
330
1F
100
AcDbEntity
  8
Capa 1
 62
     7
420
 16777215
370
     9
100
AcDb2dPolyline
 66
     1
 10
0.0
 20
0.0
 30
0.0
  0
VERTEX
  5
201
330
200
100
AcDbEntity
  8
Capa 1
 62
     7
420
 16777215
370
     9
100
AcDbVertex
100
AcDb2dVertex
 10
66.75940482271987
 20
-177.0231309236262
 30
0.0
  0
VERTEX
  5
202
330
200
100
AcDbEntity
  8
Capa 1
 62
     7
420
 16777215
370
     9
100
AcDbVertex
100
AcDb2dVertex
 10
68.28196477242604
 20
-175.5031547955339
 30
0.0
  0
SEQEND
  5
203
330
200
100
AcDbEntity
  8
Capa 1
370
     9
  0
POLYLINE
  5
204
330
1F
100
AcDbEntity
  8
Capa 1
 62
     7
420
 16777215
370
     9
100
AcDb2dPolyline
 66
     1
 10
0.0
 20
0.0
 30
0.0
  0
VERTEX
  5
205
330
204
100
AcDbEntity
  8
Capa 1
 62
     7
420
 16777215
370
     9
100
AcDbVertex
100
AcDb2dVertex
 10
81.95520424383412
 20
-175.5031547955339
 30
0.0
  0
VERTEX
  5
206
330
204
100
AcDbEntity
  8
Capa 1
 62
     7
420
 16777215
370
     9
100
AcDbVertex
100
AcDb2dVertex
 10
83.47345782418373
 20
-177.0231309236262
 30
0.0
  0
SEQEND
  5
207
330
204
100
AcDbEntity
  8
Capa 1
370
     9
  0
POLYLINE
  5
208
330
1F
100
AcDbEntity
  8
Capa 1
 62
     7
420
 16777215
370
     9
100
AcDb2dPolyline
 66
     1
 10
0.0
 20
0.0
 30
0.0
  0
VERTEX
  5
209
330
208
100
AcDbEntity
  8
Capa 1
 62
     7
420
 16777215
370
     9
100
AcDbVertex
100
AcDb2dVertex
 10
66.75940482271987
 20
-180.8203151674686
 30
0.0
  0
VERTEX
  5
20A
330
208
100
AcDbEntity
  8
Capa 1
 62
     7
420
 16777215
370
     9
100
AcDbVertex
100
AcDb2dVertex
 10
66.75940482271987
 20
-177.0231309236262
 30
0.0
  0
SEQEND
  5
20B
330
208
100
AcDbEntity
  8
Capa 1
370
     9
  0
POLYLINE
  5
20C
330
1F
100
AcDbEntity
  8
Capa 1
 62
     7
420
 16777215
370
     9
100
AcDb2dPolyline
 66
     1
 10
0.0
 20
0.0
 30
0.0
  0
VERTEX
  5
20D
330
20C
100
AcDbEntity
  8
Capa 1
 62
     7
420
 16777215
370
     9
100
AcDbVertex
100
AcDb2dVertex
 10
83.47345782418373
 20
-177.0231309236262
 30
0.0
  0
VERTEX
  5
20E
330
20C
100
AcDbEntity
  8
Capa 1
 62
     7
420
 16777215
370
     9
100
AcDbVertex
100
AcDb2dVertex
 10
83.47345782418373
 20
-180.8203151674686
 30
0.0
  0
SEQEND
  5
20F
330
20C
100
AcDbEntity
  8
Capa 1
370
     9
  0
POLYLINE
  5
210
330
1F
100
AcDbEntity
  8
Capa 1
 62
     7
420
 16777215
370
     9
100
AcDb2dPolyline
 66
     1
 10
0.0
 20
0.0
 30
0.0
  0
VERTEX
  5
211
330
210
100
AcDbEntity
  8
Capa 1
 62
     7
420
 16777215
370
     9
100
AcDbVertex
100
AcDb2dVertex
 10
7.263983830649282
 20
-180.8203151674686
 30
0.0
  0
VERTEX
  5
212
330
210
100
AcDbEntity
  8
Capa 1
 62
     7
420
 16777215
370
     9
100
AcDbVertex
100
AcDb2dVertex
 10
5.996877711174392
 20
-182.0874212869434
 30
0.0
  0
SEQEND
  5
213
330
210
100
AcDbEntity
  8
Capa 1
370
     9
  0
POLYLINE
  5
214
330
1F
100
AcDbEntity
  8
Capa 1
 62
     7
420
 16777215
370
     9
100
AcDb2dPolyline
 66
     1
 10
0.0
 20
0.0
 30
0.0
  0
VERTEX
  5
215
330
214
100
AcDbEntity
  8
Capa 1
 62
     7
420
 16777215
370
     9
100
AcDbVertex
100
AcDb2dVertex
 10
-7.933365883433326
 20
-182.3406358051093
 30
0.0
  0
VERTEX
  5
216
330
214
100
AcDbEntity
  8
Capa 1
 62
     7
420
 16777215
370
     9
100
AcDbVertex
100
AcDb2dVertex
 10
-9.449380151717516
 20
-180.8203151674686
 30
0.0
  0
SEQEND
  5
217
330
214
100
AcDbEntity
  8
Capa 1
370
     9
  0
POLYLINE
  5
218
330
1F
100
AcDbEntity
  8
Capa 1
 62
     7
420
 16777215
370
     9
100
AcDb2dPolyline
 66
     1
 10
0.0
 20
0.0
 30
0.0
  0
VERTEX
  5
219
330
218
100
AcDbEntity
  8
Capa 1
 62
     7
420
 16777215
370
     9
100
AcDbVertex
100
AcDb2dVertex
 10
-9.449380151717516
 20
-177.0231309236262
 30
0.0
  0
VERTEX
  5
21A
330
218
100
AcDbEntity
  8
Capa 1
 62
     7
420
 16777215
370
     9
100
AcDbVertex
100
AcDb2dVertex
 10
-7.933365883433326
 20
-175.5031547955339
 30
0.0
  0
SEQEND
  5
21B
330
218
100
AcDbEntity
  8
Capa 1
370
     9
  0
POLYLINE
  5
21C
330
1F
100
AcDbEntity
  8
Capa 1
 62
     7
420
 16777215
370
     9
100
AcDb2dPolyline
 66
     1
 10
0.0
 20
0.0
 30
0.0
  0
VERTEX
  5
21D
330
21C
100
AcDbEntity
  8
Capa 1
 62
     7
420
 16777215
370
     9
100
AcDbVertex
100
AcDb2dVertex
 10
5.740907116620329
 20
-175.5031547955339
 30
0.0
  0
VERTEX
  5
21E
330
21C
100
AcDbEntity
  8
Capa 1
 62
     7
420
 16777215
370
     9
100
AcDbVertex
100
AcDb2dVertex
 10
7.263983830649282
 20
-177.0231309236262
 30
0.0
  0
SEQEND
  5
21F
330
21C
100
AcDbEntity
  8
Capa 1
370
     9
  0
POLYLINE
  5
220
330
1F
100
AcDbEntity
  8
Capa 1
 62
     7
420
 16777215
370
     9
100
AcDb2dPolyline
 66
     1
 10
0.0
 20
0.0
 30
0.0
  0
VERTEX
  5
221
330
220
100
AcDbEntity
  8
Capa 1
 62
     7
420
 16777215
370
     9
100
AcDbVertex
100
AcDb2dVertex
 10
-9.449380151717516
 20
-180.8203151674686
 30
0.0
  0
VERTEX
  5
222
330
220
100
AcDbEntity
  8
Capa 1
 62
     7
420
 16777215
370
     9
100
AcDbVertex
100
AcDb2dVertex
 10
-9.449380151717516
 20
-177.0231309236262
 30
0.0
  0
SEQEND
  5
223
330
220
100
AcDbEntity
  8
Capa 1
370
     9
  0
POLYLINE
  5
224
330
1F
100
AcDbEntity
  8
Capa 1
 62
     7
420
 16777215
370
     9
100
AcDb2dPolyline
 66
     1
 10
0.0
 20
0.0
 30
0.0
  0
VERTEX
  5
225
330
224
100
AcDbEntity
  8
Capa 1
 62
     7
420
 16777215
370
     9
100
AcDbVertex
100
AcDb2dVertex
 10
7.263983830649282
 20
-177.0231309236262
 30
0.0
  0
VERTEX
  5
226
330
224
100
AcDbEntity
  8
Capa 1
 62
     7
420
 16777215
370
     9
100
AcDbVertex
100
AcDb2dVertex
 10
7.263983830649282
 20
-180.8203151674686
 30
0.0
  0
SEQEND
  5
227
330
224
100
AcDbEntity
  8
Capa 1
370
     9
  0
POLYLINE
  5
228
330
1F
100
AcDbEntity
  8
Capa 1
 62
     7
420
 16777215
370
     9
100
AcDb2dPolyline
 66
     1
 10
0.0
 20
0.0
 30
0.0
  0
VERTEX
  5
229
330
228
100
AcDbEntity
  8
Capa 1
 62
     7
420
 16777215
370
     9
100
AcDbVertex
100
AcDb2dVertex
 10
24.85705294517463
 20
-204.6724337595958
 30
0.0
  0
VERTEX
  5
22A
330
228
100
AcDbEntity
  8
Capa 1
 62
     7
420
 16777215
370
     9
100
AcDbVertex
100
AcDb2dVertex
 10
24.85705294517463
 20
-201.2814262734644
 30
0.0
  0
SEQEND
  5
22B
330
228
100
AcDbEntity
  8
Capa 1
370
     9
  0
POLYLINE
  5
22C
330
1F
100
AcDbEntity
  8
Capa 1
 62
     7
420
 16777215
370
     9
100
AcDb2dPolyline
 66
     1
 10
0.0
 20
0.0
 30
0.0
  0
VERTEX
  5
22D
330
22C
100
AcDbEntity
  8
Capa 1
 62
     7
420
 16777215
370
     9
100
AcDbVertex
100
AcDb2dVertex
 10
49.16633570819453
 20
-201.2814262734644
 30
0.0
  0
VERTEX
  5
22E
330
22C
100
AcDbEntity
  8
Capa 1
 62
     7
420
 16777215
370
     9
100
AcDbVertex
100
AcDb2dVertex
 10
49.16633570819453
 20
-204.6724337595958
 30
0.0
  0
SEQEND
  5
22F
330
22C
100
AcDbEntity
  8
Capa 1
370
     9
  0
POLYLINE
  5
230
330
1F
100
AcDbEntity
  8
Capa 1
 62
     7
420
 16777215
370
     9
100
AcDb2dPolyline
 66
     1
 10
0.0
 20
0.0
 30
0.0
  0
VERTEX
  5
231
330
230
100
AcDbEntity
  8
Capa 1
 62
     7
420
 16777215
370
     9
100
AcDbVertex
100
AcDb2dVertex
 10
66.79919567557451
 20
-177.0231309236262
 30
0.0
  0
VERTEX
  5
232
330
230
100
AcDbEntity
  8
Capa 1
 62
     7
420
 16777215
370
     9
100
AcDbVertex
100
AcDb2dVertex
 10
66.79919567557451
 20
-180.8203151674686
 30
0.0
  0
SEQEND
  5
233
330
230
100
AcDbEntity
  8
Capa 1
370
     9
  0
POLYLINE
  5
234
330
1F
100
AcDbEntity
  8
Capa 1
 62
     7
420
 16777215
370
     9
100
AcDb2dPolyline
 66
     1
 10
0.0
 20
0.0
 30
0.0
  0
VERTEX
  5
235
330
234
100
AcDbEntity
  8
Capa 1
 62
     7
420
 16777215
370
     9
100
AcDbVertex
100
AcDb2dVertex
 10
70.2821872111621
 20
-180.8203151674686
 30
0.0
  0
VERTEX
  5
236
330
234
100
AcDbEntity
  8
Capa 1
 62
     7
420
 16777215
370
     9
100
AcDbVertex
100
AcDb2dVertex
 10
70.2821872111621
 20
-177.0231309236262
 30
0.0
  0
SEQEND
  5
237
330
234
100
AcDbEntity
  8
Capa 1
370
     9
  0
POLYLINE
  5
238
330
1F
100
AcDbEntity
  8
Capa 1
 62
     7
420
 16777215
370
     9
100
AcDb2dPolyline
 66
     1
 10
0.0
 20
0.0
 30
0.0
  0
VERTEX
  5
239
330
238
100
AcDbEntity
  8
Capa 1
 62
     7
420
 16777215
370
     9
100
AcDbVertex
100
AcDb2dVertex
 10
78.59813094823241
 20
-177.0231309236262
 30
0.0
  0
VERTEX
  5
23A
330
238
100
AcDbEntity
  8
Capa 1
 62
     7
420
 16777215
370
     9
100
AcDbVertex
100
AcDb2dVertex
 10
79.95687660761494
 20
-177.0231309236262
 30
0.0
  0
SEQEND
  5
23B
330
238
100
AcDbEntity
  8
Capa 1
370
     9
  0
POLYLINE
  5
23C
330
1F
100
AcDbEntity
  8
Capa 1
 62
     7
420
 16777215
370
     9
100
AcDb2dPolyline
 66
     1
 10
0.0
 20
0.0
 30
0.0
  0
VERTEX
  5
23D
330
23C
100
AcDbEntity
  8
Capa 1
 62
     7
420
 16777215
370
     9
100
AcDbVertex
100
AcDb2dVertex
 10
83.43935137887975
 20
-177.0231309236262
 30
0.0
  0
VERTEX
  5
23E
330
23C
100
AcDbEntity
  8
Capa 1
 62
     7
420
 16777215
370
     9
100
AcDbVertex
100
AcDb2dVertex
 10
83.47345782418373
 20
-177.0231309236262
 30
0.0
  0
SEQEND
  5
23F
330
23C
100
AcDbEntity
  8
Capa 1
370
     9
  0
POLYLINE
  5
240
330
1F
100
AcDbEntity
  8
Capa 1
 62
     7
420
 16777215
370
     9
100
AcDb2dPolyline
 66
     1
 10
0.0
 20
0.0
 30
0.0
  0
VERTEX
  5
241
330
240
100
AcDbEntity
  8
Capa 1
 62
     7
420
 16777215
370
     9
100
AcDbVertex
100
AcDb2dVertex
 10
66.79919567557451
 20
-177.0231309236262
 30
0.0
  0
VERTEX
  5
242
330
240
100
AcDbEntity
  8
Capa 1
 62
     7
420
 16777215
370
     9
100
AcDbVertex
100
AcDb2dVertex
 10
66.75940482271987
 20
-177.0231309236262
 30
0.0
  0
SEQEND
  5
243
330
240
100
AcDbEntity
  8
Capa 1
370
     9
  0
POLYLINE
  5
244
330
1F
100
AcDbEntity
  8
Capa 1
 62
     7
420
 16777215
370
     9
100
AcDb2dPolyline
 66
     1
 10
0.0
 20
0.0
 30
0.0
  0
VERTEX
  5
245
330
244
100
AcDbEntity
  8
Capa 1
 62
     7
420
 16777215
370
     9
100
AcDbVertex
100
AcDb2dVertex
 10
70.2821872111621
 20
-177.0231309236262
 30
0.0
  0
VERTEX
  5
246
330
244
100
AcDbEntity
  8
Capa 1
 62
     7
420
 16777215
370
     9
100
AcDbVertex
100
AcDb2dVertex
 10
71.63300915092856
 20
-177.0231309236262
 30
0.0
  0
SEQEND
  5
247
330
244
100
AcDbEntity
  8
Capa 1
370
     9
  0
POLYLINE
  5
248
330
1F
100
AcDbEntity
  8
Capa 1
 62
     7
420
 16777215
370
     9
100
AcDb2dPolyline
 66
     1
 10
0.0
 20
0.0
 30
0.0
  0
VERTEX
  5
249
330
248
100
AcDbEntity
  8
Capa 1
 62
     7
420
 16777215
370
     9
100
AcDbVertex
100
AcDb2dVertex
 10
83.43935137887975
 20
-180.8203151674686
 30
0.0
  0
VERTEX
  5
24A
330
248
100
AcDbEntity
  8
Capa 1
 62
     7
420
 16777215
370
     9
100
AcDbVertex
100
AcDb2dVertex
 10
83.47345782418373
 20
-180.8203151674686
 30
0.0
  0
SEQEND
  5
24B
330
248
100
AcDbEntity
  8
Capa 1
370
     9
  0
POLYLINE
  5
24C
330
1F
100
AcDbEntity
  8
Capa 1
 62
     7
420
 16777215
370
     9
100
AcDb2dPolyline
 66
     1
 10
0.0
 20
0.0
 30
0.0
  0
VERTEX
  5
24D
330
24C
100
AcDbEntity
  8
Capa 1
 62
     7
420
 16777215
370
     9
100
AcDbVertex
100
AcDb2dVertex
 10
79.95687660761494
 20
-180.8203151674686
 30
0.0
  0
VERTEX
  5
24E
330
24C
100
AcDbEntity
  8
Capa 1
 62
     7
420
 16777215
370
     9
100
AcDbVertex
100
AcDb2dVertex
 10
78.59813094823241
 20
-180.8203151674686
 30
0.0
  0
SEQEND
  5
24F
330
24C
100
AcDbEntity
  8
Capa 1
370
     9
  0
POLYLINE
  5
250
330
1F
100
AcDbEntity
  8
Capa 1
 62
     7
420
 16777215
370
     9
100
AcDb2dPolyline
 66
     1
 10
0.0
 20
0.0
 30
0.0
  0
VERTEX
  5
251
330
250
100
AcDbEntity
  8
Capa 1
 62
     7
420
 16777215
370
     9
100
AcDbVertex
100
AcDb2dVertex
 10
71.63300915092856
 20
-180.8203151674686
 30
0.0
  0
VERTEX
  5
252
330
250
100
AcDbEntity
  8
Capa 1
 62
     7
420
 16777215
370
     9
100
AcDbVertex
100
AcDb2dVertex
 10
70.2821872111621
 20
-180.8203151674686
 30
0.0
  0
SEQEND
  5
253
330
250
100
AcDbEntity
  8
Capa 1
370
     9
  0
POLYLINE
  5
254
330
1F
100
AcDbEntity
  8
Capa 1
 62
     7
420
 16777215
370
     9
100
AcDb2dPolyline
 66
     1
 10
0.0
 20
0.0
 30
0.0
  0
VERTEX
  5
255
330
254
100
AcDbEntity
  8
Capa 1
 62
     7
420
 16777215
370
     9
100
AcDbVertex
100
AcDb2dVertex
 10
66.79919567557451
 20
-180.8203151674686
 30
0.0
  0
VERTEX
  5
256
330
254
100
AcDbEntity
  8
Capa 1
 62
     7
420
 16777215
370
     9
100
AcDbVertex
100
AcDb2dVertex
 10
66.75940482271987
 20
-180.8203151674686
 30
0.0
  0
SEQEND
  5
257
330
254
100
AcDbEntity
  8
Capa 1
370
     9
  0
POLYLINE
  5
258
330
1F
100
AcDbEntity
  8
Capa 1
 62
     7
420
 16777215
370
     9
100
AcDb2dPolyline
 66
     1
 10
0.0
 20
0.0
 30
0.0
  0
VERTEX
  5
259
330
258
100
AcDbEntity
  8
Capa 1
 62
     7
420
 16777215
370
     9
100
AcDbVertex
100
AcDb2dVertex
 10
75.11565617696762
 20
-182.3406358051093
 30
0.0
  0
VERTEX
  5
25A
330
258
100
AcDbEntity
  8
Capa 1
 62
     7
420
 16777215
370
     9
100
AcDbVertex
100
AcDb2dVertex
 10
81.95520424383412
 20
-182.3406358051093
 30
0.0
  0
SEQEND
  5
25B
330
258
100
AcDbEntity
  8
Capa 1
370
     9
  0
POLYLINE
  5
25C
330
1F
100
AcDbEntity
  8
Capa 1
 62
     7
420
 16777215
370
     9
100
AcDb2dPolyline
 66
     1
 10
0.0
 20
0.0
 30
0.0
  0
VERTEX
  5
25D
330
25C
100
AcDbEntity
  8
Capa 1
 62
     7
420
 16777215
370
     9
100
AcDbVertex
100
AcDb2dVertex
 10
73.05359427427133
 20
-182.3406358051093
 30
0.0
  0
VERTEX
  5
25E
330
25C
100
AcDbEntity
  8
Capa 1
 62
     7
420
 16777215
370
     9
100
AcDbVertex
100
AcDb2dVertex
 10
75.11565617696762
 20
-182.3406358051093
 30
0.0
  0
SEQEND
  5
25F
330
25C
100
AcDbEntity
  8
Capa 1
370
     9
  0
POLYLINE
  5
260
330
1F
100
AcDbEntity
  8
Capa 1
 62
     7
420
 16777215
370
     9
100
AcDb2dPolyline
 66
     1
 10
0.0
 20
0.0
 30
0.0
  0
VERTEX
  5
261
330
260
100
AcDbEntity
  8
Capa 1
 62
     7
420
 16777215
370
     9
100
AcDbVertex
100
AcDb2dVertex
 10
71.63300915092856
 20
-177.0231309236262
 30
0.0
  0
VERTEX
  5
262
330
260
100
AcDbEntity
  8
Capa 1
 62
     7
420
 16777215
370
     9
100
AcDbVertex
100
AcDb2dVertex
 10
71.63300915092856
 20
-180.8203151674686
 30
0.0
  0
SEQEND
  5
263
330
260
100
AcDbEntity
  8
Capa 1
370
     9
  0
POLYLINE
  5
264
330
1F
100
AcDbEntity
  8
Capa 1
 62
     7
420
 16777215
370
     9
100
AcDb2dPolyline
 66
     1
 10
0.0
 20
0.0
 30
0.0
  0
VERTEX
  5
265
330
264
100
AcDbEntity
  8
Capa 1
 62
     7
420
 16777215
370
     9
100
AcDbVertex
100
AcDb2dVertex
 10
78.59813094823241
 20
-180.8203151674686
 30
0.0
  0
VERTEX
  5
266
330
264
100
AcDbEntity
  8
Capa 1
 62
     7
420
 16777215
370
     9
100
AcDbVertex
100
AcDb2dVertex
 10
78.59813094823241
 20
-177.0231309236262
 30
0.0
  0
SEQEND
  5
267
330
264
100
AcDbEntity
  8
Capa 1
370
     9
  0
POLYLINE
  5
268
330
1F
100
AcDbEntity
  8
Capa 1
 62
     7
420
 16777215
370
     9
100
AcDb2dPolyline
 66
     1
 10
0.0
 20
0.0
 30
0.0
  0
VERTEX
  5
269
330
268
100
AcDbEntity
  8
Capa 1
 62
     7
420
 16777215
370
     9
100
AcDbVertex
100
AcDb2dVertex
 10
79.95687660761494
 20
-177.0231309236262
 30
0.0
  0
VERTEX
  5
26A
330
268
100
AcDbEntity
  8
Capa 1
 62
     7
420
 16777215
370
     9
100
AcDbVertex
100
AcDb2dVertex
 10
79.95687660761494
 20
-180.8203151674686
 30
0.0
  0
SEQEND
  5
26B
330
268
100
AcDbEntity
  8
Capa 1
370
     9
  0
POLYLINE
  5
26C
330
1F
100
AcDbEntity
  8
Capa 1
 62
     7
420
 16777215
370
     9
100
AcDb2dPolyline
 66
     1
 10
0.0
 20
0.0
 30
0.0
  0
VERTEX
  5
26D
330
26C
100
AcDbEntity
  8
Capa 1
 62
     7
420
 16777215
370
     9
100
AcDbVertex
100
AcDb2dVertex
 10
83.43935137887975
 20
-180.8203151674686
 30
0.0
  0
VERTEX
  5
26E
330
26C
100
AcDbEntity
  8
Capa 1
 62
     7
420
 16777215
370
     9
100
AcDbVertex
100
AcDb2dVertex
 10
83.43935137887975
 20
-177.0231309236262
 30
0.0
  0
SEQEND
  5
26F
330
26C
100
AcDbEntity
  8
Capa 1
370
     9
  0
POLYLINE
  5
270
330
1F
100
AcDbEntity
  8
Capa 1
 62
     7
420
 16777215
370
     9
100
AcDb2dPolyline
 66
     1
 10
0.0
 20
0.0
 30
0.0
  0
VERTEX
  5
271
330
270
100
AcDbEntity
  8
Capa 1
 62
     7
420
 16777215
370
     9
100
AcDbVertex
100
AcDb2dVertex
 10
78.59813094823241
 20
-177.0231309236262
 30
0.0
  0
VERTEX
  5
272
330
270
100
AcDbEntity
  8
Capa 1
 62
     7
420
 16777215
370
     9
100
AcDbVertex
100
AcDb2dVertex
 10
79.95687660761494
 20
-177.0231309236262
 30
0.0
  0
SEQEND
  5
273
330
270
100
AcDbEntity
  8
Capa 1
370
     9
  0
POLYLINE
  5
274
330
1F
100
AcDbEntity
  8
Capa 1
 62
     7
420
 16777215
370
     9
100
AcDb2dPolyline
 66
     1
 10
0.0
 20
0.0
 30
0.0
  0
VERTEX
  5
275
330
274
100
AcDbEntity
  8
Capa 1
 62
     7
420
 16777215
370
     9
100
AcDbVertex
100
AcDb2dVertex
 10
83.43935137887975
 20
-177.0231309236262
 30
0.0
  0
VERTEX
  5
276
330
274
100
AcDbEntity
  8
Capa 1
 62
     7
420
 16777215
370
     9
100
AcDbVertex
100
AcDb2dVertex
 10
83.47345782418373
 20
-177.0231309236262
 30
0.0
  0
SEQEND
  5
277
330
274
100
AcDbEntity
  8
Capa 1
370
     9
  0
POLYLINE
  5
278
330
1F
100
AcDbEntity
  8
Capa 1
 62
     7
420
 16777215
370
     9
100
AcDb2dPolyline
 66
     1
 10
0.0
 20
0.0
 30
0.0
  0
VERTEX
  5
279
330
278
100
AcDbEntity
  8
Capa 1
 62
     7
420
 16777215
370
     9
100
AcDbVertex
100
AcDb2dVertex
 10
66.79919567557451
 20
-177.0231309236262
 30
0.0
  0
VERTEX
  5
27A
330
278
100
AcDbEntity
  8
Capa 1
 62
     7
420
 16777215
370
     9
100
AcDbVertex
100
AcDb2dVertex
 10
66.75940482271987
 20
-177.0231309236262
 30
0.0
  0
SEQEND
  5
27B
330
278
100
AcDbEntity
  8
Capa 1
370
     9
  0
POLYLINE
  5
27C
330
1F
100
AcDbEntity
  8
Capa 1
 62
     7
420
 16777215
370
     9
100
AcDb2dPolyline
 66
     1
 10
0.0
 20
0.0
 30
0.0
  0
VERTEX
  5
27D
330
27C
100
AcDbEntity
  8
Capa 1
 62
     7
420
 16777215
370
     9
100
AcDbVertex
100
AcDb2dVertex
 10
70.2821872111621
 20
-177.0231309236262
 30
0.0
  0
VERTEX
  5
27E
330
27C
100
AcDbEntity
  8
Capa 1
 62
     7
420
 16777215
370
     9
100
AcDbVertex
100
AcDb2dVertex
 10
71.63300915092856
 20
-177.0231309236262
 30
0.0
  0
SEQEND
  5
27F
330
27C
100
AcDbEntity
  8
Capa 1
370
     9
  0
POLYLINE
  5
280
330
1F
100
AcDbEntity
  8
Capa 1
 62
     7
420
 16777215
370
     9
100
AcDb2dPolyline
 66
     1
 10
0.0
 20
0.0
 30
0.0
  0
VERTEX
  5
281
330
280
100
AcDbEntity
  8
Capa 1
 62
     7
420
 16777215
370
     9
100
AcDbVertex
100
AcDb2dVertex
 10
83.43935137887975
 20
-180.8203151674686
 30
0.0
  0
VERTEX
  5
282
330
280
100
AcDbEntity
  8
Capa 1
 62
     7
420
 16777215
370
     9
100
AcDbVertex
100
AcDb2dVertex
 10
83.47345782418373
 20
-180.8203151674686
 30
0.0
  0
SEQEND
  5
283
330
280
100
AcDbEntity
  8
Capa 1
370
     9
  0
POLYLINE
  5
284
330
1F
100
AcDbEntity
  8
Capa 1
 62
     7
420
 16777215
370
     9
100
AcDb2dPolyline
 66
     1
 10
0.0
 20
0.0
 30
0.0
  0
VERTEX
  5
285
330
284
100
AcDbEntity
  8
Capa 1
 62
     7
420
 16777215
370
     9
100
AcDbVertex
100
AcDb2dVertex
 10
79.95687660761494
 20
-180.8203151674686
 30
0.0
  0
VERTEX
  5
286
330
284
100
AcDbEntity
  8
Capa 1
 62
     7
420
 16777215
370
     9
100
AcDbVertex
100
AcDb2dVertex
 10
78.59813094823241
 20
-180.8203151674686
 30
0.0
  0
SEQEND
  5
287
330
284
100
AcDbEntity
  8
Capa 1
370
     9
  0
POLYLINE
  5
288
330
1F
100
AcDbEntity
  8
Capa 1
 62
     7
420
 16777215
370
     9
100
AcDb2dPolyline
 66
     1
 10
0.0
 20
0.0
 30
0.0
  0
VERTEX
  5
289
330
288
100
AcDbEntity
  8
Capa 1
 62
     7
420
 16777215
370
     9
100
AcDbVertex
100
AcDb2dVertex
 10
71.63300915092856
 20
-180.8203151674686
 30
0.0
  0
VERTEX
  5
28A
330
288
100
AcDbEntity
  8
Capa 1
 62
     7
420
 16777215
370
     9
100
AcDbVertex
100
AcDb2dVertex
 10
70.2821872111621
 20
-180.8203151674686
 30
0.0
  0
SEQEND
  5
28B
330
288
100
AcDbEntity
  8
Capa 1
370
     9
  0
POLYLINE
  5
28C
330
1F
100
AcDbEntity
  8
Capa 1
 62
     7
420
 16777215
370
     9
100
AcDb2dPolyline
 66
     1
 10
0.0
 20
0.0
 30
0.0
  0
VERTEX
  5
28D
330
28C
100
AcDbEntity
  8
Capa 1
 62
     7
420
 16777215
370
     9
100
AcDbVertex
100
AcDb2dVertex
 10
66.79919567557451
 20
-180.8203151674686
 30
0.0
  0
VERTEX
  5
28E
330
28C
100
AcDbEntity
  8
Capa 1
 62
     7
420
 16777215
370
     9
100
AcDbVertex
100
AcDb2dVertex
 10
66.75940482271987
 20
-180.8203151674686
 30
0.0
  0
SEQEND
  5
28F
330
28C
100
AcDbEntity
  8
Capa 1
370
     9
  0
POLYLINE
  5
290
330
1F
100
AcDbEntity
  8
Capa 1
 62
     7
420
 16777215
370
     9
100
AcDb2dPolyline
 66
     1
 10
0.0
 20
0.0
 30
0.0
  0
VERTEX
  5
291
330
290
100
AcDbEntity
  8
Capa 1
 62
     7
420
 16777215
370
     9
100
AcDbVertex
100
AcDb2dVertex
 10
75.11565617696762
 20
-182.3406358051093
 30
0.0
  0
VERTEX
  5
292
330
290
100
AcDbEntity
  8
Capa 1
 62
     7
420
 16777215
370
     9
100
AcDbVertex
100
AcDb2dVertex
 10
81.95520424383412
 20
-182.3406358051093
 30
0.0
  0
SEQEND
  5
293
330
290
100
AcDbEntity
  8
Capa 1
370
     9
  0
POLYLINE
  5
294
330
1F
100
AcDbEntity
  8
Capa 1
 62
     7
420
 16777215
370
     9
100
AcDb2dPolyline
 66
     1
 10
0.0
 20
0.0
 30
0.0
  0
VERTEX
  5
295
330
294
100
AcDbEntity
  8
Capa 1
 62
     7
420
 16777215
370
     9
100
AcDbVertex
100
AcDb2dVertex
 10
73.05359427427133
 20
-182.3406358051093
 30
0.0
  0
VERTEX
  5
296
330
294
100
AcDbEntity
  8
Capa 1
 62
     7
420
 16777215
370
     9
100
AcDbVertex
100
AcDb2dVertex
 10
75.11565617696762
 20
-182.3406358051093
 30
0.0
  0
SEQEND
  5
297
330
294
100
AcDbEntity
  8
Capa 1
370
     9
  0
POLYLINE
  5
298
330
1F
100
AcDbEntity
  8
Capa 1
 62
     7
420
 16777215
370
     9
100
AcDb2dPolyline
 66
     1
 10
0.0
 20
0.0
 30
0.0
  0
VERTEX
  5
299
330
298
100
AcDbEntity
  8
Capa 1
 62
     7
420
 16777215
370
     9
100
AcDbVertex
100
AcDb2dVertex
 10
66.79919567557451
 20
-177.0231309236262
 30
0.0
  0
VERTEX
  5
29A
330
298
100
AcDbEntity
  8
Capa 1
 62
     7
420
 16777215
370
     9
100
AcDbVertex
100
AcDb2dVertex
 10
66.79919567557451
 20
-180.8203151674686
 30
0.0
  0
SEQEND
  5
29B
330
298
100
AcDbEntity
  8
Capa 1
370
     9
  0
POLYLINE
  5
29C
330
1F
100
AcDbEntity
  8
Capa 1
 62
     7
420
 16777215
370
     9
100
AcDb2dPolyline
 66
     1
 10
0.0
 20
0.0
 30
0.0
  0
VERTEX
  5
29D
330
29C
100
AcDbEntity
  8
Capa 1
 62
     7
420
 16777215
370
     9
100
AcDbVertex
100
AcDb2dVertex
 10
70.2821872111621
 20
-180.8203151674686
 30
0.0
  0
VERTEX
  5
29E
330
29C
100
AcDbEntity
  8
Capa 1
 62
     7
420
 16777215
370
     9
100
AcDbVertex
100
AcDb2dVertex
 10
70.2821872111621
 20
-177.0231309236262
 30
0.0
  0
SEQEND
  5
29F
330
29C
100
AcDbEntity
  8
Capa 1
370
     9
  0
POLYLINE
  5
2A0
330
1F
100
AcDbEntity
  8
Capa 1
 62
     7
420
 16777215
370
     9
100
AcDb2dPolyline
 66
     1
 10
0.0
 20
0.0
 30
0.0
  0
VERTEX
  5
2A1
330
2A0
100
AcDbEntity
  8
Capa 1
 62
     7
420
 16777215
370
     9
100
AcDbVertex
100
AcDb2dVertex
 10
71.63300915092856
 20
-177.0231309236262
 30
0.0
  0
VERTEX
  5
2A2
330
2A0
100
AcDbEntity
  8
Capa 1
 62
     7
420
 16777215
370
     9
100
AcDbVertex
100
AcDb2dVertex
 10
71.63300915092856
 20
-180.8203151674686
 30
0.0
  0
SEQEND
  5
2A3
330
2A0
100
AcDbEntity
  8
Capa 1
370
     9
  0
POLYLINE
  5
2A4
330
1F
100
AcDbEntity
  8
Capa 1
 62
     7
420
 16777215
370
     9
100
AcDb2dPolyline
 66
     1
 10
0.0
 20
0.0
 30
0.0
  0
VERTEX
  5
2A5
330
2A4
100
AcDbEntity
  8
Capa 1
 62
     7
420
 16777215
370
     9
100
AcDbVertex
100
AcDb2dVertex
 10
78.59813094823241
 20
-180.8203151674686
 30
0.0
  0
VERTEX
  5
2A6
330
2A4
100
AcDbEntity
  8
Capa 1
 62
     7
420
 16777215
370
     9
100
AcDbVertex
100
AcDb2dVertex
 10
78.59813094823241
 20
-177.0231309236262
 30
0.0
  0
SEQEND
  5
2A7
330
2A4
100
AcDbEntity
  8
Capa 1
370
     9
  0
POLYLINE
  5
2A8
330
1F
100
AcDbEntity
  8
Capa 1
 62
     7
420
 16777215
370
     9
100
AcDb2dPolyline
 66
     1
 10
0.0
 20
0.0
 30
0.0
  0
VERTEX
  5
2A9
330
2A8
100
AcDbEntity
  8
Capa 1
 62
     7
420
 16777215
370
     9
100
AcDbVertex
100
AcDb2dVertex
 10
79.95687660761494
 20
-177.0231309236262
 30
0.0
  0
VERTEX
  5
2AA
330
2A8
100
AcDbEntity
  8
Capa 1
 62
     7
420
 16777215
370
     9
100
AcDbVertex
100
AcDb2dVertex
 10
79.95687660761494
 20
-180.8203151674686
 30
0.0
  0
SEQEND
  5
2AB
330
2A8
100
AcDbEntity
  8
Capa 1
370
     9
  0
POLYLINE
  5
2AC
330
1F
100
AcDbEntity
  8
Capa 1
 62
     7
420
 16777215
370
     9
100
AcDb2dPolyline
 66
     1
 10
0.0
 20
0.0
 30
0.0
  0
VERTEX
  5
2AD
330
2AC
100
AcDbEntity
  8
Capa 1
 62
     7
420
 16777215
370
     9
100
AcDbVertex
100
AcDb2dVertex
 10
83.43935137887975
 20
-180.8203151674686
 30
0.0
  0
VERTEX
  5
2AE
330
2AC
100
AcDbEntity
  8
Capa 1
 62
     7
420
 16777215
370
     9
100
AcDbVertex
100
AcDb2dVertex
 10
83.43935137887975
 20
-177.0231309236262
 30
0.0
  0
SEQEND
  5
2AF
330
2AC
100
AcDbEntity
  8
Capa 1
370
     9
  0
POLYLINE
  5
2B0
330
1F
100
AcDbEntity
  8
Capa 1
 62
     7
420
 16777215
370
     9
100
AcDb2dPolyline
 66
     1
 10
0.0
 20
0.0
 30
0.0
  0
VERTEX
  5
2B1
330
2B0
100
AcDbEntity
  8
Capa 1
 62
     7
420
 16777215
370
     9
100
AcDbVertex
100
AcDb2dVertex
 10
78.59813094823241
 20
-177.0231309236262
 30
0.0
  0
VERTEX
  5
2B2
330
2B0
100
AcDbEntity
  8
Capa 1
 62
     7
420
 16777215
370
     9
100
AcDbVertex
100
AcDb2dVertex
 10
79.95687660761494
 20
-177.0231309236262
 30
0.0
  0
SEQEND
  5
2B3
330
2B0
100
AcDbEntity
  8
Capa 1
370
     9
  0
POLYLINE
  5
2B4
330
1F
100
AcDbEntity
  8
Capa 1
 62
     7
420
 16777215
370
     9
100
AcDb2dPolyline
 66
     1
 10
0.0
 20
0.0
 30
0.0
  0
VERTEX
  5
2B5
330
2B4
100
AcDbEntity
  8
Capa 1
 62
     7
420
 16777215
370
     9
100
AcDbVertex
100
AcDb2dVertex
 10
83.43935137887975
 20
-177.0231309236262
 30
0.0
  0
VERTEX
  5
2B6
330
2B4
100
AcDbEntity
  8
Capa 1
 62
     7
420
 16777215
370
     9
100
AcDbVertex
100
AcDb2dVertex
 10
83.47345782418373
 20
-177.0231309236262
 30
0.0
  0
SEQEND
  5
2B7
330
2B4
100
AcDbEntity
  8
Capa 1
370
     9
  0
POLYLINE
  5
2B8
330
1F
100
AcDbEntity
  8
Capa 1
 62
     7
420
 16777215
370
     9
100
AcDb2dPolyline
 66
     1
 10
0.0
 20
0.0
 30
0.0
  0
VERTEX
  5
2B9
330
2B8
100
AcDbEntity
  8
Capa 1
 62
     7
420
 16777215
370
     9
100
AcDbVertex
100
AcDb2dVertex
 10
66.79919567557451
 20
-177.0231309236262
 30
0.0
  0
VERTEX
  5
2BA
330
2B8
100
AcDbEntity
  8
Capa 1
 62
     7
420
 16777215
370
     9
100
AcDbVertex
100
AcDb2dVertex
 10
66.75940482271987
 20
-177.0231309236262
 30
0.0
  0
SEQEND
  5
2BB
330
2B8
100
AcDbEntity
  8
Capa 1
370
     9
  0
POLYLINE
  5
2BC
330
1F
100
AcDbEntity
  8
Capa 1
 62
     7
420
 16777215
370
     9
100
AcDb2dPolyline
 66
     1
 10
0.0
 20
0.0
 30
0.0
  0
VERTEX
  5
2BD
330
2BC
100
AcDbEntity
  8
Capa 1
 62
     7
420
 16777215
370
     9
100
AcDbVertex
100
AcDb2dVertex
 10
70.2821872111621
 20
-177.0231309236262
 30
0.0
  0
VERTEX
  5
2BE
330
2BC
100
AcDbEntity
  8
Capa 1
 62
     7
420
 16777215
370
     9
100
AcDbVertex
100
AcDb2dVertex
 10
71.63300915092856
 20
-177.0231309236262
 30
0.0
  0
SEQEND
  5
2BF
330
2BC
100
AcDbEntity
  8
Capa 1
370
     9
  0
POLYLINE
  5
2C0
330
1F
100
AcDbEntity
  8
Capa 1
 62
     7
420
 16777215
370
     9
100
AcDb2dPolyline
 66
     1
 10
0.0
 20
0.0
 30
0.0
  0
VERTEX
  5
2C1
330
2C0
100
AcDbEntity
  8
Capa 1
 62
     7
420
 16777215
370
     9
100
AcDbVertex
100
AcDb2dVertex
 10
66.79919567557451
 20
-177.0231309236262
 30
0.0
  0
VERTEX
  5
2C2
330
2C0
100
AcDbEntity
  8
Capa 1
 62
     7
420
 16777215
370
     9
100
AcDbVertex
100
AcDb2dVertex
 10
66.79919567557451
 20
-180.8203151674686
 30
0.0
  0
SEQEND
  5
2C3
330
2C0
100
AcDbEntity
  8
Capa 1
370
     9
  0
POLYLINE
  5
2C4
330
1F
100
AcDbEntity
  8
Capa 1
 62
     7
420
 16777215
370
     9
100
AcDb2dPolyline
 66
     1
 10
0.0
 20
0.0
 30
0.0
  0
VERTEX
  5
2C5
330
2C4
100
AcDbEntity
  8
Capa 1
 62
     7
420
 16777215
370
     9
100
AcDbVertex
100
AcDb2dVertex
 10
70.2821872111621
 20
-180.8203151674686
 30
0.0
  0
VERTEX
  5
2C6
330
2C4
100
AcDbEntity
  8
Capa 1
 62
     7
420
 16777215
370
     9
100
AcDbVertex
100
AcDb2dVertex
 10
70.2821872111621
 20
-177.0231309236262
 30
0.0
  0
SEQEND
  5
2C7
330
2C4
100
AcDbEntity
  8
Capa 1
370
     9
  0
POLYLINE
  5
2C8
330
1F
100
AcDbEntity
  8
Capa 1
 62
     7
420
 16777215
370
     9
100
AcDb2dPolyline
 66
     1
 10
0.0
 20
0.0
 30
0.0
  0
VERTEX
  5
2C9
330
2C8
100
AcDbEntity
  8
Capa 1
 62
     7
420
 16777215
370
     9
100
AcDbVertex
100
AcDb2dVertex
 10
83.43935137887975
 20
-180.8203151674686
 30
0.0
  0
VERTEX
  5
2CA
330
2C8
100
AcDbEntity
  8
Capa 1
 62
     7
420
 16777215
370
     9
100
AcDbVertex
100
AcDb2dVertex
 10
83.47345782418373
 20
-180.8203151674686
 30
0.0
  0
SEQEND
  5
2CB
330
2C8
100
AcDbEntity
  8
Capa 1
370
     9
  0
POLYLINE
  5
2CC
330
1F
100
AcDbEntity
  8
Capa 1
 62
     7
420
 16777215
370
     9
100
AcDb2dPolyline
 66
     1
 10
0.0
 20
0.0
 30
0.0
  0
VERTEX
  5
2CD
330
2CC
100
AcDbEntity
  8
Capa 1
 62
     7
420
 16777215
370
     9
100
AcDbVertex
100
AcDb2dVertex
 10
79.95687660761494
 20
-180.8203151674686
 30
0.0
  0
VERTEX
  5
2CE
330
2CC
100
AcDbEntity
  8
Capa 1
 62
     7
420
 16777215
370
     9
100
AcDbVertex
100
AcDb2dVertex
 10
78.59813094823241
 20
-180.8203151674686
 30
0.0
  0
SEQEND
  5
2CF
330
2CC
100
AcDbEntity
  8
Capa 1
370
     9
  0
POLYLINE
  5
2D0
330
1F
100
AcDbEntity
  8
Capa 1
 62
     7
420
 16777215
370
     9
100
AcDb2dPolyline
 66
     1
 10
0.0
 20
0.0
 30
0.0
  0
VERTEX
  5
2D1
330
2D0
100
AcDbEntity
  8
Capa 1
 62
     7
420
 16777215
370
     9
100
AcDbVertex
100
AcDb2dVertex
 10
71.63300915092856
 20
-180.8203151674686
 30
0.0
  0
VERTEX
  5
2D2
330
2D0
100
AcDbEntity
  8
Capa 1
 62
     7
420
 16777215
370
     9
100
AcDbVertex
100
AcDb2dVertex
 10
70.2821872111621
 20
-180.8203151674686
 30
0.0
  0
SEQEND
  5
2D3
330
2D0
100
AcDbEntity
  8
Capa 1
370
     9
  0
POLYLINE
  5
2D4
330
1F
100
AcDbEntity
  8
Capa 1
 62
     7
420
 16777215
370
     9
100
AcDb2dPolyline
 66
     1
 10
0.0
 20
0.0
 30
0.0
  0
VERTEX
  5
2D5
330
2D4
100
AcDbEntity
  8
Capa 1
 62
     7
420
 16777215
370
     9
100
AcDbVertex
100
AcDb2dVertex
 10
66.79919567557451
 20
-180.8203151674686
 30
0.0
  0
VERTEX
  5
2D6
330
2D4
100
AcDbEntity
  8
Capa 1
 62
     7
420
 16777215
370
     9
100
AcDbVertex
100
AcDb2dVertex
 10
66.75940482271987
 20
-180.8203151674686
 30
0.0
  0
SEQEND
  5
2D7
330
2D4
100
AcDbEntity
  8
Capa 1
370
     9
  0
POLYLINE
  5
2D8
330
1F
100
AcDbEntity
  8
Capa 1
 62
     7
420
 16777215
370
     9
100
AcDb2dPolyline
 66
     1
 10
0.0
 20
0.0
 30
0.0
  0
VERTEX
  5
2D9
330
2D8
100
AcDbEntity
  8
Capa 1
 62
     7
420
 16777215
370
     9
100
AcDbVertex
100
AcDb2dVertex
 10
75.11565617696762
 20
-182.3406358051093
 30
0.0
  0
VERTEX
  5
2DA
330
2D8
100
AcDbEntity
  8
Capa 1
 62
     7
420
 16777215
370
     9
100
AcDbVertex
100
AcDb2dVertex
 10
81.95520424383412
 20
-182.3406358051093
 30
0.0
  0
SEQEND
  5
2DB
330
2D8
100
AcDbEntity
  8
Capa 1
370
     9
  0
POLYLINE
  5
2DC
330
1F
100
AcDbEntity
  8
Capa 1
 62
     7
420
 16777215
370
     9
100
AcDb2dPolyline
 66
     1
 10
0.0
 20
0.0
 30
0.0
  0
VERTEX
  5
2DD
330
2DC
100
AcDbEntity
  8
Capa 1
 62
     7
420
 16777215
370
     9
100
AcDbVertex
100
AcDb2dVertex
 10
73.05359427427133
 20
-182.3406358051093
 30
0.0
  0
VERTEX
  5
2DE
330
2DC
100
AcDbEntity
  8
Capa 1
 62
     7
420
 16777215
370
     9
100
AcDbVertex
100
AcDb2dVertex
 10
75.11565617696762
 20
-182.3406358051093
 30
0.0
  0
SEQEND
  5
2DF
330
2DC
100
AcDbEntity
  8
Capa 1
370
     9
  0
POLYLINE
  5
2E0
330
1F
100
AcDbEntity
  8
Capa 1
 62
     7
420
 16777215
370
     9
100
AcDb2dPolyline
 66
     1
 10
0.0
 20
0.0
 30
0.0
  0
VERTEX
  5
2E1
330
2E0
100
AcDbEntity
  8
Capa 1
 62
     7
420
 16777215
370
     9
100
AcDbVertex
100
AcDb2dVertex
 10
71.63300915092856
 20
-177.0231309236262
 30
0.0
  0
VERTEX
  5
2E2
330
2E0
100
AcDbEntity
  8
Capa 1
 62
     7
420
 16777215
370
     9
100
AcDbVertex
100
AcDb2dVertex
 10
71.63300915092856
 20
-180.8203151674686
 30
0.0
  0
SEQEND
  5
2E3
330
2E0
100
AcDbEntity
  8
Capa 1
370
     9
  0
POLYLINE
  5
2E4
330
1F
100
AcDbEntity
  8
Capa 1
 62
     7
420
 16777215
370
     9
100
AcDb2dPolyline
 66
     1
 10
0.0
 20
0.0
 30
0.0
  0
VERTEX
  5
2E5
330
2E4
100
AcDbEntity
  8
Capa 1
 62
     7
420
 16777215
370
     9
100
AcDbVertex
100
AcDb2dVertex
 10
78.59813094823241
 20
-180.8203151674686
 30
0.0
  0
VERTEX
  5
2E6
330
2E4
100
AcDbEntity
  8
Capa 1
 62
     7
420
 16777215
370
     9
100
AcDbVertex
100
AcDb2dVertex
 10
78.59813094823241
 20
-177.0231309236262
 30
0.0
  0
SEQEND
  5
2E7
330
2E4
100
AcDbEntity
  8
Capa 1
370
     9
  0
POLYLINE
  5
2E8
330
1F
100
AcDbEntity
  8
Capa 1
 62
     7
420
 16777215
370
     9
100
AcDb2dPolyline
 66
     1
 10
0.0
 20
0.0
 30
0.0
  0
VERTEX
  5
2E9
330
2E8
100
AcDbEntity
  8
Capa 1
 62
     7
420
 16777215
370
     9
100
AcDbVertex
100
AcDb2dVertex
 10
79.95687660761494
 20
-177.0231309236262
 30
0.0
  0
VERTEX
  5
2EA
330
2E8
100
AcDbEntity
  8
Capa 1
 62
     7
420
 16777215
370
     9
100
AcDbVertex
100
AcDb2dVertex
 10
79.95687660761494
 20
-180.8203151674686
 30
0.0
  0
SEQEND
  5
2EB
330
2E8
100
AcDbEntity
  8
Capa 1
370
     9
  0
POLYLINE
  5
2EC
330
1F
100
AcDbEntity
  8
Capa 1
 62
     7
420
 16777215
370
     9
100
AcDb2dPolyline
 66
     1
 10
0.0
 20
0.0
 30
0.0
  0
VERTEX
  5
2ED
330
2EC
100
AcDbEntity
  8
Capa 1
 62
     7
420
 16777215
370
     9
100
AcDbVertex
100
AcDb2dVertex
 10
83.43935137887975
 20
-180.8203151674686
 30
0.0
  0
VERTEX
  5
2EE
330
2EC
100
AcDbEntity
  8
Capa 1
 62
     7
420
 16777215
370
     9
100
AcDbVertex
100
AcDb2dVertex
 10
83.43935137887975
 20
-177.0231309236262
 30
0.0
  0
SEQEND
  5
2EF
330
2EC
100
AcDbEntity
  8
Capa 1
370
     9
  0
POLYLINE
  5
2F0
330
1F
100
AcDbEntity
  8
Capa 1
 62
     7
420
 16777215
370
     9
100
AcDb2dPolyline
 66
     1
 10
0.0
 20
0.0
 30
0.0
  0
VERTEX
  5
2F1
330
2F0
100
AcDbEntity
  8
Capa 1
 62
     7
420
 16777215
370
     9
100
AcDbVertex
100
AcDb2dVertex
 10
57.89758570601172
 20
-166.3881211606599
 30
0.0
  0
VERTEX
  5
2F2
330
2F0
100
AcDbEntity
  8
Capa 1
 62
     7
420
 16777215
370
     9
100
AcDbVertex
100
AcDb2dVertex
 10
92.33527694089187
 20
-166.3881211606599
 30
0.0
  0
SEQEND
  5
2F3
330
2F0
100
AcDbEntity
  8
Capa 1
370
     9
  0
POLYLINE
  5
2F4
330
1F
100
AcDbEntity
  8
Capa 1
 62
     7
420
 16777215
370
     9
100
AcDb2dPolyline
 66
     1
 10
0.0
 20
0.0
 30
0.0
  0
VERTEX
  5
2F5
330
2F4
100
AcDbEntity
  8
Capa 1
 62
     7
420
 16777215
370
     9
100
AcDbVertex
100
AcDb2dVertex
 10
67.29322236815933
 20
-175.5031547955339
 30
0.0
  0
VERTEX
  5
2F6
330
2F4
100
AcDbEntity
  8
Capa 1
 62
     7
420
 16777215
370
     9
100
AcDbVertex
100
AcDb2dVertex
 10
82.93946802397
 20
-175.5031547955339
 30
0.0
  0
SEQEND
  5
2F7
330
2F4
100
AcDbEntity
  8
Capa 1
370
     9
  0
POLYLINE
  5
2F8
330
1F
100
AcDbEntity
  8
Capa 1
 62
     7
420
 16777215
370
     9
100
AcDb2dPolyline
 66
     1
 10
0.0
 20
0.0
 30
0.0
  0
VERTEX
  5
2F9
330
2F8
100
AcDbEntity
  8
Capa 1
 62
     7
420
 16777215
370
     9
100
AcDbVertex
100
AcDb2dVertex
 10
2.389862738117812
 20
-177.0231309236262
 30
0.0
  0
VERTEX
  5
2FA
330
2F8
100
AcDbEntity
  8
Capa 1
 62
     7
420
 16777215
370
     9
100
AcDbVertex
100
AcDb2dVertex
 10
3.741545951755586
 20
-177.0231309236262
 30
0.0
  0
SEQEND
  5
2FB
330
2F8
100
AcDbEntity
  8
Capa 1
370
     9
  0
POLYLINE
  5
2FC
330
1F
100
AcDbEntity
  8
Capa 1
 62
     7
420
 16777215
370
     9
100
AcDb2dPolyline
 66
     1
 10
0.0
 20
0.0
 30
0.0
  0
VERTEX
  5
2FD
330
2FC
100
AcDbEntity
  8
Capa 1
 62
     7
420
 16777215
370
     9
100
AcDbVertex
100
AcDb2dVertex
 10
7.224192977794647
 20
-177.0231309236262
 30
0.0
  0
VERTEX
  5
2FE
330
2FC
100
AcDbEntity
  8
Capa 1
 62
     7
420
 16777215
370
     9
100
AcDbVertex
100
AcDb2dVertex
 10
7.263983830649282
 20
-177.0231309236262
 30
0.0
  0
SEQEND
  5
2FF
330
2FC
100
AcDbEntity
  8
Capa 1
370
     9
  0
POLYLINE
  5
300
330
1F
100
AcDbEntity
  8
Capa 1
 62
     7
420
 16777215
370
     9
100
AcDb2dPolyline
 66
     1
 10
0.0
 20
0.0
 30
0.0
  0
VERTEX
  5
301
330
300
100
AcDbEntity
  8
Capa 1
 62
     7
420
 16777215
370
     9
100
AcDbVertex
100
AcDb2dVertex
 10
7.224192977794647
 20
-180.8203151674686
 30
0.0
  0
VERTEX
  5
302
330
300
100
AcDbEntity
  8
Capa 1
 62
     7
420
 16777215
370
     9
100
AcDbVertex
100
AcDb2dVertex
 10
7.263983830649282
 20
-180.8203151674686
 30
0.0
  0
SEQEND
  5
303
330
300
100
AcDbEntity
  8
Capa 1
370
     9
  0
POLYLINE
  5
304
330
1F
100
AcDbEntity
  8
Capa 1
 62
     7
420
 16777215
370
     9
100
AcDb2dPolyline
 66
     1
 10
0.0
 20
0.0
 30
0.0
  0
VERTEX
  5
305
330
304
100
AcDbEntity
  8
Capa 1
 62
     7
420
 16777215
370
     9
100
AcDbVertex
100
AcDb2dVertex
 10
3.741545951755586
 20
-180.8203151674686
 30
0.0
  0
VERTEX
  5
306
330
304
100
AcDbEntity
  8
Capa 1
 62
     7
420
 16777215
370
     9
100
AcDbVertex
100
AcDb2dVertex
 10
2.389862738117812
 20
-180.8203151674686
 30
0.0
  0
SEQEND
  5
307
330
304
100
AcDbEntity
  8
Capa 1
370
     9
  0
POLYLINE
  5
308
330
1F
100
AcDbEntity
  8
Capa 1
 62
     7
420
 16777215
370
     9
100
AcDb2dPolyline
 66
     1
 10
0.0
 20
0.0
 30
0.0
  0
VERTEX
  5
309
330
308
100
AcDbEntity
  8
Capa 1
 62
     7
420
 16777215
370
     9
100
AcDbVertex
100
AcDb2dVertex
 10
2.389862738117812
 20
-180.8203151674686
 30
0.0
  0
VERTEX
  5
30A
330
308
100
AcDbEntity
  8
Capa 1
 62
     7
420
 16777215
370
     9
100
AcDbVertex
100
AcDb2dVertex
 10
2.389862738117812
 20
-177.0231309236262
 30
0.0
  0
SEQEND
  5
30B
330
308
100
AcDbEntity
  8
Capa 1
370
     9
  0
POLYLINE
  5
30C
330
1F
100
AcDbEntity
  8
Capa 1
 62
     7
420
 16777215
370
     9
100
AcDb2dPolyline
 66
     1
 10
0.0
 20
0.0
 30
0.0
  0
VERTEX
  5
30D
330
30C
100
AcDbEntity
  8
Capa 1
 62
     7
420
 16777215
370
     9
100
AcDbVertex
100
AcDb2dVertex
 10
3.741545951755586
 20
-177.0231309236262
 30
0.0
  0
VERTEX
  5
30E
330
30C
100
AcDbEntity
  8
Capa 1
 62
     7
420
 16777215
370
     9
100
AcDbVertex
100
AcDb2dVertex
 10
3.741545951755586
 20
-180.8203151674686
 30
0.0
  0
SEQEND
  5
30F
330
30C
100
AcDbEntity
  8
Capa 1
370
     9
  0
POLYLINE
  5
310
330
1F
100
AcDbEntity
  8
Capa 1
 62
     7
420
 16777215
370
     9
100
AcDb2dPolyline
 66
     1
 10
0.0
 20
0.0
 30
0.0
  0
VERTEX
  5
311
330
310
100
AcDbEntity
  8
Capa 1
 62
     7
420
 16777215
370
     9
100
AcDbVertex
100
AcDb2dVertex
 10
7.224192977794647
 20
-180.8203151674686
 30
0.0
  0
VERTEX
  5
312
330
310
100
AcDbEntity
  8
Capa 1
 62
     7
420
 16777215
370
     9
100
AcDbVertex
100
AcDb2dVertex
 10
7.224192977794647
 20
-177.0231309236262
 30
0.0
  0
SEQEND
  5
313
330
310
100
AcDbEntity
  8
Capa 1
370
     9
  0
POLYLINE
  5
314
330
1F
100
AcDbEntity
  8
Capa 1
 62
     7
420
 16777215
370
     9
100
AcDb2dPolyline
 66
     1
 10
0.0
 20
0.0
 30
0.0
  0
VERTEX
  5
315
330
314
100
AcDbEntity
  8
Capa 1
 62
     7
420
 16777215
370
     9
100
AcDbVertex
100
AcDb2dVertex
 10
73.05359427427133
 20
-182.3406358051093
 30
0.0
  0
VERTEX
  5
316
330
314
100
AcDbEntity
  8
Capa 1
 62
     7
420
 16777215
370
     9
100
AcDbVertex
100
AcDb2dVertex
 10
69.03110078569361
 20
-182.3406358051093
 30
0.0
  0
SEQEND
  5
317
330
314
100
AcDbEntity
  8
Capa 1
370
     9
  0
POLYLINE
  5
318
330
1F
100
AcDbEntity
  8
Capa 1
 62
     7
420
 16777215
370
     9
100
AcDb2dPolyline
 66
     1
 10
0.0
 20
0.0
 30
0.0
  0
VERTEX
  5
319
330
318
100
AcDbEntity
  8
Capa 1
 62
     7
420
 16777215
370
     9
100
AcDbVertex
100
AcDb2dVertex
 10
69.03110078569361
 20
-182.3406358051093
 30
0.0
  0
VERTEX
  5
31A
330
318
100
AcDbEntity
  8
Capa 1
 62
     7
420
 16777215
370
     9
100
AcDbVertex
100
AcDb2dVertex
 10
69.03110078569361
 20
-182.0874212869434
 30
0.0
  0
SEQEND
  5
31B
330
318
100
AcDbEntity
  8
Capa 1
370
     9
  0
POLYLINE
  5
31C
330
1F
100
AcDbEntity
  8
Capa 1
 62
     7
420
 16777215
370
     9
100
AcDb2dPolyline
 66
     1
 10
0.0
 20
0.0
 30
0.0
  0
VERTEX
  5
31D
330
31C
100
AcDbEntity
  8
Capa 1
 62
     7
420
 16777215
370
     9
100
AcDbVertex
100
AcDb2dVertex
 10
69.03110078569361
 20
-182.0874212869434
 30
0.0
  0
VERTEX
  5
31E
330
31C
100
AcDbEntity
  8
Capa 1
 62
     7
420
 16777215
370
     9
100
AcDbVertex
100
AcDb2dVertex
 10
67.21949732477499
 20
-182.0874212869434
 30
0.0
  0
SEQEND
  5
31F
330
31C
100
AcDbEntity
  8
Capa 1
370
     9
  0
POLYLINE
  5
320
330
1F
100
AcDbEntity
  8
Capa 1
 62
     7
420
 16777215
370
     9
100
AcDb2dPolyline
 66
     1
 10
0.0
 20
0.0
 30
0.0
  0
VERTEX
  5
321
330
320
100
AcDbEntity
  8
Capa 1
 62
     7
420
 16777215
370
     9
100
AcDbVertex
100
AcDb2dVertex
 10
6.803719073819904
 20
-182.0874212869434
 30
0.0
  0
VERTEX
  5
322
330
320
100
AcDbEntity
  8
Capa 1
 62
     7
420
 16777215
370
     9
100
AcDbVertex
100
AcDb2dVertex
 10
4.990737574707177
 20
-182.0874212869434
 30
0.0
  0
SEQEND
  5
323
330
320
100
AcDbEntity
  8
Capa 1
370
     9
  0
POLYLINE
  5
324
330
1F
100
AcDbEntity
  8
Capa 1
 62
     7
420
 16777215
370
     9
100
AcDb2dPolyline
 66
     1
 10
0.0
 20
0.0
 30
0.0
  0
VERTEX
  5
325
330
324
100
AcDbEntity
  8
Capa 1
 62
     7
420
 16777215
370
     9
100
AcDbVertex
100
AcDb2dVertex
 10
4.990737574707177
 20
-182.0874212869434
 30
0.0
  0
VERTEX
  5
326
330
324
100
AcDbEntity
  8
Capa 1
 62
     7
420
 16777215
370
     9
100
AcDbVertex
100
AcDb2dVertex
 10
4.990737574707177
 20
-182.3406358051093
 30
0.0
  0
SEQEND
  5
327
330
324
100
AcDbEntity
  8
Capa 1
370
     9
  0
POLYLINE
  5
328
330
1F
100
AcDbEntity
  8
Capa 1
 62
     7
420
 16777215
370
     9
100
AcDb2dPolyline
 66
     1
 10
0.0
 20
0.0
 30
0.0
  0
VERTEX
  5
329
330
328
100
AcDbEntity
  8
Capa 1
 62
     7
420
 16777215
370
     9
100
AcDbVertex
100
AcDb2dVertex
 10
4.990737574707177
 20
-182.3406358051093
 30
0.0
  0
VERTEX
  5
32A
330
328
100
AcDbEntity
  8
Capa 1
 62
     7
420
 16777215
370
     9
100
AcDbVertex
100
AcDb2dVertex
 10
0.9692776147750417
 20
-182.3406358051093
 30
0.0
  0
SEQEND
  5
32B
330
328
100
AcDbEntity
  8
Capa 1
370
     9
  0
POLYLINE
  5
32C
330
1F
100
AcDbEntity
  8
Capa 1
 62
     7
420
 16777215
370
     9
100
AcDb2dPolyline
 66
     1
 10
0.0
 20
0.0
 30
0.0
  0
VERTEX
  5
32D
330
32C
100
AcDbEntity
  8
Capa 1
 62
     7
420
 16777215
370
     9
100
AcDbVertex
100
AcDb2dVertex
 10
49.54684650454038
 20
-199.1795735179134
 30
0.0
  0
VERTEX
  5
32E
330
32C
100
AcDbEntity
  8
Capa 1
 62
     7
420
 16777215
370
     9
100
AcDbVertex
100
AcDb2dVertex
 10
49.54684650454038
 20
-199.1754394033312
 30
0.0
  0
SEQEND
  5
32F
330
32C
100
AcDbEntity
  8
Capa 1
370
     9
  0
POLYLINE
  5
330
330
1F
100
AcDbEntity
  8
Capa 1
 62
     7
420
 16777215
370
     9
100
AcDb2dPolyline
 66
     1
 10
0.0
 20
0.0
 30
0.0
  0
VERTEX
  5
331
330
330
100
AcDbEntity
  8
Capa 1
 62
     7
420
 16777215
370
     9
100
AcDbVertex
100
AcDb2dVertex
 10
2.389862738117812
 20
-177.0231309236262
 30
0.0
  0
VERTEX
  5
332
330
330
100
AcDbEntity
  8
Capa 1
 62
     7
420
 16777215
370
     9
100
AcDbVertex
100
AcDb2dVertex
 10
3.741545951755586
 20
-177.0231309236262
 30
0.0
  0
SEQEND
  5
333
330
330
100
AcDbEntity
  8
Capa 1
370
     9
  0
POLYLINE
  5
334
330
1F
100
AcDbEntity
  8
Capa 1
 62
     7
420
 16777215
370
     9
100
AcDb2dPolyline
 66
     1
 10
0.0
 20
0.0
 30
0.0
  0
VERTEX
  5
335
330
334
100
AcDbEntity
  8
Capa 1
 62
     7
420
 16777215
370
     9
100
AcDbVertex
100
AcDb2dVertex
 10
7.224192977794647
 20
-177.0231309236262
 30
0.0
  0
VERTEX
  5
336
330
334
100
AcDbEntity
  8
Capa 1
 62
     7
420
 16777215
370
     9
100
AcDbVertex
100
AcDb2dVertex
 10
7.263983830649282
 20
-177.0231309236262
 30
0.0
  0
SEQEND
  5
337
330
334
100
AcDbEntity
  8
Capa 1
370
     9
  0
POLYLINE
  5
338
330
1F
100
AcDbEntity
  8
Capa 1
 62
     7
420
 16777215
370
     9
100
AcDb2dPolyline
 66
     1
 10
0.0
 20
0.0
 30
0.0
  0
VERTEX
  5
339
330
338
100
AcDbEntity
  8
Capa 1
 62
     7
420
 16777215
370
     9
100
AcDbVertex
100
AcDb2dVertex
 10
7.224192977794647
 20
-180.8203151674686
 30
0.0
  0
VERTEX
  5
33A
330
338
100
AcDbEntity
  8
Capa 1
 62
     7
420
 16777215
370
     9
100
AcDbVertex
100
AcDb2dVertex
 10
7.263983830649282
 20
-180.8203151674686
 30
0.0
  0
SEQEND
  5
33B
330
338
100
AcDbEntity
  8
Capa 1
370
     9
  0
POLYLINE
  5
33C
330
1F
100
AcDbEntity
  8
Capa 1
 62
     7
420
 16777215
370
     9
100
AcDb2dPolyline
 66
     1
 10
0.0
 20
0.0
 30
0.0
  0
VERTEX
  5
33D
330
33C
100
AcDbEntity
  8
Capa 1
 62
     7
420
 16777215
370
     9
100
AcDbVertex
100
AcDb2dVertex
 10
3.741545951755586
 20
-180.8203151674686
 30
0.0
  0
VERTEX
  5
33E
330
33C
100
AcDbEntity
  8
Capa 1
 62
     7
420
 16777215
370
     9
100
AcDbVertex
100
AcDb2dVertex
 10
2.389862738117812
 20
-180.8203151674686
 30
0.0
  0
SEQEND
  5
33F
330
33C
100
AcDbEntity
  8
Capa 1
370
     9
  0
POLYLINE
  5
340
330
1F
100
AcDbEntity
  8
Capa 1
 62
     7
420
 16777215
370
     9
100
AcDb2dPolyline
 66
     1
 10
0.0
 20
0.0
 30
0.0
  0
VERTEX
  5
341
330
340
100
AcDbEntity
  8
Capa 1
 62
     7
420
 16777215
370
     9
100
AcDbVertex
100
AcDb2dVertex
 10
2.389862738117812
 20
-180.8203151674686
 30
0.0
  0
VERTEX
  5
342
330
340
100
AcDbEntity
  8
Capa 1
 62
     7
420
 16777215
370
     9
100
AcDbVertex
100
AcDb2dVertex
 10
2.389862738117812
 20
-177.0231309236262
 30
0.0
  0
SEQEND
  5
343
330
340
100
AcDbEntity
  8
Capa 1
370
     9
  0
POLYLINE
  5
344
330
1F
100
AcDbEntity
  8
Capa 1
 62
     7
420
 16777215
370
     9
100
AcDb2dPolyline
 66
     1
 10
0.0
 20
0.0
 30
0.0
  0
VERTEX
  5
345
330
344
100
AcDbEntity
  8
Capa 1
 62
     7
420
 16777215
370
     9
100
AcDbVertex
100
AcDb2dVertex
 10
3.741545951755586
 20
-177.0231309236262
 30
0.0
  0
VERTEX
  5
346
330
344
100
AcDbEntity
  8
Capa 1
 62
     7
420
 16777215
370
     9
100
AcDbVertex
100
AcDb2dVertex
 10
3.741545951755586
 20
-180.8203151674686
 30
0.0
  0
SEQEND
  5
347
330
344
100
AcDbEntity
  8
Capa 1
370
     9
  0
POLYLINE
  5
348
330
1F
100
AcDbEntity
  8
Capa 1
 62
     7
420
 16777215
370
     9
100
AcDb2dPolyline
 66
     1
 10
0.0
 20
0.0
 30
0.0
  0
VERTEX
  5
349
330
348
100
AcDbEntity
  8
Capa 1
 62
     7
420
 16777215
370
     9
100
AcDbVertex
100
AcDb2dVertex
 10
7.224192977794647
 20
-180.8203151674686
 30
0.0
  0
VERTEX
  5
34A
330
348
100
AcDbEntity
  8
Capa 1
 62
     7
420
 16777215
370
     9
100
AcDbVertex
100
AcDb2dVertex
 10
7.224192977794647
 20
-177.0231309236262
 30
0.0
  0
SEQEND
  5
34B
330
348
100
AcDbEntity
  8
Capa 1
370
     9
  0
POLYLINE
  5
34C
330
1F
100
AcDbEntity
  8
Capa 1
 62
     7
420
 16777215
370
     9
100
AcDb2dPolyline
 66
     1
 10
0.0
 20
0.0
 30
0.0
  0
VERTEX
  5
34D
330
34C
100
AcDbEntity
  8
Capa 1
 62
     7
420
 16777215
370
     9
100
AcDbVertex
100
AcDb2dVertex
 10
7.224192977794647
 20
-180.8203151674686
 30
0.0
  0
VERTEX
  5
34E
330
34C
100
AcDbEntity
  8
Capa 1
 62
     7
420
 16777215
370
     9
100
AcDbVertex
100
AcDb2dVertex
 10
7.263983830649282
 20
-180.8203151674686
 30
0.0
  0
SEQEND
  5
34F
330
34C
100
AcDbEntity
  8
Capa 1
370
     9
  0
POLYLINE
  5
350
330
1F
100
AcDbEntity
  8
Capa 1
 62
     7
420
 16777215
370
     9
100
AcDb2dPolyline
 66
     1
 10
0.0
 20
0.0
 30
0.0
  0
VERTEX
  5
351
330
350
100
AcDbEntity
  8
Capa 1
 62
     7
420
 16777215
370
     9
100
AcDbVertex
100
AcDb2dVertex
 10
3.741545951755586
 20
-180.8203151674686
 30
0.0
  0
VERTEX
  5
352
330
350
100
AcDbEntity
  8
Capa 1
 62
     7
420
 16777215
370
     9
100
AcDbVertex
100
AcDb2dVertex
 10
2.389862738117812
 20
-180.8203151674686
 30
0.0
  0
SEQEND
  5
353
330
350
100
AcDbEntity
  8
Capa 1
370
     9
  0
POLYLINE
  5
354
330
1F
100
AcDbEntity
  8
Capa 1
 62
     7
420
 16777215
370
     9
100
AcDb2dPolyline
 66
     1
 10
0.0
 20
0.0
 30
0.0
  0
VERTEX
  5
355
330
354
100
AcDbEntity
  8
Capa 1
 62
     7
420
 16777215
370
     9
100
AcDbVertex
100
AcDb2dVertex
 10
2.389862738117812
 20
-177.0231309236262
 30
0.0
  0
VERTEX
  5
356
330
354
100
AcDbEntity
  8
Capa 1
 62
     7
420
 16777215
370
     9
100
AcDbVertex
100
AcDb2dVertex
 10
3.741545951755586
 20
-177.0231309236262
 30
0.0
  0
SEQEND
  5
357
330
354
100
AcDbEntity
  8
Capa 1
370
     9
  0
POLYLINE
  5
358
330
1F
100
AcDbEntity
  8
Capa 1
 62
     7
420
 16777215
370
     9
100
AcDb2dPolyline
 66
     1
 10
0.0
 20
0.0
 30
0.0
  0
VERTEX
  5
359
330
358
100
AcDbEntity
  8
Capa 1
 62
     7
420
 16777215
370
     9
100
AcDbVertex
100
AcDb2dVertex
 10
7.224192977794647
 20
-177.0231309236262
 30
0.0
  0
VERTEX
  5
35A
330
358
100
AcDbEntity
  8
Capa 1
 62
     7
420
 16777215
370
     9
100
AcDbVertex
100
AcDb2dVertex
 10
7.263983830649282
 20
-177.0231309236262
 30
0.0
  0
SEQEND
  5
35B
330
358
100
AcDbEntity
  8
Capa 1
370
     9
  0
POLYLINE
  5
35C
330
1F
100
AcDbEntity
  8
Capa 1
 62
     7
420
 16777215
370
     9
100
AcDb2dPolyline
 66
     1
 10
0.0
 20
0.0
 30
0.0
  0
VERTEX
  5
35D
330
35C
100
AcDbEntity
  8
Capa 1
 62
     7
420
 16777215
370
     9
100
AcDbVertex
100
AcDb2dVertex
 10
2.389862738117812
 20
-180.8203151674686
 30
0.0
  0
VERTEX
  5
35E
330
35C
100
AcDbEntity
  8
Capa 1
 62
     7
420
 16777215
370
     9
100
AcDbVertex
100
AcDb2dVertex
 10
2.389862738117812
 20
-177.0231309236262
 30
0.0
  0
SEQEND
  5
35F
330
35C
100
AcDbEntity
  8
Capa 1
370
     9
  0
POLYLINE
  5
360
330
1F
100
AcDbEntity
  8
Capa 1
 62
     7
420
 16777215
370
     9
100
AcDb2dPolyline
 66
     1
 10
0.0
 20
0.0
 30
0.0
  0
VERTEX
  5
361
330
360
100
AcDbEntity
  8
Capa 1
 62
     7
420
 16777215
370
     9
100
AcDbVertex
100
AcDb2dVertex
 10
3.741545951755586
 20
-177.0231309236262
 30
0.0
  0
VERTEX
  5
362
330
360
100
AcDbEntity
  8
Capa 1
 62
     7
420
 16777215
370
     9
100
AcDbVertex
100
AcDb2dVertex
 10
3.741545951755586
 20
-180.8203151674686
 30
0.0
  0
SEQEND
  5
363
330
360
100
AcDbEntity
  8
Capa 1
370
     9
  0
POLYLINE
  5
364
330
1F
100
AcDbEntity
  8
Capa 1
 62
     7
420
 16777215
370
     9
100
AcDb2dPolyline
 66
     1
 10
0.0
 20
0.0
 30
0.0
  0
VERTEX
  5
365
330
364
100
AcDbEntity
  8
Capa 1
 62
     7
420
 16777215
370
     9
100
AcDbVertex
100
AcDb2dVertex
 10
7.224192977794647
 20
-180.8203151674686
 30
0.0
  0
VERTEX
  5
366
330
364
100
AcDbEntity
  8
Capa 1
 62
     7
420
 16777215
370
     9
100
AcDbVertex
100
AcDb2dVertex
 10
7.224192977794647
 20
-177.0231309236262
 30
0.0
  0
SEQEND
  5
367
330
364
100
AcDbEntity
  8
Capa 1
370
     9
  0
POLYLINE
  5
368
330
1F
100
AcDbEntity
  8
Capa 1
 62
     7
420
 16777215
370
     9
100
AcDb2dPolyline
 66
     1
 10
0.0
 20
0.0
 30
0.0
  0
VERTEX
  5
369
330
368
100
AcDbEntity
  8
Capa 1
 62
     7
420
 16777215
370
     9
100
AcDbVertex
100
AcDb2dVertex
 10
24.47654214882878
 20
-199.1754394033312
 30
0.0
  0
VERTEX
  5
36A
330
368
100
AcDbEntity
  8
Capa 1
 62
     7
420
 16777215
370
     9
100
AcDbVertex
100
AcDb2dVertex
 10
24.47654214882878
 20
-199.1795735179134
 30
0.0
  0
SEQEND
  5
36B
330
368
100
AcDbEntity
  8
Capa 1
370
     9
  0
POLYLINE
  5
36C
330
1F
100
AcDbEntity
  8
Capa 1
 62
     7
420
 16777215
370
     9
100
AcDb2dPolyline
 66
     1
 10
0.0
 20
0.0
 30
0.0
  0
VERTEX
  5
36D
330
36C
100
AcDbEntity
  8
Capa 1
 62
     7
420
 16777215
370
     9
100
AcDbVertex
100
AcDb2dVertex
 10
-4.575259059186046
 20
-177.0231309236262
 30
0.0
  0
VERTEX
  5
36E
330
36C
100
AcDbEntity
  8
Capa 1
 62
     7
420
 16777215
370
     9
100
AcDbVertex
100
AcDb2dVertex
 10
-4.575259059186046
 20
-180.8203151674686
 30
0.0
  0
SEQEND
  5
36F
330
36C
100
AcDbEntity
  8
Capa 1
370
     9
  0
POLYLINE
  5
370
330
1F
100
AcDbEntity
  8
Capa 1
 62
     7
420
 16777215
370
     9
100
AcDb2dPolyline
 66
     1
 10
0.0
 20
0.0
 30
0.0
  0
VERTEX
  5
371
330
370
100
AcDbEntity
  8
Capa 1
 62
     7
420
 16777215
370
     9
100
AcDbVertex
100
AcDb2dVertex
 10
-5.932971189923007
 20
-177.0231309236262
 30
0.0
  0
VERTEX
  5
372
330
370
100
AcDbEntity
  8
Capa 1
 62
     7
420
 16777215
370
     9
100
AcDbVertex
100
AcDb2dVertex
 10
-4.575259059186046
 20
-177.0231309236262
 30
0.0
  0
SEQEND
  5
373
330
370
100
AcDbEntity
  8
Capa 1
370
     9
  0
POLYLINE
  5
374
330
1F
100
AcDbEntity
  8
Capa 1
 62
     7
420
 16777215
370
     9
100
AcDb2dPolyline
 66
     1
 10
0.0
 20
0.0
 30
0.0
  0
VERTEX
  5
375
330
374
100
AcDbEntity
  8
Capa 1
 62
     7
420
 16777215
370
     9
100
AcDbVertex
100
AcDb2dVertex
 10
-4.575259059186046
 20
-177.0231309236262
 30
0.0
  0
VERTEX
  5
376
330
374
100
AcDbEntity
  8
Capa 1
 62
     7
420
 16777215
370
     9
100
AcDbVertex
100
AcDb2dVertex
 10
-4.575259059186046
 20
-180.8203151674686
 30
0.0
  0
SEQEND
  5
377
330
374
100
AcDbEntity
  8
Capa 1
370
     9
  0
POLYLINE
  5
378
330
1F
100
AcDbEntity
  8
Capa 1
 62
     7
420
 16777215
370
     9
100
AcDb2dPolyline
 66
     1
 10
0.0
 20
0.0
 30
0.0
  0
VERTEX
  5
379
330
378
100
AcDbEntity
  8
Capa 1
 62
     7
420
 16777215
370
     9
100
AcDbVertex
100
AcDb2dVertex
 10
-1.092784287921248
 20
-182.3406358051093
 30
0.0
  0
VERTEX
  5
37A
330
378
100
AcDbEntity
  8
Capa 1
 62
     7
420
 16777215
370
     9
100
AcDbVertex
100
AcDb2dVertex
 10
0.9692776147750417
 20
-182.3406358051093
 30
0.0
  0
SEQEND
  5
37B
330
378
100
AcDbEntity
  8
Capa 1
370
     9
  0
POLYLINE
  5
37C
330
1F
100
AcDbEntity
  8
Capa 1
 62
     7
420
 16777215
370
     9
100
AcDb2dPolyline
 66
     1
 10
0.0
 20
0.0
 30
0.0
  0
VERTEX
  5
37D
330
37C
100
AcDbEntity
  8
Capa 1
 62
     7
420
 16777215
370
     9
100
AcDbVertex
100
AcDb2dVertex
 10
-7.933365883433326
 20
-182.3406358051093
 30
0.0
  0
VERTEX
  5
37E
330
37C
100
AcDbEntity
  8
Capa 1
 62
     7
420
 16777215
370
     9
100
AcDbVertex
100
AcDb2dVertex
 10
-1.092784287921248
 20
-182.3406358051093
 30
0.0
  0
SEQEND
  5
37F
330
37C
100
AcDbEntity
  8
Capa 1
370
     9
  0
POLYLINE
  5
380
330
1F
100
AcDbEntity
  8
Capa 1
 62
     7
420
 16777215
370
     9
100
AcDb2dPolyline
 66
     1
 10
0.0
 20
0.0
 30
0.0
  0
VERTEX
  5
381
330
380
100
AcDbEntity
  8
Capa 1
 62
     7
420
 16777215
370
     9
100
AcDbVertex
100
AcDb2dVertex
 10
-9.415618215962068
 20
-177.0231309236262
 30
0.0
  0
VERTEX
  5
382
330
380
100
AcDbEntity
  8
Capa 1
 62
     7
420
 16777215
370
     9
100
AcDbVertex
100
AcDb2dVertex
 10
-9.415618215962068
 20
-180.8203151674686
 30
0.0
  0
SEQEND
  5
383
330
380
100
AcDbEntity
  8
Capa 1
370
     9
  0
POLYLINE
  5
384
330
1F
100
AcDbEntity
  8
Capa 1
 62
     7
420
 16777215
370
     9
100
AcDb2dPolyline
 66
     1
 10
0.0
 20
0.0
 30
0.0
  0
VERTEX
  5
385
330
384
100
AcDbEntity
  8
Capa 1
 62
     7
420
 16777215
370
     9
100
AcDbVertex
100
AcDb2dVertex
 10
-5.932971189923007
 20
-180.8203151674686
 30
0.0
  0
VERTEX
  5
386
330
384
100
AcDbEntity
  8
Capa 1
 62
     7
420
 16777215
370
     9
100
AcDbVertex
100
AcDb2dVertex
 10
-5.932971189923007
 20
-177.0231309236262
 30
0.0
  0
SEQEND
  5
387
330
384
100
AcDbEntity
  8
Capa 1
370
     9
  0
POLYLINE
  5
388
330
1F
100
AcDbEntity
  8
Capa 1
 62
     7
420
 16777215
370
     9
100
AcDb2dPolyline
 66
     1
 10
0.0
 20
0.0
 30
0.0
  0
VERTEX
  5
389
330
388
100
AcDbEntity
  8
Capa 1
 62
     7
420
 16777215
370
     9
100
AcDbVertex
100
AcDb2dVertex
 10
-9.415618215962068
 20
-177.0231309236262
 30
0.0
  0
VERTEX
  5
38A
330
388
100
AcDbEntity
  8
Capa 1
 62
     7
420
 16777215
370
     9
100
AcDbVertex
100
AcDb2dVertex
 10
-9.449380151717516
 20
-177.0231309236262
 30
0.0
  0
SEQEND
  5
38B
330
388
100
AcDbEntity
  8
Capa 1
370
     9
  0
POLYLINE
  5
38C
330
1F
100
AcDbEntity
  8
Capa 1
 62
     7
420
 16777215
370
     9
100
AcDb2dPolyline
 66
     1
 10
0.0
 20
0.0
 30
0.0
  0
VERTEX
  5
38D
330
38C
100
AcDbEntity
  8
Capa 1
 62
     7
420
 16777215
370
     9
100
AcDbVertex
100
AcDb2dVertex
 10
-5.932971189923007
 20
-177.0231309236262
 30
0.0
  0
VERTEX
  5
38E
330
38C
100
AcDbEntity
  8
Capa 1
 62
     7
420
 16777215
370
     9
100
AcDbVertex
100
AcDb2dVertex
 10
-4.575259059186046
 20
-177.0231309236262
 30
0.0
  0
SEQEND
  5
38F
330
38C
100
AcDbEntity
  8
Capa 1
370
     9
  0
POLYLINE
  5
390
330
1F
100
AcDbEntity
  8
Capa 1
 62
     7
420
 16777215
370
     9
100
AcDb2dPolyline
 66
     1
 10
0.0
 20
0.0
 30
0.0
  0
VERTEX
  5
391
330
390
100
AcDbEntity
  8
Capa 1
 62
     7
420
 16777215
370
     9
100
AcDbVertex
100
AcDb2dVertex
 10
-4.575259059186046
 20
-180.8203151674686
 30
0.0
  0
VERTEX
  5
392
330
390
100
AcDbEntity
  8
Capa 1
 62
     7
420
 16777215
370
     9
100
AcDbVertex
100
AcDb2dVertex
 10
-5.932971189923007
 20
-180.8203151674686
 30
0.0
  0
SEQEND
  5
393
330
390
100
AcDbEntity
  8
Capa 1
370
     9
  0
POLYLINE
  5
394
330
1F
100
AcDbEntity
  8
Capa 1
 62
     7
420
 16777215
370
     9
100
AcDb2dPolyline
 66
     1
 10
0.0
 20
0.0
 30
0.0
  0
VERTEX
  5
395
330
394
100
AcDbEntity
  8
Capa 1
 62
     7
420
 16777215
370
     9
100
AcDbVertex
100
AcDb2dVertex
 10
-9.415618215962068
 20
-180.8203151674686
 30
0.0
  0
VERTEX
  5
396
330
394
100
AcDbEntity
  8
Capa 1
 62
     7
420
 16777215
370
     9
100
AcDbVertex
100
AcDb2dVertex
 10
-9.449380151717516
 20
-180.8203151674686
 30
0.0
  0
SEQEND
  5
397
330
394
100
AcDbEntity
  8
Capa 1
370
     9
  0
POLYLINE
  5
398
330
1F
100
AcDbEntity
  8
Capa 1
 62
     7
420
 16777215
370
     9
100
AcDb2dPolyline
 66
     1
 10
0.0
 20
0.0
 30
0.0
  0
VERTEX
  5
399
330
398
100
AcDbEntity
  8
Capa 1
 62
     7
420
 16777215
370
     9
100
AcDbVertex
100
AcDb2dVertex
 10
-1.092784287921248
 20
-182.3406358051093
 30
0.0
  0
VERTEX
  5
39A
330
398
100
AcDbEntity
  8
Capa 1
 62
     7
420
 16777215
370
     9
100
AcDbVertex
100
AcDb2dVertex
 10
0.9692776147750417
 20
-182.3406358051093
 30
0.0
  0
SEQEND
  5
39B
330
398
100
AcDbEntity
  8
Capa 1
370
     9
  0
POLYLINE
  5
39C
330
1F
100
AcDbEntity
  8
Capa 1
 62
     7
420
 16777215
370
     9
100
AcDb2dPolyline
 66
     1
 10
0.0
 20
0.0
 30
0.0
  0
VERTEX
  5
39D
330
39C
100
AcDbEntity
  8
Capa 1
 62
     7
420
 16777215
370
     9
100
AcDbVertex
100
AcDb2dVertex
 10
-7.933365883433326
 20
-182.3406358051093
 30
0.0
  0
VERTEX
  5
39E
330
39C
100
AcDbEntity
  8
Capa 1
 62
     7
420
 16777215
370
     9
100
AcDbVertex
100
AcDb2dVertex
 10
-1.092784287921248
 20
-182.3406358051093
 30
0.0
  0
SEQEND
  5
39F
330
39C
100
AcDbEntity
  8
Capa 1
370
     9
  0
POLYLINE
  5
3A0
330
1F
100
AcDbEntity
  8
Capa 1
 62
     7
420
 16777215
370
     9
100
AcDb2dPolyline
 66
     1
 10
0.0
 20
0.0
 30
0.0
  0
VERTEX
  5
3A1
330
3A0
100
AcDbEntity
  8
Capa 1
 62
     7
420
 16777215
370
     9
100
AcDbVertex
100
AcDb2dVertex
 10
-4.575259059186046
 20
-177.0231309236262
 30
0.0
  0
VERTEX
  5
3A2
330
3A0
100
AcDbEntity
  8
Capa 1
 62
     7
420
 16777215
370
     9
100
AcDbVertex
100
AcDb2dVertex
 10
-4.575259059186046
 20
-180.8203151674686
 30
0.0
  0
SEQEND
  5
3A3
330
3A0
100
AcDbEntity
  8
Capa 1
370
     9
  0
POLYLINE
  5
3A4
330
1F
100
AcDbEntity
  8
Capa 1
 62
     7
420
 16777215
370
     9
100
AcDb2dPolyline
 66
     1
 10
0.0
 20
0.0
 30
0.0
  0
VERTEX
  5
3A5
330
3A4
100
AcDbEntity
  8
Capa 1
 62
     7
420
 16777215
370
     9
100
AcDbVertex
100
AcDb2dVertex
 10
-9.415618215962068
 20
-177.0231309236262
 30
0.0
  0
VERTEX
  5
3A6
330
3A4
100
AcDbEntity
  8
Capa 1
 62
     7
420
 16777215
370
     9
100
AcDbVertex
100
AcDb2dVertex
 10
-9.449380151717516
 20
-177.0231309236262
 30
0.0
  0
SEQEND
  5
3A7
330
3A4
100
AcDbEntity
  8
Capa 1
370
     9
  0
POLYLINE
  5
3A8
330
1F
100
AcDbEntity
  8
Capa 1
 62
     7
420
 16777215
370
     9
100
AcDb2dPolyline
 66
     1
 10
0.0
 20
0.0
 30
0.0
  0
VERTEX
  5
3A9
330
3A8
100
AcDbEntity
  8
Capa 1
 62
     7
420
 16777215
370
     9
100
AcDbVertex
100
AcDb2dVertex
 10
-1.092784287921248
 20
-182.3406358051093
 30
0.0
  0
VERTEX
  5
3AA
330
3A8
100
AcDbEntity
  8
Capa 1
 62
     7
420
 16777215
370
     9
100
AcDbVertex
100
AcDb2dVertex
 10
0.9692776147750417
 20
-182.3406358051093
 30
0.0
  0
SEQEND
  5
3AB
330
3A8
100
AcDbEntity
  8
Capa 1
370
     9
  0
POLYLINE
  5
3AC
330
1F
100
AcDbEntity
  8
Capa 1
 62
     7
420
 16777215
370
     9
100
AcDb2dPolyline
 66
     1
 10
0.0
 20
0.0
 30
0.0
  0
VERTEX
  5
3AD
330
3AC
100
AcDbEntity
  8
Capa 1
 62
     7
420
 16777215
370
     9
100
AcDbVertex
100
AcDb2dVertex
 10
-7.933365883433326
 20
-182.3406358051093
 30
0.0
  0
VERTEX
  5
3AE
330
3AC
100
AcDbEntity
  8
Capa 1
 62
     7
420
 16777215
370
     9
100
AcDbVertex
100
AcDb2dVertex
 10
-1.092784287921248
 20
-182.3406358051093
 30
0.0
  0
SEQEND
  5
3AF
330
3AC
100
AcDbEntity
  8
Capa 1
370
     9
  0
POLYLINE
  5
3B0
330
1F
100
AcDbEntity
  8
Capa 1
 62
     7
420
 16777215
370
     9
100
AcDb2dPolyline
 66
     1
 10
0.0
 20
0.0
 30
0.0
  0
VERTEX
  5
3B1
330
3B0
100
AcDbEntity
  8
Capa 1
 62
     7
420
 16777215
370
     9
100
AcDbVertex
100
AcDb2dVertex
 10
-5.932971189923007
 20
-180.8203151674686
 30
0.0
  0
VERTEX
  5
3B2
330
3B0
100
AcDbEntity
  8
Capa 1
 62
     7
420
 16777215
370
     9
100
AcDbVertex
100
AcDb2dVertex
 10
-5.932971189923007
 20
-177.0231309236262
 30
0.0
  0
SEQEND
  5
3B3
330
3B0
100
AcDbEntity
  8
Capa 1
370
     9
  0
POLYLINE
  5
3B4
330
1F
100
AcDbEntity
  8
Capa 1
 62
     7
420
 16777215
370
     9
100
AcDb2dPolyline
 66
     1
 10
0.0
 20
0.0
 30
0.0
  0
VERTEX
  5
3B5
330
3B4
100
AcDbEntity
  8
Capa 1
 62
     7
420
 16777215
370
     9
100
AcDbVertex
100
AcDb2dVertex
 10
-9.415618215962068
 20
-177.0231309236262
 30
0.0
  0
VERTEX
  5
3B6
330
3B4
100
AcDbEntity
  8
Capa 1
 62
     7
420
 16777215
370
     9
100
AcDbVertex
100
AcDb2dVertex
 10
-9.415618215962068
 20
-180.8203151674686
 30
0.0
  0
SEQEND
  5
3B7
330
3B4
100
AcDbEntity
  8
Capa 1
370
     9
  0
POLYLINE
  5
3B8
330
1F
100
AcDbEntity
  8
Capa 1
 62
     7
420
 16777215
370
     9
100
AcDb2dPolyline
 66
     1
 10
0.0
 20
0.0
 30
0.0
  0
VERTEX
  5
3B9
330
3B8
100
AcDbEntity
  8
Capa 1
 62
     7
420
 16777215
370
     9
100
AcDbVertex
100
AcDb2dVertex
 10
11.59222954354292
 20
-182.4660372807724
 30
0.0
  0
VERTEX
  5
3BA
330
3B8
100
AcDbEntity
  8
Capa 1
 62
     7
420
 16777215
370
     9
100
AcDbVertex
100
AcDb2dVertex
 10
62.43115910982624
 20
-182.4660372807724
 30
0.0
  0
SEQEND
  5
3BB
330
3B8
100
AcDbEntity
  8
Capa 1
370
     9
  0
POLYLINE
  5
3BC
330
1F
100
AcDbEntity
  8
Capa 1
 62
     7
420
 16777215
370
     9
100
AcDb2dPolyline
 66
     1
 10
0.0
 20
0.0
 30
0.0
  0
VERTEX
  5
3BD
330
3BC
100
AcDbEntity
  8
Capa 1
 62
     7
420
 16777215
370
     9
100
AcDbVertex
100
AcDb2dVertex
 10
-9.415618215962068
 20
-180.8203151674686
 30
0.0
  0
VERTEX
  5
3BE
330
3BC
100
AcDbEntity
  8
Capa 1
 62
     7
420
 16777215
370
     9
100
AcDbVertex
100
AcDb2dVertex
 10
-9.449380151717516
 20
-180.8203151674686
 30
0.0
  0
SEQEND
  5
3BF
330
3BC
100
AcDbEntity
  8
Capa 1
370
     9
  0
POLYLINE
  5
3C0
330
1F
100
AcDbEntity
  8
Capa 1
 62
     7
420
 16777215
370
     9
100
AcDb2dPolyline
 66
     1
 10
0.0
 20
0.0
 30
0.0
  0
VERTEX
  5
3C1
330
3C0
100
AcDbEntity
  8
Capa 1
 62
     7
420
 16777215
370
     9
100
AcDbVertex
100
AcDb2dVertex
 10
-4.575259059186046
 20
-180.8203151674686
 30
0.0
  0
VERTEX
  5
3C2
330
3C0
100
AcDbEntity
  8
Capa 1
 62
     7
420
 16777215
370
     9
100
AcDbVertex
100
AcDb2dVertex
 10
-5.932971189923007
 20
-180.8203151674686
 30
0.0
  0
SEQEND
  5
3C3
330
3C0
100
AcDbEntity
  8
Capa 1
370
     9
  0
POLYLINE
  5
3C4
330
1F
100
AcDbEntity
  8
Capa 1
 62
     7
420
 16777215
370
     9
100
AcDb2dPolyline
 66
     1
 10
0.0
 20
0.0
 30
0.0
  0
VERTEX
  5
3C5
330
3C4
100
AcDbEntity
  8
Capa 1
 62
     7
420
 16777215
370
     9
100
AcDbVertex
100
AcDb2dVertex
 10
49.15427787399616
 20
-201.138110301278
 30
0.0
  0
VERTEX
  5
3C6
330
3C4
100
AcDbEntity
  8
Capa 1
 62
     7
420
 16777215
370
     9
100
AcDbVertex
100
AcDb2dVertex
 10
24.85705294517463
 20
-201.1281195243708
 30
0.0
  0
SEQEND
  5
3C7
330
3C4
100
AcDbEntity
  8
Capa 1
370
     9
  0
POLYLINE
  5
3C8
330
1F
100
AcDbEntity
  8
Capa 1
 62
     7
420
 16777215
370
     9
100
AcDb2dPolyline
 66
     1
 10
0.0
 20
0.0
 30
0.0
  0
VERTEX
  5
3C9
330
3C8
100
AcDbEntity
  8
Capa 1
 62
     7
420
 16777215
370
     9
100
AcDbVertex
100
AcDb2dVertex
 10
-18.31223279707125
 20
-166.3881211606599
 30
0.0
  0
VERTEX
  5
3CA
330
3C8
100
AcDbEntity
  8
Capa 1
 62
     7
420
 16777215
370
     9
100
AcDbVertex
100
AcDb2dVertex
 10
16.12580294735744
 20
-166.3881211606599
 30
0.0
  0
SEQEND
  5
3CB
330
3C8
100
AcDbEntity
  8
Capa 1
370
     9
  0
POLYLINE
  5
3CC
330
1F
100
AcDbEntity
  8
Capa 1
 62
     7
420
 16777215
370
     9
100
AcDb2dPolyline
 66
     1
 10
0.0
 20
0.0
 30
0.0
  0
VERTEX
  5
3CD
330
3CC
100
AcDbEntity
  8
Capa 1
 62
     7
420
 16777215
370
     9
100
AcDbVertex
100
AcDb2dVertex
 10
-8.915562606278055
 20
-175.5031547955339
 30
0.0
  0
VERTEX
  5
3CE
330
3CC
100
AcDbEntity
  8
Capa 1
 62
     7
420
 16777215
370
     9
100
AcDbVertex
100
AcDb2dVertex
 10
6.729132756564245
 20
-175.5031547955339
 30
0.0
  0
SEQEND
  5
3CF
330
3CC
100
AcDbEntity
  8
Capa 1
370
     9
  0
POLYLINE
  5
3D0
330
1F
100
AcDbEntity
  8
Capa 1
 62
     7
420
 16777215
370
     9
100
AcDb2dPolyline
 66
     1
 10
0.0
 20
0.0
 30
0.0
  0
VERTEX
  5
3D1
330
3D0
100
AcDbEntity
  8
Capa 1
 62
     7
420
 16777215
370
     9
100
AcDbVertex
100
AcDb2dVertex
 10
-9.415618215962068
 20
-177.0231309236262
 30
0.0
  0
VERTEX
  5
3D2
330
3D0
100
AcDbEntity
  8
Capa 1
 62
     7
420
 16777215
370
     9
100
AcDbVertex
100
AcDb2dVertex
 10
-9.415618215962068
 20
-180.8203151674686
 30
0.0
  0
SEQEND
  5
3D3
330
3D0
100
AcDbEntity
  8
Capa 1
370
     9
  0
POLYLINE
  5
3D4
330
1F
100
AcDbEntity
  8
Capa 1
 62
     7
420
 16777215
370
     9
100
AcDb2dPolyline
 66
     1
 10
0.0
 20
0.0
 30
0.0
  0
VERTEX
  5
3D5
330
3D4
100
AcDbEntity
  8
Capa 1
 62
     7
420
 16777215
370
     9
100
AcDbVertex
100
AcDb2dVertex
 10
-5.932971189923007
 20
-180.8203151674686
 30
0.0
  0
VERTEX
  5
3D6
330
3D4
100
AcDbEntity
  8
Capa 1
 62
     7
420
 16777215
370
     9
100
AcDbVertex
100
AcDb2dVertex
 10
-5.932971189923007
 20
-177.0231309236262
 30
0.0
  0
SEQEND
  5
3D7
330
3D4
100
AcDbEntity
  8
Capa 1
370
     9
  0
POLYLINE
  5
3D8
330
1F
100
AcDbEntity
  8
Capa 1
 62
     7
420
 16777215
370
     9
100
AcDb2dPolyline
 66
     1
 10
0.0
 20
0.0
 30
0.0
  0
VERTEX
  5
3D9
330
3D8
100
AcDbEntity
  8
Capa 1
 62
     7
420
 16777215
370
     9
100
AcDbVertex
100
AcDb2dVertex
 10
-9.415618215962068
 20
-177.0231309236262
 30
0.0
  0
VERTEX
  5
3DA
330
3D8
100
AcDbEntity
  8
Capa 1
 62
     7
420
 16777215
370
     9
100
AcDbVertex
100
AcDb2dVertex
 10
-9.449380151717516
 20
-177.0231309236262
 30
0.0
  0
SEQEND
  5
3DB
330
3D8
100
AcDbEntity
  8
Capa 1
370
     9
  0
POLYLINE
  5
3DC
330
1F
100
AcDbEntity
  8
Capa 1
 62
     7
420
 16777215
370
     9
100
AcDb2dPolyline
 66
     1
 10
0.0
 20
0.0
 30
0.0
  0
VERTEX
  5
3DD
330
3DC
100
AcDbEntity
  8
Capa 1
 62
     7
420
 16777215
370
     9
100
AcDbVertex
100
AcDb2dVertex
 10
-5.932971189923007
 20
-177.0231309236262
 30
0.0
  0
VERTEX
  5
3DE
330
3DC
100
AcDbEntity
  8
Capa 1
 62
     7
420
 16777215
370
     9
100
AcDbVertex
100
AcDb2dVertex
 10
-4.575259059186046
 20
-177.0231309236262
 30
0.0
  0
SEQEND
  5
3DF
330
3DC
100
AcDbEntity
  8
Capa 1
370
     9
  0
POLYLINE
  5
3E0
330
1F
100
AcDbEntity
  8
Capa 1
 62
     7
420
 16777215
370
     9
100
AcDb2dPolyline
 66
     1
 10
0.0
 20
0.0
 30
0.0
  0
VERTEX
  5
3E1
330
3E0
100
AcDbEntity
  8
Capa 1
 62
     7
420
 16777215
370
     9
100
AcDbVertex
100
AcDb2dVertex
 10
-4.575259059186046
 20
-180.8203151674686
 30
0.0
  0
VERTEX
  5
3E2
330
3E0
100
AcDbEntity
  8
Capa 1
 62
     7
420
 16777215
370
     9
100
AcDbVertex
100
AcDb2dVertex
 10
-5.932971189923007
 20
-180.8203151674686
 30
0.0
  0
SEQEND
  5
3E3
330
3E0
100
AcDbEntity
  8
Capa 1
370
     9
  0
POLYLINE
  5
3E4
330
1F
100
AcDbEntity
  8
Capa 1
 62
     7
420
 16777215
370
     9
100
AcDb2dPolyline
 66
     1
 10
0.0
 20
0.0
 30
0.0
  0
VERTEX
  5
3E5
330
3E4
100
AcDbEntity
  8
Capa 1
 62
     7
420
 16777215
370
     9
100
AcDbVertex
100
AcDb2dVertex
 10
-9.415618215962068
 20
-180.8203151674686
 30
0.0
  0
VERTEX
  5
3E6
330
3E4
100
AcDbEntity
  8
Capa 1
 62
     7
420
 16777215
370
     9
100
AcDbVertex
100
AcDb2dVertex
 10
-9.449380151717516
 20
-180.8203151674686
 30
0.0
  0
SEQEND
  5
3E7
330
3E4
100
AcDbEntity
  8
Capa 1
370
     9
  0
SPLINE
  5
3E8
330
1F
100
AcDbEntity
  8
Capa 1
 62
     7
420
 16777215
370
     9
100
AcDbSpline
210
0.0
220
0.0
230
1.0
 70
     8
 71
     3
 72
     8
 73
     4
 74
     0
 42
0.0000000001
 43
0.0000000001
 40
0.0
 40
0.0
 40
0.0
 40
0.0
 40
1.0
 40
1.0
 40
1.0
 40
1.0
 10
185.4184841116315
 20
-181.6299126065022
 30
0.0
 10
185.4184841116315
 20
-181.7153509745364
 30
0.0
 10
185.4860079831424
 20
-181.7832193555959
 30
0.0
 10
185.5717908607251
 20
-181.7832193555959
 30
0.0
  0
SPLINE
  5
3E9
330
1F
100
AcDbEntity
  8
Capa 1
 62
     7
420
 16777215
370
     9
100
AcDbSpline
210
0.0
220
0.0
230
1.0
 70
     8
 71
     3
 72
     8
 73
     4
 74
     0
 42
0.0000000001
 43
0.0000000001
 40
0.0
 40
0.0
 40
0.0
 40
0.0
 40
1.0
 40
1.0
 40
1.0
 40
1.0
 10
185.5717908607251
 20
-157.4729030639304
 30
0.0
 10
185.4860079831424
 20
-157.4729030639304
 30
0.0
 10
185.4184841116315
 20
-157.542838502281
 30
0.0
 10
185.4184841116315
 20
-157.6265543225725
 30
0.0
  0
SPLINE
  5
3EA
330
1F
100
AcDbEntity
  8
Capa 1
 62
     7
420
 16777215
370
     9
100
AcDbSpline
210
0.0
220
0.0
230
1.0
 70
     8
 71
     3
 72
     8
 73
     4
 74
     0
 42
0.0000000001
 43
0.0000000001
 40
0.0
 40
0.0
 40
0.0
 40
0.0
 40
1.0
 40
1.0
 40
1.0
 40
1.0
 10
197.581393722306
 20
-160.1545653896489
 30
0.0
 10
195.0471814833563
 20
-158.4113470741125
 30
0.0
 10
192.0409911629273
 20
-157.4729030639304
 30
0.0
 10
188.9627983468565
 20
-157.4729030639304
 30
0.0
  0
SPLINE
  5
3EB
330
1F
100
AcDbEntity
  8
Capa 1
 62
     7
420
 16777215
370
     9
100
AcDbSpline
210
0.0
220
0.0
230
1.0
 70
     8
 71
     3
 72
     8
 73
     4
 74
     0
 42
0.0000000001
 43
0.0000000001
 40
0.0
 40
0.0
 40
0.0
 40
0.0
 40
1.0
 40
1.0
 40
1.0
 40
1.0
 10
188.9627983468565
 20
-181.7832193555959
 30
0.0
 10
190.6643310070214
 20
-181.7832193555959
 30
0.0
 10
192.3538058329879
 20
-181.4941758443834
 30
0.0
 10
193.961631895954
 20
-180.9364148853215
 30
0.0
  0
SPLINE
  5
3EC
330
1F
100
AcDbEntity
  8
Capa 1
 62
     7
420
 16777215
370
     9
100
AcDbSpline
210
0.0
220
0.0
230
1.0
 70
     8
 71
     3
 72
     8
 73
     4
 74
     0
 42
0.0000000001
 43
0.0000000001
 40
0.0
 40
0.0
 40
0.0
 40
0.0
 40
1.0
 40
1.0
 40
1.0
 40
1.0
 10
159.7935193827947
 20
-157.0705159112532
 30
0.0
 10
159.7935193827947
 20
-155.4806043448104
 30
0.0
 10
159.046278172044
 20
-153.9806097705326
 30
0.0
 10
157.777104995278
 20
-153.0263183211184
 30
0.0
  0
SPLINE
  5
3ED
330
1F
100
AcDbEntity
  8
Capa 1
 62
     7
420
 16777215
370
     9
100
AcDbSpline
210
0.0
220
0.0
230
1.0
 70
     8
 71
     3
 72
     8
 73
     4
 74
     0
 42
0.0000000001
 43
0.0000000001
 40
0.0
 40
0.0
 40
0.0
 40
0.0
 40
1.0
 40
1.0
 40
1.0
 40
1.0
 10
157.777104995278
 20
-176.7626817049413
 30
0.0
 10
159.046278172044
 20
-175.8083902555271
 30
0.0
 10
159.7935193827947
 20
-174.3080511717008
 30
0.0
 10
159.7935193827947
 20
-172.7160725479668
 30
0.0
  0
SPLINE
  5
3EE
330
1F
100
AcDbEntity
  8
Capa 1
 62
     7
420
 16777215
370
     9
100
AcDbSpline
210
0.0
220
0.0
230
1.0
 70
     8
 71
     3
 72
     8
 73
     4
 74
     0
 42
0.0000000001
 43
0.0000000001
 40
0.0
 40
0.0
 40
0.0
 40
0.0
 40
1.0
 40
1.0
 40
1.0
 40
1.0
 10
63.24885252325029
 20
-173.4867404080172
 30
0.0
 10
64.20917288976368
 20
-174.7559135847833
 30
0.0
 10
65.7034830564908
 20
-175.5031547955339
 30
0.0
 10
67.29322236815933
 20
-175.5031547955339
 30
0.0
  0
SPLINE
  5
3EF
330
1F
100
AcDbEntity
  8
Capa 1
 62
     7
420
 16777215
370
     9
100
AcDbSpline
210
0.0
220
0.0
230
1.0
 70
     8
 71
     3
 72
     8
 73
     4
 74
     0
 42
0.0000000001
 43
0.0000000001
 40
0.0
 40
0.0
 40
0.0
 40
0.0
 40
1.0
 40
1.0
 40
1.0
 40
1.0
 10
48.14917126617451
 20
-210.1353216705565
 30
0.0
 10
48.81958684760414
 20
-208.3941704123112
 30
0.0
 10
49.16633570819453
 20
-206.5410535507953
 30
0.0
 10
49.16633570819453
 20
-204.6724337595958
 30
0.0
  0
SPLINE
  5
3F0
330
1F
100
AcDbEntity
  8
Capa 1
 62
     7
420
 16777215
370
     9
100
AcDbSpline
210
0.0
220
0.0
230
1.0
 70
     8
 71
     3
 72
     8
 73
     4
 74
     0
 42
0.0000000001
 43
0.0000000001
 40
0.0
 40
0.0
 40
0.0
 40
0.0
 40
1.0
 40
1.0
 40
1.0
 40
1.0
 10
24.85705294517463
 20
-204.6724337595958
 30
0.0
 10
24.85705294517463
 20
-206.5351968884704
 30
0.0
 10
25.19777288866583
 20
-208.3821125781128
 30
0.0
 10
25.86818847009545
 20
-210.1194742313243
 30
0.0
  0
SPLINE
  5
3F1
330
1F
100
AcDbEntity
  8
Capa 1
 62
     7
420
 16777215
370
     9
100
AcDbSpline
210
0.0
220
0.0
230
1.0
 70
     8
 71
     3
 72
     8
 73
     4
 74
     0
 42
0.0000000001
 43
0.0000000001
 40
0.0
 40
0.0
 40
0.0
 40
0.0
 40
1.0
 40
1.0
 40
1.0
 40
1.0
 10
82.93946802397
 20
-175.5031547955339
 30
0.0
 10
84.5293795904128
 20
-175.5031547955339
 30
0.0
 10
86.02937416469058
 20
-174.7559135847833
 30
0.0
 10
86.98366561410478
 20
-173.4867404080172
 30
0.0
  0
SPLINE
  5
3F2
330
1F
100
AcDbEntity
  8
Capa 1
 62
     7
420
 16777215
370
     9
100
AcDbSpline
210
0.0
220
0.0
230
1.0
 70
     8
 71
     3
 72
     8
 73
     4
 74
     0
 42
0.0000000001
 43
0.0000000001
 40
0.0
 40
0.0
 40
0.0
 40
0.0
 40
1.0
 40
1.0
 40
1.0
 40
1.0
 10
25.01053194904251
 20
-201.1281195243708
 30
0.0
 10
24.92578260010536
 20
-201.1281195243708
 30
0.0
 10
24.85705294517463
 20
-201.1956433958817
 30
0.0
 10
24.85705294517463
 20
-201.2814262734644
 30
0.0
  0
SPLINE
  5
3F3
330
1F
100
AcDbEntity
  8
Capa 1
 62
     7
420
 16777215
370
     9
100
AcDbSpline
210
0.0
220
0.0
230
1.0
 70
     8
 71
     3
 72
     8
 73
     4
 74
     0
 42
0.0000000001
 43
0.0000000001
 40
0.0
 40
0.0
 40
0.0
 40
0.0
 40
1.0
 40
1.0
 40
1.0
 40
1.0
 10
49.16633570819453
 20
-201.2814262734644
 30
0.0
 10
49.16633570819453
 20
-201.2156249496961
 30
0.0
 10
49.12637260056563
 20
-201.1618814601262
 30
0.0
 10
49.06970077983327
 20
-201.138110301278
 30
0.0
  0
SPLINE
  5
3F4
330
1F
100
AcDbEntity
  8
Capa 1
 62
     7
420
 16777215
370
     9
100
AcDbSpline
210
0.0
220
0.0
230
1.0
 70
     8
 71
     3
 72
     8
 73
     4
 74
     0
 42
0.0000000001
 43
0.0000000001
 40
0.0
 40
0.0
 40
0.0
 40
0.0
 40
1.0
 40
1.0
 40
1.0
 40
1.0
 10
6.729132756564245
 20
-175.5031547955339
 30
0.0
 10
8.319905596878357
 20
-175.5031547955339
 30
0.0
 10
9.814215763605475
 20
-174.7559135847833
 30
0.0
 10
10.77453613011887
 20
-173.4867404080172
 30
0.0
  0
SPLINE
  5
3F5
330
1F
100
AcDbEntity
  8
Capa 1
 62
     7
420
 16777215
370
     9
100
AcDbSpline
210
0.0
220
0.0
230
1.0
 70
     8
 71
     3
 72
     8
 73
     4
 74
     0
 42
0.0000000001
 43
0.0000000001
 40
0.0
 40
0.0
 40
0.0
 40
0.0
 40
1.0
 40
1.0
 40
1.0
 40
1.0
 10
-12.96096597983268
 20
-173.4867404080172
 30
0.0
 10
-12.0056410017729
 20
-174.7559135847833
 30
0.0
 10
-10.50633544659217
 20
-175.5031547955339
 30
0.0
 10
-8.915562606278055
 20
-175.5031547955339
 30
0.0
  0
SPLINE
  5
3F6
330
1F
100
AcDbEntity
  8
Capa 1
 62
     7
420
 16777215
370
     9
100
AcDbSpline
210
0.0
220
0.0
230
1.0
 70
     8
 71
     3
 72
    41
 73
    37
 74
     0
 42
0.0000000001
 43
0.0000000001
 40
0.0
 40
0.0
 40
0.0
 40
0.0
 40
1.0
 40
1.0
 40
1.0
 40
2.0
 40
2.0
 40
2.0
 40
3.0
 40
3.0
 40
3.0
 40
4.0
 40
4.0
 40
4.0
 40
5.0
 40
5.0
 40
5.0
 40
6.0
 40
6.0
 40
6.0
 40
7.0
 40
7.0
 40
7.0
 40
8.0
 40
8.0
 40
8.0
 40
9.0
 40
9.0
 40
9.0
 40
10.0
 40
10.0
 40
10.0
 40
11.0
 40
11.0
 40
11.0
 40
12.0
 40
12.0
 40
12.0
 40
12.0
 10
180.6707980234087
 20
-182.1635578971675
 30
0.0
 10
180.6049966996404
 20
-182.1635578971675
 30
0.0
 10
180.5412624331633
 20
-182.1635578971675
 30
0.0
 10
180.475461109395
 20
-182.1756157313658
 30
0.0
 10
180.4017360660107
 20
-182.1814723936907
 30
0.0
 10
180.3221543603014
 20
-182.1976643424714
 30
0.0
 10
180.2484293169171
 20
-182.2155788389947
 30
0.0
 10
180.1688476112078
 20
-182.2372829405518
 30
0.0
 10
180.0909884532412
 20
-182.2613986089486
 30
0.0
 10
180.0172634098568
 20
-182.2893038823791
 30
0.0
 10
179.9414713091813
 20
-182.3230658181345
 30
0.0
 10
179.8639566607632
 20
-182.35682775389
 30
0.0
 10
179.7940212224126
 20
-182.4026475238438
 30
0.0
 10
179.7202961790283
 20
-182.4426106314727
 30
0.0
 10
179.6507052502262
 20
-182.4942870637514
 30
0.0
 10
179.5828368691668
 20
-182.5442409482876
 30
0.0
 10
179.5153129976559
 20
-182.5959173805663
 30
0.0
 10
179.4536457884699
 20
-182.6537949847185
 30
0.0
 10
179.3957681843177
 20
-182.7154621939045
 30
0.0
 10
179.3358235228744
 20
-182.777473912639
 30
0.0
 10
179.2820800333045
 20
-182.847064841441
 30
0.0
 10
179.2304036010257
 20
-182.9149332225005
 30
0.0
 10
179.1804497164896
 20
-182.9886582658848
 30
0.0
 10
179.1325628892446
 20
-183.0682399715941
 30
0.0
 10
179.0929442911643
 20
-183.1540228491768
 30
0.0
 10
179.0529811835354
 20
-183.2315374975949
 30
0.0
 10
179.0212863050711
 20
-183.3173203751776
 30
0.0
 10
178.9933810316406
 20
-183.3969020808869
 30
0.0
 10
178.9671983059526
 20
-183.4826849584696
 30
0.0
 10
178.9475612616867
 20
-183.5622666641789
 30
0.0
 10
178.9355034274884
 20
-183.6480495417616
 30
0.0
 10
178.9196559882562
 20
-183.7255641901797
 30
0.0
 10
178.909665211349
 20
-183.8054904054375
 30
0.0
 10
178.9134548163828
 20
-183.8850721111468
 30
0.0
 10
178.9134548163828
 20
-183.9029866076701
 30
0.0
 10
178.9134548163828
 20
-183.9188340469022
 30
0.0
 10
178.9134548163828
 20
-183.9367485434256
 30
0.0
  0
SPLINE
  5
3F7
330
1F
100
AcDbEntity
  8
Capa 1
 62
     7
420
 16777215
370
     9
100
AcDbSpline
210
0.0
220
0.0
230
1.0
 70
    24
 71
     3
 72
     8
 73
     4
 74
     0
 42
0.0000000001
 43
0.0000000001
 40
0.0
 40
0.0
 40
0.0
 40
0.0
 40
1.0
 40
1.0
 40
1.0
 40
1.0
 10
161.3134955108869
 20
-172.4890407554889
 30
0.0
 10
160.8590874163825
 20
-172.4890407554889
 30
0.0
 10
160.5545409754864
 20
-172.4890407554889
 30
0.0
 10
160.5524739181952
 20
-172.4890407554889
 30
0.0
  0
SPLINE
  5
3F8
330
1F
100
AcDbEntity
  8
Capa 1
 62
     7
420
 16777215
370
     9
100
AcDbSpline
210
0.0
220
0.0
230
1.0
 70
     8
 71
     3
 72
    11
 73
     7
 74
     0
 42
0.0000000001
 43
0.0000000001
 40
0.0
 40
0.0
 40
0.0
 40
0.0
 40
1.0
 40
1.0
 40
1.0
 40
2.0
 40
2.0
 40
2.0
 40
2.0
 10
161.3134955108869
 20
-158.0806179075285
 30
0.0
 10
160.8511636967664
 20
-159.0411105288161
 30
0.0
 10
160.5524739181952
 20
-160.052935072834
 30
0.0
 10
160.5524739181952
 20
-161.0930093998309
 30
0.0
 10
160.5524739181952
 20
-162.1368733318616
 30
0.0
 10
160.8511636967664
 20
-163.1431857231031
 30
0.0
 10
161.3134955108869
 20
-164.1095350067157
 30
0.0
  0
SPLINE
  5
3F9
330
1F
100
AcDbEntity
  8
Capa 1
 62
     7
420
 16777215
370
     9
100
AcDbSpline
210
0.0
220
0.0
230
1.0
 70
     8
 71
     3
 72
    11
 73
     7
 74
     0
 42
0.0000000001
 43
0.0000000001
 40
0.0
 40
0.0
 40
0.0
 40
0.0
 40
1.0
 40
1.0
 40
1.0
 40
2.0
 40
2.0
 40
2.0
 40
2.0
 10
165.1106797547293
 20
-164.1095350067157
 30
0.0
 10
165.575078626141
 20
-163.149042385428
 30
0.0
 10
165.8699787996783
 20
-162.1368733318616
 30
0.0
 10
165.8699787996783
 20
-161.0988660621558
 30
0.0
 10
165.8699787996783
 20
-160.052935072834
 30
0.0
 10
165.575078626141
 20
-159.0411105288161
 30
0.0
 10
165.1106797547293
 20
-158.0806179075285
 30
0.0
  0
SPLINE
  5
3FA
330
1F
100
AcDbEntity
  8
Capa 1
 62
     7
420
 16777215
370
     9
100
AcDbSpline
210
0.0
220
0.0
230
1.0
 70
     8
 71
     3
 72
    11
 73
     7
 74
     0
 42
0.0000000001
 43
0.0000000001
 40
0.0
 40
0.0
 40
0.0
 40
0.0
 40
1.0
 40
1.0
 40
1.0
 40
2.0
 40
2.0
 40
2.0
 40
2.0
 10
161.3134955108869
 20
-165.6773979620529
 30
0.0
 10
160.8511636967664
 20
-166.637546073792
 30
0.0
 10
160.5524739181952
 20
-167.6476480700672
 30
0.0
 10
160.5524739181952
 20
-168.6877223970642
 30
0.0
 10
160.5524739181952
 20
-169.733653386386
 30
0.0
 10
160.8511636967664
 20
-170.7378987203364
 30
0.0
 10
161.3134955108869
 20
-171.7039034944004
 30
0.0
  0
SPLINE
  5
3FB
330
1F
100
AcDbEntity
  8
Capa 1
 62
     7
420
 16777215
370
     9
100
AcDbSpline
210
0.0
220
0.0
230
1.0
 70
     8
 71
     3
 72
    11
 73
     7
 74
     0
 42
0.0000000001
 43
0.0000000001
 40
0.0
 40
0.0
 40
0.0
 40
0.0
 40
1.0
 40
1.0
 40
1.0
 40
2.0
 40
2.0
 40
2.0
 40
2.0
 10
165.1106797547293
 20
-171.7039034944004
 30
0.0
 10
165.575078626141
 20
-170.7437553826613
 30
0.0
 10
165.8699787996783
 20
-169.733653386386
 30
0.0
 10
165.8699787996783
 20
-168.6935790593891
 30
0.0
 10
165.8699787996783
 20
-167.6476480700672
 30
0.0
 10
165.575078626141
 20
-166.637546073792
 30
0.0
 10
165.1106797547293
 20
-165.6773979620529
 30
0.0
  0
SPLINE
  5
3FC
330
1F
100
AcDbEntity
  8
Capa 1
 62
     7
420
 16777215
370
     9
100
AcDbSpline
210
0.0
220
0.0
230
1.0
 70
    24
 71
     3
 72
     8
 73
     4
 74
     0
 42
0.0000000001
 43
0.0000000001
 40
0.0
 40
0.0
 40
0.0
 40
0.0
 40
1.0
 40
1.0
 40
1.0
 40
1.0
 10
160.5524739181952
 20
-157.2975477037312
 30
0.0
 10
160.5545409754864
 20
-157.2975477037312
 30
0.0
 10
160.8590874163825
 20
-157.2975477037312
 30
0.0
 10
161.3134955108869
 20
-157.2975477037312
 30
0.0
  0
SPLINE
  5
3FD
330
1F
100
AcDbEntity
  8
Capa 1
 62
     7
420
 16777215
370
     9
100
AcDbSpline
210
0.0
220
0.0
230
1.0
 70
    24
 71
     3
 72
     8
 73
     4
 74
     0
 42
0.0000000001
 43
0.0000000001
 40
0.0
 40
0.0
 40
0.0
 40
0.0
 40
1.0
 40
1.0
 40
1.0
 40
1.0
 10
161.3134955108869
 20
-172.4890407554889
 30
0.0
 10
160.8590874163825
 20
-172.4890407554889
 30
0.0
 10
160.5545409754864
 20
-172.4890407554889
 30
0.0
 10
160.5524739181952
 20
-172.4890407554889
 30
0.0
  0
SPLINE
  5
3FE
330
1F
100
AcDbEntity
  8
Capa 1
 62
     7
420
 16777215
370
     9
100
AcDbSpline
210
0.0
220
0.0
230
1.0
 70
    24
 71
     3
 72
     8
 73
     4
 74
     0
 42
0.0000000001
 43
0.0000000001
 40
0.0
 40
0.0
 40
0.0
 40
0.0
 40
1.0
 40
1.0
 40
1.0
 40
1.0
 10
165.8699787996783
 20
-172.4890407554889
 30
0.0
 10
165.8699787996783
 20
-172.4890407554889
 30
0.0
 10
165.5630207919426
 20
-172.4890407554889
 30
0.0
 10
165.1106797547293
 20
-172.4890407554889
 30
0.0
  0
SPLINE
  5
3FF
330
1F
100
AcDbEntity
  8
Capa 1
 62
     7
420
 16777215
370
     9
100
AcDbSpline
210
0.0
220
0.0
230
1.0
 70
    24
 71
     3
 72
     8
 73
     4
 74
     0
 42
0.0000000001
 43
0.0000000001
 40
0.0
 40
0.0
 40
0.0
 40
0.0
 40
1.0
 40
1.0
 40
1.0
 40
1.0
 10
165.1106797547293
 20
-157.2975477037312
 30
0.0
 10
165.5630207919426
 20
-157.2975477037312
 30
0.0
 10
165.8699787996783
 20
-157.2975477037312
 30
0.0
 10
165.8699787996783
 20
-157.2975477037312
 30
0.0
  0
SPLINE
  5
400
330
1F
100
AcDbEntity
  8
Capa 1
 62
     7
420
 16777215
370
     9
100
AcDbSpline
210
0.0
220
0.0
230
1.0
 70
     8
 71
     3
 72
    23
 73
    19
 74
     0
 42
0.0000000001
 43
0.0000000001
 40
0.0
 40
0.0
 40
0.0
 40
0.0
 40
1.0
 40
1.0
 40
1.0
 40
2.0
 40
2.0
 40
2.0
 40
3.0
 40
3.0
 40
3.0
 40
4.0
 40
4.0
 40
4.0
 40
5.0
 40
5.0
 40
5.0
 40
6.0
 40
6.0
 40
6.0
 40
6.0
 10
174.1819606769406
 20
-171.1144476568742
 30
0.0
 10
173.4347194661899
 20
-170.829538260244
 30
0.0
 10
172.5383056209279
 20
-170.0685166675523
 30
0.0
 10
171.7552354171306
 20
-168.9268120237405
 30
0.0
 10
171.3628390413607
 20
-168.3590602877713
 30
0.0
 10
171.0000704867639
 20
-167.6934678400211
 30
0.0
 10
170.7551241977626
 20
-166.9265895850045
 30
0.0
 10
170.506043794179
 20
-166.1593668204393
 30
0.0
 10
170.3964897577481
 20
-165.30670568784
 30
0.0
 10
170.4722818584236
 20
-164.4778157140889
 30
0.0
 10
170.5477294495506
 20
-163.6492702498863
 30
0.0
 10
170.8068006300414
 20
-162.8424288872408
 30
0.0
 10
171.1416639112076
 20
-162.1547878283849
 30
0.0
 10
171.4741156255343
 20
-161.4616346167527
 30
0.0
 10
171.8827039500849
 20
-160.8597764354795
 30
0.0
 10
172.3009385419942
 20
-160.3536919086963
 30
0.0
 10
173.1418863499437
 20
-159.3477240270034
 30
0.0
 10
174.0224527559736
 20
-158.7003905853249
 30
0.0
 10
174.7156059676058
 20
-158.5808457719867
 30
0.0
  0
SPLINE
  5
401
330
1F
100
AcDbEntity
  8
Capa 1
 62
     7
420
 16777215
370
     9
100
AcDbSpline
210
0.0
220
0.0
230
1.0
 70
    24
 71
     3
 72
     8
 73
     4
 74
     0
 42
0.0000000001
 43
0.0000000001
 40
0.0
 40
0.0
 40
0.0
 40
0.0
 40
1.0
 40
1.0
 40
1.0
 40
1.0
 10
160.5524739181952
 20
-157.2975477037312
 30
0.0
 10
160.5545409754864
 20
-157.2975477037312
 30
0.0
 10
160.8590874163825
 20
-157.2975477037312
 30
0.0
 10
161.3134955108869
 20
-157.2975477037312
 30
0.0
  0
SPLINE
  5
402
330
1F
100
AcDbEntity
  8
Capa 1
 62
     7
420
 16777215
370
     9
100
AcDbSpline
210
0.0
220
0.0
230
1.0
 70
     8
 71
     3
 72
     8
 73
     4
 74
     0
 42
0.0000000001
 43
0.0000000001
 40
0.0
 40
0.0
 40
0.0
 40
0.0
 40
1.0
 40
1.0
 40
1.0
 40
1.0
 10
166.7564018680331
 20
-173.2958821181344
 30
0.0
 10
166.7564018680331
 20
-173.1026122614118
 30
0.0
 10
166.63100039237
 20
-172.891427908166
 30
0.0
 10
166.3777858742042
 20
-172.6643961156881
 30
0.0
  0
SPLINE
  5
403
330
1F
100
AcDbEntity
  8
Capa 1
 62
     7
420
 16777215
370
     9
100
AcDbSpline
210
0.0
220
0.0
230
1.0
 70
     8
 71
     3
 72
    11
 73
     7
 74
     0
 42
0.0000000001
 43
0.0000000001
 40
0.0
 40
0.0
 40
0.0
 40
0.0
 40
1.0
 40
1.0
 40
1.0
 40
2.0
 40
2.0
 40
2.0
 40
2.0
 10
161.3134955108869
 20
-158.0806179075285
 30
0.0
 10
160.8511636967664
 20
-159.0411105288161
 30
0.0
 10
160.5524739181952
 20
-160.052935072834
 30
0.0
 10
160.5524739181952
 20
-161.0930093998309
 30
0.0
 10
160.5524739181952
 20
-162.1368733318616
 30
0.0
 10
160.8511636967664
 20
-163.1431857231031
 30
0.0
 10
161.3134955108869
 20
-164.1095350067157
 30
0.0
  0
SPLINE
  5
404
330
1F
100
AcDbEntity
  8
Capa 1
 62
     7
420
 16777215
370
     9
100
AcDbSpline
210
0.0
220
0.0
230
1.0
 70
     8
 71
     3
 72
     8
 73
     4
 74
     0
 42
0.0000000001
 43
0.0000000001
 40
0.0
 40
0.0
 40
0.0
 40
0.0
 40
1.0
 40
1.0
 40
1.0
 40
1.0
 10
166.5152451840656
 20
-157.9331678207598
 30
0.0
 10
166.6768201623238
 20
-157.8656439492489
 30
0.0
 10
166.7564018680331
 20
-157.7919189058645
 30
0.0
 10
166.7564018680331
 20
-157.72990718713
 30
0.0
  0
SPLINE
  5
405
330
1F
100
AcDbEntity
  8
Capa 1
 62
     7
420
 16777215
370
     9
100
AcDbSpline
210
0.0
220
0.0
230
1.0
 70
     8
 71
     3
 72
    11
 73
     7
 74
     0
 42
0.0000000001
 43
0.0000000001
 40
0.0
 40
0.0
 40
0.0
 40
0.0
 40
1.0
 40
1.0
 40
1.0
 40
2.0
 40
2.0
 40
2.0
 40
2.0
 10
161.3134955108869
 20
-165.6773979620529
 30
0.0
 10
160.8511636967664
 20
-166.637546073792
 30
0.0
 10
160.5524739181952
 20
-167.6476480700672
 30
0.0
 10
160.5524739181952
 20
-168.6877223970642
 30
0.0
 10
160.5524739181952
 20
-169.733653386386
 30
0.0
 10
160.8511636967664
 20
-170.7378987203364
 30
0.0
 10
161.3134955108869
 20
-171.7039034944004
 30
0.0
  0
SPLINE
  5
406
330
1F
100
AcDbEntity
  8
Capa 1
 62
     7
420
 16777215
370
     9
100
AcDbSpline
210
0.0
220
0.0
230
1.0
 70
    24
 71
     3
 72
     8
 73
     4
 74
     0
 42
0.0000000001
 43
0.0000000001
 40
0.0
 40
0.0
 40
0.0
 40
0.0
 40
1.0
 40
1.0
 40
1.0
 40
1.0
 10
165.1106797547293
 20
-157.2975477037312
 30
0.0
 10
165.5630207919426
 20
-157.2975477037312
 30
0.0
 10
165.8699787996783
 20
-157.2975477037312
 30
0.0
 10
165.8699787996783
 20
-157.2975477037312
 30
0.0
  0
SPLINE
  5
407
330
1F
100
AcDbEntity
  8
Capa 1
 62
     7
420
 16777215
370
     9
100
AcDbSpline
210
0.0
220
0.0
230
1.0
 70
     8
 71
     3
 72
    11
 73
     7
 74
     0
 42
0.0000000001
 43
0.0000000001
 40
0.0
 40
0.0
 40
0.0
 40
0.0
 40
1.0
 40
1.0
 40
1.0
 40
2.0
 40
2.0
 40
2.0
 40
2.0
 10
165.1106797547293
 20
-164.1095350067157
 30
0.0
 10
165.575078626141
 20
-163.149042385428
 30
0.0
 10
165.8699787996783
 20
-162.1368733318616
 30
0.0
 10
165.8699787996783
 20
-161.0988660621558
 30
0.0
 10
165.8699787996783
 20
-160.052935072834
 30
0.0
 10
165.575078626141
 20
-159.0411105288161
 30
0.0
 10
165.1106797547293
 20
-158.0806179075285
 30
0.0
  0
SPLINE
  5
408
330
1F
100
AcDbEntity
  8
Capa 1
 62
     7
420
 16777215
370
     9
100
AcDbSpline
210
0.0
220
0.0
230
1.0
 70
     8
 71
     3
 72
     8
 73
     4
 74
     0
 42
0.0000000001
 43
0.0000000001
 40
0.0
 40
0.0
 40
0.0
 40
0.0
 40
1.0
 40
1.0
 40
1.0
 40
1.0
 10
185.0539930092921
 20
-159.1048447952932
 30
0.0
 10
185.0477918374186
 20
-159.218188436758
 30
0.0
 10
185.0419351750937
 20
-159.3318765877712
 30
0.0
 10
185.0378010605114
 20
-159.4514214011094
 30
0.0
  0
SPLINE
  5
409
330
1F
100
AcDbEntity
  8
Capa 1
 62
     7
420
 16777215
370
     9
100
AcDbSpline
210
0.0
220
0.0
230
1.0
 70
    24
 71
     3
 72
     8
 73
     4
 74
     0
 42
0.0000000001
 43
0.0000000001
 40
0.0
 40
0.0
 40
0.0
 40
0.0
 40
1.0
 40
1.0
 40
1.0
 40
1.0
 10
165.8699787996783
 20
-172.4890407554889
 30
0.0
 10
165.8699787996783
 20
-172.4890407554889
 30
0.0
 10
165.5630207919426
 20
-172.4890407554889
 30
0.0
 10
165.1106797547293
 20
-172.4890407554889
 30
0.0
  0
SPLINE
  5
40A
330
1F
100
AcDbEntity
  8
Capa 1
 62
     7
420
 16777215
370
     9
100
AcDbSpline
210
0.0
220
0.0
230
1.0
 70
     8
 71
     3
 72
     8
 73
     4
 74
     0
 42
0.0000000001
 43
0.0000000001
 40
0.0
 40
0.0
 40
0.0
 40
0.0
 40
1.0
 40
1.0
 40
1.0
 40
1.0
 10
185.0378010605114
 20
-159.4514214011094
 30
0.0
 10
185.1652695934656
 20
-159.5530517179242
 30
0.0
 10
185.2930826359684
 20
-159.6546820347391
 30
0.0
 10
185.4184841116315
 20
-159.7580348992966
 30
0.0
  0
POLYLINE
  5
40B
330
1F
100
AcDbEntity
  8
Capa 1
 62
     7
420
 16777215
370
     9
100
AcDb2dPolyline
 66
     1
 10
0.0
 20
0.0
 30
0.0
  0
VERTEX
  5
40C
330
40B
100
AcDbEntity
  8
Capa 1
 62
     7
420
 16777215
370
     9
100
AcDbVertex
100
AcDb2dVertex
 10
185.4184841116315
 20
-159.4214490703877
 30
0.0
  0
VERTEX
  5
40D
330
40B
100
AcDbEntity
  8
Capa 1
 62
     7
420
 16777215
370
     9
100
AcDbVertex
100
AcDb2dVertex
 10
185.0539930092921
 20
-159.1048447952932
 30
0.0
  0
SEQEND
  5
40E
330
40B
100
AcDbEntity
  8
Capa 1
370
     9
  0
POLYLINE
  5
40F
330
1F
100
AcDbEntity
  8
Capa 1
 62
     7
420
 16777215
370
     9
100
AcDb2dPolyline
 66
     1
 10
0.0
 20
0.0
 30
0.0
  0
VERTEX
  5
410
330
40F
100
AcDbEntity
  8
Capa 1
 62
     7
420
 16777215
370
     9
100
AcDbVertex
100
AcDb2dVertex
 10
185.4184841116315
 20
-159.7580348992966
 30
0.0
  0
VERTEX
  5
411
330
40F
100
AcDbEntity
  8
Capa 1
 62
     7
420
 16777215
370
     9
100
AcDbVertex
100
AcDb2dVertex
 10
185.4184841116315
 20
-159.4214490703877
 30
0.0
  0
SEQEND
  5
412
330
40F
100
AcDbEntity
  8
Capa 1
370
     9
  0
SPLINE
  5
413
330
1F
100
AcDbEntity
  8
Capa 1
 62
     7
420
 16777215
370
     9
100
AcDbSpline
210
0.0
220
0.0
230
1.0
 70
     8
 71
     3
 72
    11
 73
     7
 74
     0
 42
0.0000000001
 43
0.0000000001
 40
0.0
 40
0.0
 40
0.0
 40
0.0
 40
1.0
 40
1.0
 40
1.0
 40
2.0
 40
2.0
 40
2.0
 40
2.0
 10
185.0378010605114
 20
-157.508732056977
 30
0.0
 10
185.0539930092921
 20
-157.6661729206529
 30
0.0
 10
185.073630053558
 20
-157.8194796697465
 30
0.0
 10
185.0798312254314
 20
-158.0310085325409
 30
0.0
 10
185.0877549450475
 20
-158.3197075342048
 30
0.0
 10
185.0719075058154
 20
-158.7121039099748
 30
0.0
 10
185.0539930092921
 20
-159.1048447952932
 30
0.0
  0
SPLINE
  5
414
330
1F
100
AcDbEntity
  8
Capa 1
 62
     7
420
 16777215
370
     9
100
AcDbSpline
210
0.0
220
0.0
230
1.0
 70
     8
 71
     3
 72
     8
 73
     4
 74
     0
 42
0.0000000001
 43
0.0000000001
 40
0.0
 40
0.0
 40
0.0
 40
0.0
 40
1.0
 40
1.0
 40
1.0
 40
1.0
 10
185.4184841116315
 20
-157.8773572738987
 30
0.0
 10
185.2930826359684
 20
-157.7519557982356
 30
0.0
 10
185.1652695934656
 20
-157.6324109848975
 30
0.0
 10
185.0378010605114
 20
-157.508732056977
 30
0.0
  0
SPLINE
  5
415
330
1F
100
AcDbEntity
  8
Capa 1
 62
     7
420
 16777215
370
     9
100
AcDbSpline
210
0.0
220
0.0
230
1.0
 70
    24
 71
     3
 72
     8
 73
     4
 74
     0
 42
0.0000000001
 43
0.0000000001
 40
0.0
 40
0.0
 40
0.0
 40
0.0
 40
1.0
 40
1.0
 40
1.0
 40
1.0
 10
185.4184841116315
 20
-159.4214490703877
 30
0.0
 10
185.4184841116315
 20
-158.7241617441731
 30
0.0
 10
185.4184841116315
 20
-158.2060193831915
 30
0.0
 10
185.4184841116315
 20
-157.8773572738987
 30
0.0
  0
SPLINE
  5
416
330
1F
100
AcDbEntity
  8
Capa 1
 62
     7
420
 16777215
370
     9
100
AcDbSpline
210
0.0
220
0.0
230
1.0
 70
     8
 71
     3
 72
    11
 73
     7
 74
     0
 42
0.0000000001
 43
0.0000000001
 40
0.0
 40
0.0
 40
0.0
 40
0.0
 40
1.0
 40
1.0
 40
1.0
 40
2.0
 40
2.0
 40
2.0
 40
2.0
 10
165.1106797547293
 20
-171.7039034944004
 30
0.0
 10
165.575078626141
 20
-170.7437553826613
 30
0.0
 10
165.8699787996783
 20
-169.733653386386
 30
0.0
 10
165.8699787996783
 20
-168.6935790593891
 30
0.0
 10
165.8699787996783
 20
-167.6476480700672
 30
0.0
 10
165.575078626141
 20
-166.637546073792
 30
0.0
 10
165.1106797547293
 20
-165.6773979620529
 30
0.0
  0
SPLINE
  5
417
330
1F
100
AcDbEntity
  8
Capa 1
 62
     7
420
 16777215
370
     9
100
AcDbSpline
210
0.0
220
0.0
230
1.0
 70
     8
 71
     3
 72
    11
 73
     7
 74
     0
 42
0.0000000001
 43
0.0000000001
 40
0.0
 40
0.0
 40
0.0
 40
0.0
 40
1.0
 40
1.0
 40
1.0
 40
2.0
 40
2.0
 40
2.0
 40
2.0
 10
161.3134955108869
 20
-158.0806179075285
 30
0.0
 10
160.8511636967664
 20
-159.0411105288161
 30
0.0
 10
160.5524739181952
 20
-160.052935072834
 30
0.0
 10
160.5524739181952
 20
-161.0930093998309
 30
0.0
 10
160.5524739181952
 20
-162.1368733318616
 30
0.0
 10
160.8511636967664
 20
-163.1431857231031
 30
0.0
 10
161.3134955108869
 20
-164.1095350067157
 30
0.0
  0
SPLINE
  5
418
330
1F
100
AcDbEntity
  8
Capa 1
 62
     7
420
 16777215
370
     9
100
AcDbSpline
210
0.0
220
0.0
230
1.0
 70
     8
 71
     3
 72
    11
 73
     7
 74
     0
 42
0.0000000001
 43
0.0000000001
 40
0.0
 40
0.0
 40
0.0
 40
0.0
 40
1.0
 40
1.0
 40
1.0
 40
2.0
 40
2.0
 40
2.0
 40
2.0
 10
165.1106797547293
 20
-164.1095350067157
 30
0.0
 10
165.575078626141
 20
-163.149042385428
 30
0.0
 10
165.8699787996783
 20
-162.1368733318616
 30
0.0
 10
165.8699787996783
 20
-161.0988660621558
 30
0.0
 10
165.8699787996783
 20
-160.052935072834
 30
0.0
 10
165.575078626141
 20
-159.0411105288161
 30
0.0
 10
165.1106797547293
 20
-158.0806179075285
 30
0.0
  0
SPLINE
  5
419
330
1F
100
AcDbEntity
  8
Capa 1
 62
     7
420
 16777215
370
     9
100
AcDbSpline
210
0.0
220
0.0
230
1.0
 70
     8
 71
     3
 72
    11
 73
     7
 74
     0
 42
0.0000000001
 43
0.0000000001
 40
0.0
 40
0.0
 40
0.0
 40
0.0
 40
1.0
 40
1.0
 40
1.0
 40
2.0
 40
2.0
 40
2.0
 40
2.0
 10
161.3134955108869
 20
-165.6773979620529
 30
0.0
 10
160.8511636967664
 20
-166.637546073792
 30
0.0
 10
160.5524739181952
 20
-167.6476480700672
 30
0.0
 10
160.5524739181952
 20
-168.6877223970642
 30
0.0
 10
160.5524739181952
 20
-169.733653386386
 30
0.0
 10
160.8511636967664
 20
-170.7378987203364
 30
0.0
 10
161.3134955108869
 20
-171.7039034944004
 30
0.0
  0
SPLINE
  5
41A
330
1F
100
AcDbEntity
  8
Capa 1
 62
     7
420
 16777215
370
     9
100
AcDbSpline
210
0.0
220
0.0
230
1.0
 70
     8
 71
     3
 72
    11
 73
     7
 74
     0
 42
0.0000000001
 43
0.0000000001
 40
0.0
 40
0.0
 40
0.0
 40
0.0
 40
1.0
 40
1.0
 40
1.0
 40
2.0
 40
2.0
 40
2.0
 40
2.0
 10
165.1106797547293
 20
-171.7039034944004
 30
0.0
 10
165.575078626141
 20
-170.7437553826613
 30
0.0
 10
165.8699787996783
 20
-169.733653386386
 30
0.0
 10
165.8699787996783
 20
-168.6935790593891
 30
0.0
 10
165.8699787996783
 20
-167.6476480700672
 30
0.0
 10
165.575078626141
 20
-166.637546073792
 30
0.0
 10
165.1106797547293
 20
-165.6773979620529
 30
0.0
  0
SPLINE
  5
41B
330
1F
100
AcDbEntity
  8
Capa 1
 62
     7
420
 16777215
370
     9
100
AcDbSpline
210
0.0
220
0.0
230
1.0
 70
    24
 71
     3
 72
     8
 73
     4
 74
     0
 42
0.0000000001
 43
0.0000000001
 40
0.0
 40
0.0
 40
0.0
 40
0.0
 40
1.0
 40
1.0
 40
1.0
 40
1.0
 10
160.5524739181952
 20
-157.2975477037312
 30
0.0
 10
160.5545409754864
 20
-157.2975477037312
 30
0.0
 10
160.8590874163825
 20
-157.2975477037312
 30
0.0
 10
161.3134955108869
 20
-157.2975477037312
 30
0.0
  0
SPLINE
  5
41C
330
1F
100
AcDbEntity
  8
Capa 1
 62
     7
420
 16777215
370
     9
100
AcDbSpline
210
0.0
220
0.0
230
1.0
 70
    24
 71
     3
 72
     8
 73
     4
 74
     0
 42
0.0000000001
 43
0.0000000001
 40
0.0
 40
0.0
 40
0.0
 40
0.0
 40
1.0
 40
1.0
 40
1.0
 40
1.0
 10
161.3134955108869
 20
-172.4890407554889
 30
0.0
 10
160.8590874163825
 20
-172.4890407554889
 30
0.0
 10
160.5545409754864
 20
-172.4890407554889
 30
0.0
 10
160.5524739181952
 20
-172.4890407554889
 30
0.0
  0
SPLINE
  5
41D
330
1F
100
AcDbEntity
  8
Capa 1
 62
     7
420
 16777215
370
     9
100
AcDbSpline
210
0.0
220
0.0
230
1.0
 70
    24
 71
     3
 72
     8
 73
     4
 74
     0
 42
0.0000000001
 43
0.0000000001
 40
0.0
 40
0.0
 40
0.0
 40
0.0
 40
1.0
 40
1.0
 40
1.0
 40
1.0
 10
165.8699787996783
 20
-172.4890407554889
 30
0.0
 10
165.8699787996783
 20
-172.4890407554889
 30
0.0
 10
165.5630207919426
 20
-172.4890407554889
 30
0.0
 10
165.1106797547293
 20
-172.4890407554889
 30
0.0
  0
SPLINE
  5
41E
330
1F
100
AcDbEntity
  8
Capa 1
 62
     7
420
 16777215
370
     9
100
AcDbSpline
210
0.0
220
0.0
230
1.0
 70
    24
 71
     3
 72
     8
 73
     4
 74
     0
 42
0.0000000001
 43
0.0000000001
 40
0.0
 40
0.0
 40
0.0
 40
0.0
 40
1.0
 40
1.0
 40
1.0
 40
1.0
 10
165.1106797547293
 20
-157.2975477037312
 30
0.0
 10
165.5630207919426
 20
-157.2975477037312
 30
0.0
 10
165.8699787996783
 20
-157.2975477037312
 30
0.0
 10
165.8699787996783
 20
-157.2975477037312
 30
0.0
  0
SPLINE
  5
41F
330
1F
100
AcDbEntity
  8
Capa 1
 62
     7
420
 16777215
370
     9
100
AcDbSpline
210
0.0
220
0.0
230
1.0
 70
     8
 71
     3
 72
    44
 73
    40
 74
     0
 42
0.0000000001
 43
0.0000000001
 40
0.0
 40
0.0
 40
0.0
 40
0.0
 40
1.0
 40
1.0
 40
1.0
 40
2.0
 40
2.0
 40
2.0
 40
3.0
 40
3.0
 40
3.0
 40
4.0
 40
4.0
 40
4.0
 40
5.0
 40
5.0
 40
5.0
 40
6.0
 40
6.0
 40
6.0
 40
7.0
 40
7.0
 40
7.0
 40
8.0
 40
8.0
 40
8.0
 40
9.0
 40
9.0
 40
9.0
 40
10.0
 40
10.0
 40
10.0
 40
11.0
 40
11.0
 40
11.0
 40
12.0
 40
12.0
 40
12.0
 40
13.0
 40
13.0
 40
13.0
 40
13.0
 10
24.47654214882878
 20
-199.1795735179134
 30
0.0
 10
24.47654214882878
 20
-199.1675156837151
 30
0.0
 10
24.48257106592797
 20
-199.1558023590652
 30
0.0
 10
24.48257106592797
 20
-199.1437445248669
 30
0.0
 10
24.48257106592797
 20
-199.042114208052
 30
0.0
 10
24.47068548650386
 20
-198.9346272289122
 30
0.0
 10
24.45966118095106
 20
-198.8329969120973
 30
0.0
 10
24.44278021307333
 20
-198.7334336525736
 30
0.0
 10
24.41987032809642
 20
-198.6338703930499
 30
0.0
 10
24.39696044311951
 20
-198.5360296812688
 30
0.0
 10
24.3740505581426
 20
-198.4464571986523
 30
0.0
 10
24.34011636761289
 20
-198.3548176587447
 30
0.0
 10
24.30618217708318
 20
-198.2652451761281
 30
0.0
 10
24.27242024132773
 20
-198.1794622985454
 30
0.0
 10
24.23245713369883
 20
-198.0936794209627
 30
0.0
 10
24.1926662808442
 20
-198.0140977152534
 30
0.0
 10
24.14684651089037
 20
-197.9403726718691
 30
0.0
 10
24.10705565803574
 20
-197.8666476284847
 30
0.0
 10
24.0562404996283
 20
-197.7949896423915
 30
0.0
 10
24.01042072967448
 20
-197.7291883186233
 30
0.0
 10
23.96563448836623
 20
-197.6675211094373
 30
0.0
 10
23.9148193299588
 20
-197.6075764479939
 30
0.0
 10
23.86899956000497
 20
-197.553832958424
 30
0.0
 10
23.82317979005115
 20
-197.5000894688542
 30
0.0
 10
23.77236463164371
 20
-197.4522026416092
 30
0.0
 10
23.72654486168989
 20
-197.4063828716554
 30
0.0
 10
23.68158636560738
 20
-197.366764273575
 30
0.0
 10
23.64179551275275
 20
-197.3288682232372
 30
0.0
 10
23.59597574279892
 20
-197.2930392301906
 30
0.0
 10
23.55618488994429
 20
-197.2589327848867
 30
0.0
 10
23.51622178231539
 20
-197.2310275114561
 30
0.0
 10
23.47643092946075
 20
-197.201399690283
 30
0.0
 10
23.44249673893104
 20
-197.1793510791774
 30
0.0
 10
23.40873480317559
 20
-197.1593695253629
 30
0.0
 10
23.3797960010995
 20
-197.1393879715485
 30
0.0
 10
23.35189072766897
 20
-197.1214734750252
 30
0.0
 10
23.32898084269206
 20
-197.1076930930842
 30
0.0
 10
23.30607095771515
 20
-197.0935682015947
 30
0.0
 10
23.28316107273824
 20
-197.0856444819786
 30
0.0
 10
23.2723090219597
 20
-197.0777207623625
 30
0.0
  0
SPLINE
  5
420
330
1F
100
AcDbEntity
  8
Capa 1
 62
     7
420
 16777215
370
     9
100
AcDbSpline
210
0.0
220
0.0
230
1.0
 70
     8
 71
     3
 72
    41
 73
    37
 74
     0
 42
0.0000000001
 43
0.0000000001
 40
0.0
 40
0.0
 40
0.0
 40
0.0
 40
1.0
 40
1.0
 40
1.0
 40
2.0
 40
2.0
 40
2.0
 40
3.0
 40
3.0
 40
3.0
 40
4.0
 40
4.0
 40
4.0
 40
5.0
 40
5.0
 40
5.0
 40
6.0
 40
6.0
 40
6.0
 40
7.0
 40
7.0
 40
7.0
 40
8.0
 40
8.0
 40
8.0
 40
9.0
 40
9.0
 40
9.0
 40
10.0
 40
10.0
 40
10.0
 40
11.0
 40
11.0
 40
11.0
 40
12.0
 40
12.0
 40
12.0
 40
12.0
 10
50.75607501986307
 20
-197.0777207623625
 30
0.0
 10
50.71628416700843
 20
-197.0935682015947
 30
0.0
 10
50.69440781067709
 20
-197.111482698118
 30
0.0
 10
50.65944009150181
 20
-197.1276746468986
 30
0.0
 10
50.63153481807129
 20
-197.1455891434219
 30
0.0
 10
50.60276827076945
 20
-197.1652261876879
 30
0.0
 10
50.56280516314055
 20
-197.1914089133758
 30
0.0
 10
50.5290432273851
 20
-197.2131130149328
 30
0.0
 10
50.4890801197562
 20
-197.2410182883634
 30
0.0
 10
50.44928926690157
 20
-197.2751247336673
 30
0.0
 10
50.41053194269251
 20
-197.3088866694228
 30
0.0
 10
50.36471217273868
 20
-197.3447156624694
 30
0.0
 10
50.31889240278486
 20
-197.388468375132
 30
0.0
 10
50.26807724437743
 20
-197.428431482761
 30
0.0
 10
50.22225747442361
 20
-197.4801079150397
 30
0.0
 10
50.17144231601617
 20
-197.532128856867
 30
0.0
 10
50.12562254606235
 20
-197.5858723464369
 30
0.0
 10
50.07480738765491
 20
-197.6454724983317
 30
0.0
 10
50.02898761770109
 20
-197.7071397075177
 30
0.0
 10
49.97817245929365
 20
-197.7750080885771
 30
0.0
 10
49.93235268933983
 20
-197.8445990173791
 30
0.0
 10
49.88756644803158
 20
-197.9203911180546
 30
0.0
 10
49.84174667807776
 20
-197.9982502760213
 30
0.0
 10
49.79678818199525
 20
-198.0757649244394
 30
0.0
 10
49.76199271759423
 20
-198.1615478020221
 30
0.0
 10
49.72220186473959
 20
-198.2490532273475
 30
0.0
 10
49.68826767420988
 20
-198.3389702195125
 30
0.0
 10
49.65433348368017
 20
-198.4323323071628
 30
0.0
 10
49.62556693637833
 20
-198.5260389043615
 30
0.0
 10
49.60351832527273
 20
-198.6218125588515
 30
0.0
 10
49.58663735739501
 20
-198.7193087610841
 30
0.0
 10
49.5637274724181
 20
-198.815082415574
 30
0.0
 10
49.55184189299398
 20
-198.9167127323889
 30
0.0
 10
49.54684650454038
 20
-199.0162759919126
 30
0.0
 10
49.54684650454038
 20
-199.0700194814825
 30
0.0
 10
49.54684650454038
 20
-199.1258300283436
 30
0.0
 10
49.54684650454038
 20
-199.1795735179134
 30
0.0
  0
SPLINE
  5
421
330
1F
100
AcDbEntity
  8
Capa 1
 62
     7
420
 16777215
370
     9
100
AcDbSpline
210
0.0
220
0.0
230
1.0
 70
     8
 71
     3
 72
    83
 73
    79
 74
     0
 42
0.0000000001
 43
0.0000000001
 40
0.0
 40
0.0
 40
0.0
 40
0.0
 40
1.0
 40
1.0
 40
1.0
 40
2.0
 40
2.0
 40
2.0
 40
3.0
 40
3.0
 40
3.0
 40
4.0
 40
4.0
 40
4.0
 40
5.0
 40
5.0
 40
5.0
 40
6.0
 40
6.0
 40
6.0
 40
7.0
 40
7.0
 40
7.0
 40
8.0
 40
8.0
 40
8.0
 40
9.0
 40
9.0
 40
9.0
 40
10.0
 40
10.0
 40
10.0
 40
11.0
 40
11.0
 40
11.0
 40
12.0
 40
12.0
 40
12.0
 40
13.0
 40
13.0
 40
13.0
 40
14.0
 40
14.0
 40
14.0
 40
15.0
 40
15.0
 40
15.0
 40
16.0
 40
16.0
 40
16.0
 40
17.0
 40
17.0
 40
17.0
 40
18.0
 40
18.0
 40
18.0
 40
19.0
 40
19.0
 40
19.0
 40
20.0
 40
20.0
 40
20.0
 40
21.0
 40
21.0
 40
21.0
 40
22.0
 40
22.0
 40
22.0
 40
23.0
 40
23.0
 40
23.0
 40
24.0
 40
24.0
 40
24.0
 40
25.0
 40
25.0
 40
25.0
 40
26.0
 40
26.0
 40
26.0
 40
26.0
 10
81.00091279441992
 20
-186.9229573100401
 30
0.0
 10
80.99092201751269
 20
-186.9367376919811
 30
0.0
 10
80.97886418331431
 20
-186.9487955261795
 30
0.0
 10
80.96715085866447
 20
-186.9587863030867
 30
0.0
 10
80.66604951325363
 20
-187.2716009731474
 30
0.0
 10
80.34737818086802
 20
-187.5723578090097
 30
0.0
 10
80.01871607157518
 20
-187.8631238679648
 30
0.0
 10
79.69987248441531
 20
-188.1383869972362
 30
0.0
 10
79.37723929222166
 20
-188.4012477827608
 30
0.0
 10
79.04237601105538
 20
-188.6541177913782
 30
0.0
 10
78.71767576157059
 20
-188.8973415326368
 30
0.0
 10
78.38901365227775
 20
-189.128507439697
 30
0.0
 10
78.04829370878655
 20
-189.3476155125589
 30
0.0
 10
77.72359345930174
 20
-189.5587998658048
 30
0.0
 10
77.38890243290972
 20
-189.7541367798184
 30
0.0
 10
77.0542114065177
 20
-189.9412054646675
 30
0.0
 10
76.66164277597348
 20
-190.1585909897867
 30
0.0
 10
76.26907414542926
 20
-190.3535833942519
 30
0.0
 10
75.86668699275208
 20
-190.5389295313583
 30
0.0
 10
75.48617619640623
 20
-190.7084282292326
 30
0.0
 10
75.09360756586202
 20
-190.8675916406512
 30
0.0
 10
74.70121119009207
 20
-191.0091850650949
 30
0.0
 10
74.33258597317032
 20
-191.1466443749564
 30
0.0
 10
73.95810409392367
 20
-191.2661891882946
 30
0.0
 10
73.57759329757782
 20
-191.3736761674344
 30
0.0
 10
73.21895885756332
 20
-191.4753064842492
 30
0.0
 10
72.86032441754881
 20
-191.5669460241569
 30
0.0
 10
72.50375703482545
 20
-191.6547959590308
 30
0.0
 10
72.16699895114228
 20
-191.7364447220312
 30
0.0
 10
71.83833684184944
 20
-191.8218830900654
 30
0.0
 10
71.50347356068316
 20
-191.9035318530658
 30
0.0
 10
71.19083114539674
 20
-191.9813910110324
 30
0.0
 10
70.87801647533605
 20
-192.0609727167417
 30
0.0
 10
70.57123072237455
 20
-192.134697760126
 30
0.0
 10
70.2821872111621
 20
-192.2084228035104
 30
0.0
 10
69.99142115220701
 20
-192.2800807896036
 30
0.0
 10
69.70840655809374
 20
-192.3500162279542
 30
0.0
 10
69.41161158203946
 20
-192.4237412713385
 30
0.0
 10
69.12274032560126
 20
-192.4953992574317
 30
0.0
 10
68.83386906916306
 20
-192.5670572435249
 30
0.0
 10
68.57083602886424
 20
-192.6349256245843
 30
0.0
 10
68.30987004585657
 20
-192.7007269483526
 30
0.0
 10
68.04339191007249
 20
-192.7644612148297
 30
0.0
 10
67.81033120049534
 20
-192.8219943094334
 30
0.0
 10
67.57727049091818
 20
-192.8819389708767
 30
0.0
 10
67.33904213811316
 20
-192.9415391227716
 30
0.0
 10
67.123034651188
 20
-192.99562712189
 30
0.0
 10
66.90685490948857
 20
-193.0493706114599
 30
0.0
 10
66.69170869643472
 20
-193.1031141010298
 30
0.0
 10
66.45261906975837
 20
-193.1627142529246
 30
0.0
 10
66.21439071695335
 20
-193.222658914368
 30
0.0
 10
65.97547334505127
 20
-193.2822590662628
 30
0.0
 10
65.58893363160624
 20
-193.3780327207527
 30
0.0
 10
65.2084228352604
 20
-193.4755289229853
 30
0.0
 10
64.82291665046094
 20
-193.5692355201841
 30
0.0
 10
64.3845282499629
 20
-193.678789556615
 30
0.0
 10
63.94717337811043
 20
-193.788343593046
 30
0.0
 10
63.50981850625796
 20
-193.8978976294769
 30
0.0
 10
63.01579181367314
 20
-194.0215765573974
 30
0.0
 10
62.52176512108831
 20
-194.1449109757693
 30
0.0
 10
62.02756617372922
 20
-194.2644557891075
 30
0.0
 10
61.48169079409139
 20
-194.4039821562601
 30
0.0
 10
60.93684894309912
 20
-194.5393744088304
 30
0.0
 10
60.38597817500767
 20
-194.6768337186919
 30
0.0
 10
59.78928763696241
 20
-194.8263508627518
 30
0.0
 10
59.18656818181795
 20
-194.9758680068116
 30
0.0
 10
58.58488225531906
 20
-195.1291747559052
 30
0.0
 10
57.92549097944224
 20
-195.2907497341634
 30
0.0
 10
57.27195636589035
 20
-195.4519802028731
 30
0.0
 10
56.6135986186591
 20
-195.6173447861651
 30
0.0
 10
55.94903969955441
 20
-195.7847764267483
 30
0.0
 10
55.27862411812479
 20
-195.9522080673314
 30
0.0
 10
54.60820853669517
 20
-196.1175726506234
 30
0.0
 10
53.89197318531173
 20
-196.2967176158564
 30
0.0
 10
53.17677136257387
 20
-196.4741400333467
 30
0.0
 10
52.46053601119042
 20
-196.6512179412886
 30
0.0
 10
51.85885008469154
 20
-196.8007350853484
 30
0.0
 10
51.26215954664627
 20
-196.9523192866994
 30
0.0
 10
50.65944009150181
 20
-197.0997693734681
 30
0.0
  0
SPLINE
  5
422
330
1F
100
AcDbEntity
  8
Capa 1
 62
     7
420
 16777215
370
     9
100
AcDbSpline
210
0.0
220
0.0
230
1.0
 70
     8
 71
     3
 72
    83
 73
    79
 74
     0
 42
0.0000000001
 43
0.0000000001
 40
0.0
 40
0.0
 40
0.0
 40
0.0
 40
1.0
 40
1.0
 40
1.0
 40
2.0
 40
2.0
 40
2.0
 40
3.0
 40
3.0
 40
3.0
 40
4.0
 40
4.0
 40
4.0
 40
5.0
 40
5.0
 40
5.0
 40
6.0
 40
6.0
 40
6.0
 40
7.0
 40
7.0
 40
7.0
 40
8.0
 40
8.0
 40
8.0
 40
9.0
 40
9.0
 40
9.0
 40
10.0
 40
10.0
 40
10.0
 40
11.0
 40
11.0
 40
11.0
 40
12.0
 40
12.0
 40
12.0
 40
13.0
 40
13.0
 40
13.0
 40
14.0
 40
14.0
 40
14.0
 40
15.0
 40
15.0
 40
15.0
 40
16.0
 40
16.0
 40
16.0
 40
17.0
 40
17.0
 40
17.0
 40
18.0
 40
18.0
 40
18.0
 40
19.0
 40
19.0
 40
19.0
 40
20.0
 40
20.0
 40
20.0
 40
21.0
 40
21.0
 40
21.0
 40
22.0
 40
22.0
 40
22.0
 40
23.0
 40
23.0
 40
23.0
 40
24.0
 40
24.0
 40
24.0
 40
25.0
 40
25.0
 40
25.0
 40
26.0
 40
26.0
 40
26.0
 40
26.0
 10
23.36291503322177
 20
-197.0997693734681
 30
0.0
 10
22.99428981630004
 20
-197.0081298335605
 30
0.0
 10
22.61877440840781
 20
-196.9144232363617
 30
0.0
 10
22.25014919148607
 20
-196.8207166391629
 30
0.0
 10
21.61952446291109
 20
-196.6674098900693
 30
0.0
 10
20.98907198911037
 20
-196.5079019691022
 30
0.0
 10
20.35844726053539
 20
-196.3525281627174
 30
0.0
 10
19.78466660746703
 20
-196.2071451332399
 30
0.0
 10
19.20485703729948
 20
-196.0655517087961
 30
0.0
 10
18.63107638423112
 20
-195.9243027939009
 30
0.0
 10
18.1081108895702
 20
-195.7927001463643
 30
0.0
 10
17.58617892355484
 20
-195.6631645561189
 30
0.0
 10
17.06321342889392
 20
-195.5315619085824
 30
0.0
 10
16.688559294873
 20
-195.4381998209321
 30
0.0
 10
16.31907280407995
 20
-195.3444932237333
 30
0.0
 10
15.94355739618772
 20
-195.2528536838257
 30
0.0
 10
15.60283745269651
 20
-195.167070806243
 30
0.0
 10
15.26814642630449
 20
-195.0833549859514
 30
0.0
 10
14.92742648281328
 20
-194.9979166179172
 30
0.0
 10
14.62064072985178
 20
-194.9241915745328
 30
0.0
 10
14.31385497689029
 20
-194.8442653592751
 30
0.0
 10
14.00706922392879
 20
-194.7705403158907
 30
0.0
 10
13.73404540672274
 20
-194.7030164443798
 30
0.0
 10
13.46102158951669
 20
-194.6330810060292
 30
0.0
 10
13.18920355573048
 20
-194.5655571345183
 30
0.0
 10
12.94408501195495
 20
-194.5035454157838
 30
0.0
 10
12.70602891392419
 20
-194.443945263889
 30
0.0
 10
12.46194389879424
 20
-194.3840006024457
 30
0.0
 10
12.19994438714099
 20
-194.3185437882259
 30
0.0
 10
11.9450073212325
 20
-194.2527424644577
 30
0.0
 10
11.68300780957925
 20
-194.1907307457232
 30
0.0
 10
11.34228786608804
 20
-194.105292377689
 30
0.0
 10
11.00759683969602
 20
-194.0215765573974
 30
0.0
 10
10.67187228465842
 20
-193.9357936798147
 30
0.0
 10
10.29136148831258
 20
-193.8420870826159
 30
0.0
 10
9.910850691966733
 20
-193.7487249949656
 30
0.0
 10
9.530339895620887
 20
-193.6508842831845
 30
0.0
 10
9.103837074546957
 20
-193.5433973040447
 30
0.0
 10
8.678540036892866
 20
-193.4376328726476
 30
0.0
 10
8.252209470593199
 20
-193.3322129507989
 30
0.0
 10
7.781092662985283
 20
-193.2147351947519
 30
0.0
 10
7.314798989056717
 20
-193.0969129291563
 30
0.0
 10
6.843682181448802
 20
-192.9815022304005
 30
0.0
 10
6.326573349112802
 20
-192.8498995828639
 30
0.0
 10
5.814632160004676
 20
-192.7244981072008
 30
0.0
 10
5.303552244767862
 20
-192.5949625169554
 30
0.0
 10
4.740795897252301
 20
-192.457503207094
 30
0.0
 10
4.18492974070724
 20
-192.3162542921987
 30
0.0
 10
3.628030055516604
 20
-192.1805175300799
 30
0.0
 10
3.269395615502096
 20
-192.0888779901722
 30
0.0
 10
2.911794704133162
 20
-192.003439622138
 30
0.0
 10
2.560222709863416
 20
-191.913522629973
 30
0.0
 10
2.184707301971184
 20
-191.8218830900654
 30
0.0
 10
1.810053167950264
 20
-191.7285210024151
 30
0.0
 10
1.440566677157219
 20
-191.6348144052163
 30
0.0
 10
1.049031575258575
 20
-191.5369736934352
 30
0.0
 10
0.6624918618135437
 20
-191.4353433766204
 30
0.0
 10
0.275952148368512
 20
-191.3219997351556
 30
0.0
 10
-0.127468532954244
 20
-191.2024549218175
 30
0.0
 10
-0.5248602971778127
 20
-191.0729193315721
 30
0.0
 10
-0.9224243161756439
 20
-190.9213351302211
 30
0.0
 10
-1.331873914597587
 20
-190.7659613238363
 30
0.0
 10
-1.729265678821156
 20
-190.5926730209282
 30
0.0
 10
-2.126657443044725
 20
-190.4056043360792
 30
0.0
 10
-2.467377386535933
 20
-190.2419623005298
 30
0.0
 10
-2.80310194157353
 20
-190.0686739976217
 30
0.0
 10
-3.13279757951194
 20
-189.8853949178065
 30
0.0
 10
-3.467488605903961
 20
-189.6983262329574
 30
0.0
 10
-3.803213160941558
 20
-189.4929985420365
 30
0.0
 10
-4.127052136555043
 20
-189.2818141887907
 30
0.0
 10
-4.461743162947064
 20
-189.0606390586376
 30
0.0
 10
-4.785409883786286
 20
-188.8315402088685
 30
0.0
 10
-5.103219942300584
 20
-188.5865939198673
 30
0.0
 10
-5.432915580238993
 20
-188.3375135162837
 30
0.0
 10
-5.751759167398866
 20
-188.0763752785018
 30
0.0
 10
-6.058544920360364
 20
-187.80352371607
 30
0.0
 10
-6.279720050513403
 20
-187.6123209166386
 30
0.0
 10
-6.489870875113644
 20
-187.4131943975912
 30
0.0
 10
-6.700021699713884
 20
-187.2099337639614
 30
0.0
  0
SPLINE
  5
423
330
1F
100
AcDbEntity
  8
Capa 1
 62
     7
420
 16777215
370
     9
100
AcDbSpline
210
0.0
220
0.0
230
1.0
 70
     8
 71
     3
 72
    11
 73
     7
 74
     0
 42
0.0000000001
 43
0.0000000001
 40
0.0
 40
0.0
 40
0.0
 40
0.0
 40
1.0
 40
1.0
 40
1.0
 40
2.0
 40
2.0
 40
2.0
 40
2.0
 10
70.2821872111621
 20
-177.0231309236262
 30
0.0
 10
69.72442625210014
 20
-176.5607991095056
 30
0.0
 10
69.14065482212456
 20
-176.2621093309345
 30
0.0
 10
68.53707409310879
 20
-176.2621093309345
 30
0.0
 10
67.93573267615844
 20
-176.2621093309345
 30
0.0
 10
67.35609536076515
 20
-176.5607991095056
 30
0.0
 10
66.79919567557451
 20
-177.0231309236262
 30
0.0
  0
SPLINE
  5
424
330
1F
100
AcDbEntity
  8
Capa 1
 62
     7
420
 16777215
370
     9
100
AcDbSpline
210
0.0
220
0.0
230
1.0
 70
     8
 71
     3
 72
    11
 73
     7
 74
     0
 42
0.0000000001
 43
0.0000000001
 40
0.0
 40
0.0
 40
0.0
 40
0.0
 40
1.0
 40
1.0
 40
1.0
 40
2.0
 40
2.0
 40
2.0
 40
2.0
 10
78.59813094823241
 20
-177.0231309236262
 30
0.0
 10
77.49638941204952
 20
-176.5628661667968
 30
0.0
 10
76.31489391538308
 20
-176.2621093309345
 30
0.0
 10
75.10962725986843
 20
-176.2621093309345
 30
0.0
 10
73.91228432396984
 20
-176.2641763882256
 30
0.0
 10
72.72475991020423
 20
-176.5687228291217
 30
0.0
 10
71.63300915092856
 20
-177.0231309236262
 30
0.0
  0
SPLINE
  5
425
330
1F
100
AcDbEntity
  8
Capa 1
 62
     7
420
 16777215
370
     9
100
AcDbSpline
210
0.0
220
0.0
230
1.0
 70
     8
 71
     3
 72
    11
 73
     7
 74
     0
 42
0.0000000001
 43
0.0000000001
 40
0.0
 40
0.0
 40
0.0
 40
0.0
 40
1.0
 40
1.0
 40
1.0
 40
2.0
 40
2.0
 40
2.0
 40
2.0
 10
83.43935137887975
 20
-177.0231309236262
 30
0.0
 10
82.8815904198178
 20
-176.5607991095056
 30
0.0
 10
82.29592418732533
 20
-176.2621093309345
 30
0.0
 10
81.69406600605218
 20
-176.2621093309345
 30
0.0
 10
81.09255233432756
 20
-176.2621093309345
 30
0.0
 10
80.51274276416001
 20
-176.5607991095056
 30
0.0
 10
79.95687660761494
 20
-177.0231309236262
 30
0.0
  0
SPLINE
  5
426
330
1F
100
AcDbEntity
  8
Capa 1
 62
     7
420
 16777215
370
     9
100
AcDbSpline
210
0.0
220
0.0
230
1.0
 70
     8
 71
     3
 72
    11
 73
     7
 74
     0
 42
0.0000000001
 43
0.0000000001
 40
0.0
 40
0.0
 40
0.0
 40
0.0
 40
1.0
 40
1.0
 40
1.0
 40
2.0
 40
2.0
 40
2.0
 40
2.0
 10
79.95687660761494
 20
-180.8203151674686
 30
0.0
 10
80.51274276416001
 20
-181.2847140388802
 30
0.0
 10
81.09255233432756
 20
-181.5796142124176
 30
0.0
 10
81.69406600605218
 20
-181.5796142124176
 30
0.0
 10
82.29592418732533
 20
-181.5796142124176
 30
0.0
 10
82.8815904198178
 20
-181.2847140388802
 30
0.0
 10
83.43935137887975
 20
-180.8203151674686
 30
0.0
  0
SPLINE
  5
427
330
1F
100
AcDbEntity
  8
Capa 1
 62
     7
420
 16777215
370
     9
100
AcDbSpline
210
0.0
220
0.0
230
1.0
 70
     8
 71
     3
 72
    11
 73
     7
 74
     0
 42
0.0000000001
 43
0.0000000001
 40
0.0
 40
0.0
 40
0.0
 40
0.0
 40
1.0
 40
1.0
 40
1.0
 40
2.0
 40
2.0
 40
2.0
 40
2.0
 10
71.63300915092856
 20
-180.8203151674686
 30
0.0
 10
72.72475991020423
 20
-181.2726562046819
 30
0.0
 10
73.91228432396984
 20
-181.5796142124176
 30
0.0
 10
75.10962725986843
 20
-181.5796142124176
 30
0.0
 10
76.31489391538308
 20
-181.5816812697088
 30
0.0
 10
77.49638941204952
 20
-181.2805799242979
 30
0.0
 10
78.59813094823241
 20
-180.8203151674686
 30
0.0
  0
SPLINE
  5
428
330
1F
100
AcDbEntity
  8
Capa 1
 62
     7
420
 16777215
370
     9
100
AcDbSpline
210
0.0
220
0.0
230
1.0
 70
     8
 71
     3
 72
    11
 73
     7
 74
     0
 42
0.0000000001
 43
0.0000000001
 40
0.0
 40
0.0
 40
0.0
 40
0.0
 40
1.0
 40
1.0
 40
1.0
 40
2.0
 40
2.0
 40
2.0
 40
2.0
 10
66.79919567557451
 20
-180.8203151674686
 30
0.0
 10
67.35609536076515
 20
-181.2847140388802
 30
0.0
 10
67.93573267615844
 20
-181.5796142124176
 30
0.0
 10
68.53707409310879
 20
-181.5796142124176
 30
0.0
 10
69.14065482212456
 20
-181.5796142124176
 30
0.0
 10
69.72442625210014
 20
-181.2847140388802
 30
0.0
 10
70.2821872111621
 20
-180.8203151674686
 30
0.0
  0
SPLINE
  5
429
330
1F
100
AcDbEntity
  8
Capa 1
 62
     7
420
 16777215
370
     9
100
AcDbSpline
210
0.0
220
0.0
230
1.0
 70
     8
 71
     3
 72
    11
 73
     7
 74
     0
 42
0.0000000001
 43
0.0000000001
 40
0.0
 40
0.0
 40
0.0
 40
0.0
 40
1.0
 40
1.0
 40
1.0
 40
2.0
 40
2.0
 40
2.0
 40
2.0
 10
78.59813094823241
 20
-177.0231309236262
 30
0.0
 10
77.49638941204952
 20
-176.5628661667968
 30
0.0
 10
76.31489391538308
 20
-176.2621093309345
 30
0.0
 10
75.10962725986843
 20
-176.2621093309345
 30
0.0
 10
73.91228432396984
 20
-176.2641763882256
 30
0.0
 10
72.72475991020423
 20
-176.5687228291217
 30
0.0
 10
71.63300915092856
 20
-177.0231309236262
 30
0.0
  0
SPLINE
  5
42A
330
1F
100
AcDbEntity
  8
Capa 1
 62
     7
420
 16777215
370
     9
100
AcDbSpline
210
0.0
220
0.0
230
1.0
 70
     8
 71
     3
 72
    11
 73
     7
 74
     0
 42
0.0000000001
 43
0.0000000001
 40
0.0
 40
0.0
 40
0.0
 40
0.0
 40
1.0
 40
1.0
 40
1.0
 40
2.0
 40
2.0
 40
2.0
 40
2.0
 10
83.43935137887975
 20
-177.0231309236262
 30
0.0
 10
82.8815904198178
 20
-176.5607991095056
 30
0.0
 10
82.29592418732533
 20
-176.2621093309345
 30
0.0
 10
81.69406600605218
 20
-176.2621093309345
 30
0.0
 10
81.09255233432756
 20
-176.2621093309345
 30
0.0
 10
80.51274276416001
 20
-176.5607991095056
 30
0.0
 10
79.95687660761494
 20
-177.0231309236262
 30
0.0
  0
SPLINE
  5
42B
330
1F
100
AcDbEntity
  8
Capa 1
 62
     7
420
 16777215
370
     9
100
AcDbSpline
210
0.0
220
0.0
230
1.0
 70
     8
 71
     3
 72
    11
 73
     7
 74
     0
 42
0.0000000001
 43
0.0000000001
 40
0.0
 40
0.0
 40
0.0
 40
0.0
 40
1.0
 40
1.0
 40
1.0
 40
2.0
 40
2.0
 40
2.0
 40
2.0
 10
79.95687660761494
 20
-180.8203151674686
 30
0.0
 10
80.51274276416001
 20
-181.2847140388802
 30
0.0
 10
81.09255233432756
 20
-181.5796142124176
 30
0.0
 10
81.69406600605218
 20
-181.5796142124176
 30
0.0
 10
82.29592418732533
 20
-181.5796142124176
 30
0.0
 10
82.8815904198178
 20
-181.2847140388802
 30
0.0
 10
83.43935137887975
 20
-180.8203151674686
 30
0.0
  0
SPLINE
  5
42C
330
1F
100
AcDbEntity
  8
Capa 1
 62
     7
420
 16777215
370
     9
100
AcDbSpline
210
0.0
220
0.0
230
1.0
 70
     8
 71
     3
 72
    11
 73
     7
 74
     0
 42
0.0000000001
 43
0.0000000001
 40
0.0
 40
0.0
 40
0.0
 40
0.0
 40
1.0
 40
1.0
 40
1.0
 40
2.0
 40
2.0
 40
2.0
 40
2.0
 10
71.63300915092856
 20
-180.8203151674686
 30
0.0
 10
72.72475991020423
 20
-181.2726562046819
 30
0.0
 10
73.91228432396984
 20
-181.5796142124176
 30
0.0
 10
75.10962725986843
 20
-181.5796142124176
 30
0.0
 10
76.31489391538308
 20
-181.5816812697088
 30
0.0
 10
77.49638941204952
 20
-181.2805799242979
 30
0.0
 10
78.59813094823241
 20
-180.8203151674686
 30
0.0
  0
SPLINE
  5
42D
330
1F
100
AcDbEntity
  8
Capa 1
 62
     7
420
 16777215
370
     9
100
AcDbSpline
210
0.0
220
0.0
230
1.0
 70
     8
 71
     3
 72
    11
 73
     7
 74
     0
 42
0.0000000001
 43
0.0000000001
 40
0.0
 40
0.0
 40
0.0
 40
0.0
 40
1.0
 40
1.0
 40
1.0
 40
2.0
 40
2.0
 40
2.0
 40
2.0
 10
70.2821872111621
 20
-177.0231309236262
 30
0.0
 10
69.72442625210014
 20
-176.5607991095056
 30
0.0
 10
69.14065482212456
 20
-176.2621093309345
 30
0.0
 10
68.53707409310879
 20
-176.2621093309345
 30
0.0
 10
67.93573267615844
 20
-176.2621093309345
 30
0.0
 10
67.35609536076515
 20
-176.5607991095056
 30
0.0
 10
66.79919567557451
 20
-177.0231309236262
 30
0.0
  0
SPLINE
  5
42E
330
1F
100
AcDbEntity
  8
Capa 1
 62
     7
420
 16777215
370
     9
100
AcDbSpline
210
0.0
220
0.0
230
1.0
 70
     8
 71
     3
 72
    11
 73
     7
 74
     0
 42
0.0000000001
 43
0.0000000001
 40
0.0
 40
0.0
 40
0.0
 40
0.0
 40
1.0
 40
1.0
 40
1.0
 40
2.0
 40
2.0
 40
2.0
 40
2.0
 10
66.79919567557451
 20
-180.8203151674686
 30
0.0
 10
67.35609536076515
 20
-181.2847140388802
 30
0.0
 10
67.93573267615844
 20
-181.5796142124176
 30
0.0
 10
68.53707409310879
 20
-181.5796142124176
 30
0.0
 10
69.14065482212456
 20
-181.5796142124176
 30
0.0
 10
69.72442625210014
 20
-181.2847140388802
 30
0.0
 10
70.2821872111621
 20
-180.8203151674686
 30
0.0
  0
SPLINE
  5
42F
330
1F
100
AcDbEntity
  8
Capa 1
 62
     7
420
 16777215
370
     9
100
AcDbSpline
210
0.0
220
0.0
230
1.0
 70
     8
 71
     3
 72
    11
 73
     7
 74
     0
 42
0.0000000001
 43
0.0000000001
 40
0.0
 40
0.0
 40
0.0
 40
0.0
 40
1.0
 40
1.0
 40
1.0
 40
2.0
 40
2.0
 40
2.0
 40
2.0
 10
78.59813094823241
 20
-177.0231309236262
 30
0.0
 10
77.49638941204952
 20
-176.5628661667968
 30
0.0
 10
76.31489391538308
 20
-176.2621093309345
 30
0.0
 10
75.10962725986843
 20
-176.2621093309345
 30
0.0
 10
73.91228432396984
 20
-176.2641763882256
 30
0.0
 10
72.72475991020423
 20
-176.5687228291217
 30
0.0
 10
71.63300915092856
 20
-177.0231309236262
 30
0.0
  0
SPLINE
  5
430
330
1F
100
AcDbEntity
  8
Capa 1
 62
     7
420
 16777215
370
     9
100
AcDbSpline
210
0.0
220
0.0
230
1.0
 70
     8
 71
     3
 72
    11
 73
     7
 74
     0
 42
0.0000000001
 43
0.0000000001
 40
0.0
 40
0.0
 40
0.0
 40
0.0
 40
1.0
 40
1.0
 40
1.0
 40
2.0
 40
2.0
 40
2.0
 40
2.0
 10
83.43935137887975
 20
-177.0231309236262
 30
0.0
 10
82.8815904198178
 20
-176.5607991095056
 30
0.0
 10
82.29592418732533
 20
-176.2621093309345
 30
0.0
 10
81.69406600605218
 20
-176.2621093309345
 30
0.0
 10
81.09255233432756
 20
-176.2621093309345
 30
0.0
 10
80.51274276416001
 20
-176.5607991095056
 30
0.0
 10
79.95687660761494
 20
-177.0231309236262
 30
0.0
  0
SPLINE
  5
431
330
1F
100
AcDbEntity
  8
Capa 1
 62
     7
420
 16777215
370
     9
100
AcDbSpline
210
0.0
220
0.0
230
1.0
 70
     8
 71
     3
 72
    11
 73
     7
 74
     0
 42
0.0000000001
 43
0.0000000001
 40
0.0
 40
0.0
 40
0.0
 40
0.0
 40
1.0
 40
1.0
 40
1.0
 40
2.0
 40
2.0
 40
2.0
 40
2.0
 10
70.2821872111621
 20
-177.0231309236262
 30
0.0
 10
69.72442625210014
 20
-176.5607991095056
 30
0.0
 10
69.14065482212456
 20
-176.2621093309345
 30
0.0
 10
68.53707409310879
 20
-176.2621093309345
 30
0.0
 10
67.93573267615844
 20
-176.2621093309345
 30
0.0
 10
67.35609536076515
 20
-176.5607991095056
 30
0.0
 10
66.79919567557451
 20
-177.0231309236262
 30
0.0
  0
SPLINE
  5
432
330
1F
100
AcDbEntity
  8
Capa 1
 62
     7
420
 16777215
370
     9
100
AcDbSpline
210
0.0
220
0.0
230
1.0
 70
     8
 71
     3
 72
    11
 73
     7
 74
     0
 42
0.0000000001
 43
0.0000000001
 40
0.0
 40
0.0
 40
0.0
 40
0.0
 40
1.0
 40
1.0
 40
1.0
 40
2.0
 40
2.0
 40
2.0
 40
2.0
 10
66.79919567557451
 20
-180.8203151674686
 30
0.0
 10
67.35609536076515
 20
-181.2847140388802
 30
0.0
 10
67.93573267615844
 20
-181.5796142124176
 30
0.0
 10
68.53707409310879
 20
-181.5796142124176
 30
0.0
 10
69.14065482212456
 20
-181.5796142124176
 30
0.0
 10
69.72442625210014
 20
-181.2847140388802
 30
0.0
 10
70.2821872111621
 20
-180.8203151674686
 30
0.0
  0
SPLINE
  5
433
330
1F
100
AcDbEntity
  8
Capa 1
 62
     7
420
 16777215
370
     9
100
AcDbSpline
210
0.0
220
0.0
230
1.0
 70
     8
 71
     3
 72
    11
 73
     7
 74
     0
 42
0.0000000001
 43
0.0000000001
 40
0.0
 40
0.0
 40
0.0
 40
0.0
 40
1.0
 40
1.0
 40
1.0
 40
2.0
 40
2.0
 40
2.0
 40
2.0
 10
79.95687660761494
 20
-180.8203151674686
 30
0.0
 10
80.51274276416001
 20
-181.2847140388802
 30
0.0
 10
81.09255233432756
 20
-181.5796142124176
 30
0.0
 10
81.69406600605218
 20
-181.5796142124176
 30
0.0
 10
82.29592418732533
 20
-181.5796142124176
 30
0.0
 10
82.8815904198178
 20
-181.2847140388802
 30
0.0
 10
83.43935137887975
 20
-180.8203151674686
 30
0.0
  0
SPLINE
  5
434
330
1F
100
AcDbEntity
  8
Capa 1
 62
     7
420
 16777215
370
     9
100
AcDbSpline
210
0.0
220
0.0
230
1.0
 70
     8
 71
     3
 72
    11
 73
     7
 74
     0
 42
0.0000000001
 43
0.0000000001
 40
0.0
 40
0.0
 40
0.0
 40
0.0
 40
1.0
 40
1.0
 40
1.0
 40
2.0
 40
2.0
 40
2.0
 40
2.0
 10
71.63300915092856
 20
-180.8203151674686
 30
0.0
 10
72.72475991020423
 20
-181.2726562046819
 30
0.0
 10
73.91228432396984
 20
-181.5796142124176
 30
0.0
 10
75.10962725986843
 20
-181.5796142124176
 30
0.0
 10
76.31489391538308
 20
-181.5816812697088
 30
0.0
 10
77.49638941204952
 20
-181.2805799242979
 30
0.0
 10
78.59813094823241
 20
-180.8203151674686
 30
0.0
  0
SPLINE
  5
435
330
1F
100
AcDbEntity
  8
Capa 1
 62
     7
420
 16777215
370
     9
100
AcDbSpline
210
0.0
220
0.0
230
1.0
 70
     8
 71
     3
 72
    11
 73
     7
 74
     0
 42
0.0000000001
 43
0.0000000001
 40
0.0
 40
0.0
 40
0.0
 40
0.0
 40
1.0
 40
1.0
 40
1.0
 40
2.0
 40
2.0
 40
2.0
 40
2.0
 10
7.224192977794647
 20
-177.0231309236262
 30
0.0
 10
6.66729329260401
 20
-176.5607991095056
 30
0.0
 10
6.087483722436462
 20
-176.2621093309345
 30
0.0
 10
5.485797795937579
 20
-176.2621093309345
 30
0.0
 10
4.883250595567382
 20
-176.2621093309345
 30
0.0
 10
4.298445636946222
 20
-176.5607991095056
 30
0.0
 10
3.741545951755586
 20
-177.0231309236262
 30
0.0
  0
SPLINE
  5
436
330
1F
100
AcDbEntity
  8
Capa 1
 62
     7
420
 16777215
370
     9
100
AcDbSpline
210
0.0
220
0.0
230
1.0
 70
     8
 71
     3
 72
    11
 73
     7
 74
     0
 42
0.0000000001
 43
0.0000000001
 40
0.0
 40
0.0
 40
0.0
 40
0.0
 40
1.0
 40
1.0
 40
1.0
 40
2.0
 40
2.0
 40
2.0
 40
2.0
 10
3.741545951755586
 20
-180.8203151674686
 30
0.0
 10
4.298445636946222
 20
-181.2847140388802
 30
0.0
 10
4.883250595567382
 20
-181.5796142124176
 30
0.0
 10
5.485797795937579
 20
-181.5796142124176
 30
0.0
 10
6.087483722436462
 20
-181.5796142124176
 30
0.0
 10
6.66729329260401
 20
-181.2847140388802
 30
0.0
 10
7.224192977794647
 20
-180.8203151674686
 30
0.0
  0
SPLINE
  5
437
330
1F
100
AcDbEntity
  8
Capa 1
 62
     7
420
 16777215
370
     9
100
AcDbSpline
210
0.0
220
0.0
230
1.0
 70
     8
 71
     3
 72
     8
 73
     4
 74
     0
 42
0.0000000001
 43
0.0000000001
 40
0.0
 40
0.0
 40
0.0
 40
0.0
 40
1.0
 40
1.0
 40
1.0
 40
1.0
 10
62.43115910982624
 20
-182.4660372807724
 30
0.0
 10
64.03881291801808
 20
-182.4660372807724
 30
0.0
 10
65.63475340156006
 20
-182.3406358051093
 30
0.0
 10
67.21949732477499
 20
-182.0874212869434
 30
0.0
  0
SPLINE
  5
438
330
1F
100
AcDbEntity
  8
Capa 1
 62
     7
420
 16777215
370
     9
100
AcDbSpline
210
0.0
220
0.0
230
1.0
 70
     8
 71
     3
 72
    17
 73
    13
 74
     0
 42
0.0000000001
 43
0.0000000001
 40
0.0
 40
0.0
 40
0.0
 40
0.0
 40
1.0
 40
1.0
 40
1.0
 40
2.0
 40
2.0
 40
2.0
 40
3.0
 40
3.0
 40
3.0
 40
4.0
 40
4.0
 40
4.0
 40
4.0
 10
75.85480141332798
 20
-190.4252413803451
 30
0.0
 10
77.38890243290972
 20
-189.7320881687128
 30
0.0
 10
78.74161917519307
 20
-188.8573784250079
 30
0.0
 10
79.77962644489885
 20
-188.0126410120246
 30
0.0
 10
80.30362546820535
 20
-187.5923393628241
 30
0.0
 10
80.73977455663798
 20
-187.1858180955647
 30
0.0
 10
81.07463783780426
 20
-186.8512993239469
 30
0.0
 10
81.41122366671317
 20
-186.5164360427806
 30
0.0
 10
81.63239879686621
 20
-186.259431919581
 30
0.0
 10
81.68820934372725
 20
-186.1819172711629
 30
0.0
 10
81.69406600605218
 20
-186.1719264942556
 30
0.0
 10
81.70026717792562
 20
-186.1657253223822
 30
0.0
 10
81.70026717792562
 20
-186.1640027746396
 30
0.0
  0
SPLINE
  5
439
330
1F
100
AcDbEntity
  8
Capa 1
 62
     7
420
 16777215
370
     9
100
AcDbSpline
210
0.0
220
0.0
230
1.0
 70
     8
 71
     3
 72
    11
 73
     7
 74
     0
 42
0.0000000001
 43
0.0000000001
 40
0.0
 40
0.0
 40
0.0
 40
0.0
 40
1.0
 40
1.0
 40
1.0
 40
2.0
 40
2.0
 40
2.0
 40
2.0
 10
7.224192977794647
 20
-177.0231309236262
 30
0.0
 10
6.66729329260401
 20
-176.5607991095056
 30
0.0
 10
6.087483722436462
 20
-176.2621093309345
 30
0.0
 10
5.485797795937579
 20
-176.2621093309345
 30
0.0
 10
4.883250595567382
 20
-176.2621093309345
 30
0.0
 10
4.298445636946222
 20
-176.5607991095056
 30
0.0
 10
3.741545951755586
 20
-177.0231309236262
 30
0.0
  0
SPLINE
  5
43A
330
1F
100
AcDbEntity
  8
Capa 1
 62
     7
420
 16777215
370
     9
100
AcDbSpline
210
0.0
220
0.0
230
1.0
 70
     8
 71
     3
 72
    11
 73
     7
 74
     0
 42
0.0000000001
 43
0.0000000001
 40
0.0
 40
0.0
 40
0.0
 40
0.0
 40
1.0
 40
1.0
 40
1.0
 40
2.0
 40
2.0
 40
2.0
 40
2.0
 10
3.741545951755586
 20
-180.8203151674686
 30
0.0
 10
4.298445636946222
 20
-181.2847140388802
 30
0.0
 10
4.883250595567382
 20
-181.5796142124176
 30
0.0
 10
5.485797795937579
 20
-181.5796142124176
 30
0.0
 10
6.087483722436462
 20
-181.5796142124176
 30
0.0
 10
6.66729329260401
 20
-181.2847140388802
 30
0.0
 10
7.224192977794647
 20
-180.8203151674686
 30
0.0
  0
SPLINE
  5
43B
330
1F
100
AcDbEntity
  8
Capa 1
 62
     7
420
 16777215
370
     9
100
AcDbSpline
210
0.0
220
0.0
230
1.0
 70
     8
 71
     3
 72
    11
 73
     7
 74
     0
 42
0.0000000001
 43
0.0000000001
 40
0.0
 40
0.0
 40
0.0
 40
0.0
 40
1.0
 40
1.0
 40
1.0
 40
2.0
 40
2.0
 40
2.0
 40
2.0
 10
3.741545951755586
 20
-180.8203151674686
 30
0.0
 10
4.298445636946222
 20
-181.2847140388802
 30
0.0
 10
4.883250595567382
 20
-181.5796142124176
 30
0.0
 10
5.485797795937579
 20
-181.5796142124176
 30
0.0
 10
6.087483722436462
 20
-181.5796142124176
 30
0.0
 10
6.66729329260401
 20
-181.2847140388802
 30
0.0
 10
7.224192977794647
 20
-180.8203151674686
 30
0.0
  0
SPLINE
  5
43C
330
1F
100
AcDbEntity
  8
Capa 1
 62
     7
420
 16777215
370
     9
100
AcDbSpline
210
0.0
220
0.0
230
1.0
 70
     8
 71
     3
 72
    11
 73
     7
 74
     0
 42
0.0000000001
 43
0.0000000001
 40
0.0
 40
0.0
 40
0.0
 40
0.0
 40
1.0
 40
1.0
 40
1.0
 40
2.0
 40
2.0
 40
2.0
 40
2.0
 10
7.224192977794647
 20
-177.0231309236262
 30
0.0
 10
6.66729329260401
 20
-176.5607991095056
 30
0.0
 10
6.087483722436462
 20
-176.2621093309345
 30
0.0
 10
5.485797795937579
 20
-176.2621093309345
 30
0.0
 10
4.883250595567382
 20
-176.2621093309345
 30
0.0
 10
4.298445636946222
 20
-176.5607991095056
 30
0.0
 10
3.741545951755586
 20
-177.0231309236262
 30
0.0
  0
SPLINE
  5
43D
330
1F
100
AcDbEntity
  8
Capa 1
 62
     7
420
 16777215
370
     9
100
AcDbSpline
210
0.0
220
0.0
230
1.0
 70
     8
 71
     3
 72
    11
 73
     7
 74
     0
 42
0.0000000001
 43
0.0000000001
 40
0.0
 40
0.0
 40
0.0
 40
0.0
 40
1.0
 40
1.0
 40
1.0
 40
2.0
 40
2.0
 40
2.0
 40
2.0
 10
-5.932971189923007
 20
-177.0231309236262
 30
0.0
 10
-6.489870875113644
 20
-176.5607991095056
 30
0.0
 10
-7.069680445281191
 20
-176.2621093309345
 30
0.0
 10
-7.671366371780075
 20
-176.2621093309345
 30
0.0
 10
-8.274085826924534
 20
-176.2621093309345
 30
0.0
 10
-8.858718530771432
 20
-176.5607991095056
 30
0.0
 10
-9.415618215962068
 20
-177.0231309236262
 30
0.0
  0
SPLINE
  5
43E
330
1F
100
AcDbEntity
  8
Capa 1
 62
     7
420
 16777215
370
     9
100
AcDbSpline
210
0.0
220
0.0
230
1.0
 70
     8
 71
     3
 72
    11
 73
     7
 74
     0
 42
0.0000000001
 43
0.0000000001
 40
0.0
 40
0.0
 40
0.0
 40
0.0
 40
1.0
 40
1.0
 40
1.0
 40
2.0
 40
2.0
 40
2.0
 40
2.0
 10
-9.415618215962068
 20
-180.8203151674686
 30
0.0
 10
-8.858718530771432
 20
-181.2847140388802
 30
0.0
 10
-8.274085826924534
 20
-181.5796142124176
 30
0.0
 10
-7.671366371780075
 20
-181.5796142124176
 30
0.0
 10
-7.069680445281191
 20
-181.5796142124176
 30
0.0
 10
-6.489870875113644
 20
-181.2847140388802
 30
0.0
 10
-5.932971189923007
 20
-180.8203151674686
 30
0.0
  0
SPLINE
  5
43F
330
1F
100
AcDbEntity
  8
Capa 1
 62
     7
420
 16777215
370
     9
100
AcDbSpline
210
0.0
220
0.0
230
1.0
 70
     8
 71
     3
 72
    11
 73
     7
 74
     0
 42
0.0000000001
 43
0.0000000001
 40
0.0
 40
0.0
 40
0.0
 40
0.0
 40
1.0
 40
1.0
 40
1.0
 40
2.0
 40
2.0
 40
2.0
 40
2.0
 10
2.389862738117812
 20
-177.0231309236262
 30
0.0
 10
1.281058756190152
 20
-176.5628661667968
 30
0.0
 10
0.0997355142979828
 20
-176.2621093309345
 30
0.0
 10
-1.098640950246173
 20
-176.2621093309345
 30
0.0
 10
-2.303046331889516
 20
-176.2641763882256
 30
0.0
 10
-3.490398490880873
 20
-176.5687228291217
 30
0.0
 10
-4.575259059186046
 20
-177.0231309236262
 30
0.0
  0
SPLINE
  5
440
330
1F
100
AcDbEntity
  8
Capa 1
 62
     7
420
 16777215
370
     9
100
AcDbSpline
210
0.0
220
0.0
230
1.0
 70
     8
 71
     3
 72
    11
 73
     7
 74
     0
 42
0.0000000001
 43
0.0000000001
 40
0.0
 40
0.0
 40
0.0
 40
0.0
 40
1.0
 40
1.0
 40
1.0
 40
2.0
 40
2.0
 40
2.0
 40
2.0
 10
-4.575259059186046
 20
-180.8203151674686
 30
0.0
 10
-3.490398490880873
 20
-181.2726562046819
 30
0.0
 10
-2.303046331889516
 20
-181.5796142124176
 30
0.0
 10
-1.098640950246173
 20
-181.5796142124176
 30
0.0
 10
0.0997355142979828
 20
-181.5816812697088
 30
0.0
 10
1.281058756190152
 20
-181.2805799242979
 30
0.0
 10
2.389862738117812
 20
-180.8203151674686
 30
0.0
  0
SPLINE
  5
441
330
1F
100
AcDbEntity
  8
Capa 1
 62
     7
420
 16777215
370
     9
100
AcDbSpline
210
0.0
220
0.0
230
1.0
 70
     8
 71
     3
 72
    17
 73
    13
 74
     0
 42
0.0000000001
 43
0.0000000001
 40
0.0
 40
0.0
 40
0.0
 40
0.0
 40
1.0
 40
1.0
 40
1.0
 40
2.0
 40
2.0
 40
2.0
 40
3.0
 40
3.0
 40
3.0
 40
4.0
 40
4.0
 40
4.0
 40
4.0
 10
-7.677223034105
 20
-186.1578016027661
 30
0.0
 10
-7.677223034105
 20
-186.1619357173484
 30
0.0
 10
-7.671366371780075
 20
-186.1698594369645
 30
0.0
 10
-7.665337454680889
 20
-186.1819172711629
 30
0.0
 10
-7.608493379174265
 20
-186.2573648622898
 30
0.0
 10
-7.387490503795489
 20
-186.5164360427806
 30
0.0
 10
-7.052799477403467
 20
-186.8512993239469
 30
0.0
 10
-6.722931584690795
 20
-187.1837510382735
 30
0.0
 10
-6.279720050513403
 20
-187.5923393628241
 30
0.0
 10
-5.762783472951665
 20
-188.0105739547335
 30
0.0
 10
-4.72270914595474
 20
-188.8515217626829
 30
0.0
 10
-3.364997015217779
 20
-189.7320881687128
 30
0.0
 10
-1.831929524281601
 20
-190.4252413803451
 30
0.0
  0
SPLINE
  5
442
330
1F
100
AcDbEntity
  8
Capa 1
 62
     7
420
 16777215
370
     9
100
AcDbSpline
210
0.0
220
0.0
230
1.0
 70
     8
 71
     3
 72
    11
 73
     7
 74
     0
 42
0.0000000001
 43
0.0000000001
 40
0.0
 40
0.0
 40
0.0
 40
0.0
 40
1.0
 40
1.0
 40
1.0
 40
2.0
 40
2.0
 40
2.0
 40
2.0
 10
2.389862738117812
 20
-177.0231309236262
 30
0.0
 10
1.281058756190152
 20
-176.5628661667968
 30
0.0
 10
0.0997355142979828
 20
-176.2621093309345
 30
0.0
 10
-1.098640950246173
 20
-176.2621093309345
 30
0.0
 10
-2.303046331889516
 20
-176.2641763882256
 30
0.0
 10
-3.490398490880873
 20
-176.5687228291217
 30
0.0
 10
-4.575259059186046
 20
-177.0231309236262
 30
0.0
  0
SPLINE
  5
443
330
1F
100
AcDbEntity
  8
Capa 1
 62
     7
420
 16777215
370
     9
100
AcDbSpline
210
0.0
220
0.0
230
1.0
 70
     8
 71
     3
 72
    11
 73
     7
 74
     0
 42
0.0000000001
 43
0.0000000001
 40
0.0
 40
0.0
 40
0.0
 40
0.0
 40
1.0
 40
1.0
 40
1.0
 40
2.0
 40
2.0
 40
2.0
 40
2.0
 10
-5.932971189923007
 20
-177.0231309236262
 30
0.0
 10
-6.489870875113644
 20
-176.5607991095056
 30
0.0
 10
-7.069680445281191
 20
-176.2621093309345
 30
0.0
 10
-7.671366371780075
 20
-176.2621093309345
 30
0.0
 10
-8.274085826924534
 20
-176.2621093309345
 30
0.0
 10
-8.858718530771432
 20
-176.5607991095056
 30
0.0
 10
-9.415618215962068
 20
-177.0231309236262
 30
0.0
  0
SPLINE
  5
444
330
1F
100
AcDbEntity
  8
Capa 1
 62
     7
420
 16777215
370
     9
100
AcDbSpline
210
0.0
220
0.0
230
1.0
 70
     8
 71
     3
 72
     8
 73
     4
 74
     0
 42
0.0000000001
 43
0.0000000001
 40
0.0
 40
0.0
 40
0.0
 40
0.0
 40
1.0
 40
1.0
 40
1.0
 40
1.0
 10
6.803719073819904
 20
-182.0874212869434
 30
0.0
 10
8.388635251809092
 20
-182.3406358051093
 30
0.0
 10
9.98457573535108
 20
-182.4660372807724
 30
0.0
 10
11.59222954354292
 20
-182.4660372807724
 30
0.0
  0
SPLINE
  5
445
330
1F
100
AcDbEntity
  8
Capa 1
 62
     7
420
 16777215
370
     9
100
AcDbSpline
210
0.0
220
0.0
230
1.0
 70
     8
 71
     3
 72
    11
 73
     7
 74
     0
 42
0.0000000001
 43
0.0000000001
 40
0.0
 40
0.0
 40
0.0
 40
0.0
 40
1.0
 40
1.0
 40
1.0
 40
2.0
 40
2.0
 40
2.0
 40
2.0
 10
-4.575259059186046
 20
-180.8203151674686
 30
0.0
 10
-3.490398490880873
 20
-181.2726562046819
 30
0.0
 10
-2.303046331889516
 20
-181.5796142124176
 30
0.0
 10
-1.098640950246173
 20
-181.5796142124176
 30
0.0
 10
0.0997355142979828
 20
-181.5816812697088
 30
0.0
 10
1.281058756190152
 20
-181.2805799242979
 30
0.0
 10
2.389862738117812
 20
-180.8203151674686
 30
0.0
  0
SPLINE
  5
446
330
1F
100
AcDbEntity
  8
Capa 1
 62
     7
420
 16777215
370
     9
100
AcDbSpline
210
0.0
220
0.0
230
1.0
 70
     8
 71
     3
 72
    11
 73
     7
 74
     0
 42
0.0000000001
 43
0.0000000001
 40
0.0
 40
0.0
 40
0.0
 40
0.0
 40
1.0
 40
1.0
 40
1.0
 40
2.0
 40
2.0
 40
2.0
 40
2.0
 10
-9.415618215962068
 20
-180.8203151674686
 30
0.0
 10
-8.858718530771432
 20
-181.2847140388802
 30
0.0
 10
-8.274085826924534
 20
-181.5796142124176
 30
0.0
 10
-7.671366371780075
 20
-181.5796142124176
 30
0.0
 10
-7.069680445281191
 20
-181.5796142124176
 30
0.0
 10
-6.489870875113644
 20
-181.2847140388802
 30
0.0
 10
-5.932971189923007
 20
-180.8203151674686
 30
0.0
  0
SPLINE
  5
447
330
1F
100
AcDbEntity
  8
Capa 1
 62
     7
420
 16777215
370
     9
100
AcDbSpline
210
0.0
220
0.0
230
1.0
 70
     8
 71
     3
 72
    11
 73
     7
 74
     0
 42
0.0000000001
 43
0.0000000001
 40
0.0
 40
0.0
 40
0.0
 40
0.0
 40
1.0
 40
1.0
 40
1.0
 40
2.0
 40
2.0
 40
2.0
 40
2.0
 10
-5.932971189923007
 20
-177.0231309236262
 30
0.0
 10
-6.489870875113644
 20
-176.5607991095056
 30
0.0
 10
-7.069680445281191
 20
-176.2621093309345
 30
0.0
 10
-7.671366371780075
 20
-176.2621093309345
 30
0.0
 10
-8.274085826924534
 20
-176.2621093309345
 30
0.0
 10
-8.858718530771432
 20
-176.5607991095056
 30
0.0
 10
-9.415618215962068
 20
-177.0231309236262
 30
0.0
  0
SPLINE
  5
448
330
1F
100
AcDbEntity
  8
Capa 1
 62
     7
420
 16777215
370
     9
100
AcDbSpline
210
0.0
220
0.0
230
1.0
 70
     8
 71
     3
 72
    11
 73
     7
 74
     0
 42
0.0000000001
 43
0.0000000001
 40
0.0
 40
0.0
 40
0.0
 40
0.0
 40
1.0
 40
1.0
 40
1.0
 40
2.0
 40
2.0
 40
2.0
 40
2.0
 10
-9.415618215962068
 20
-180.8203151674686
 30
0.0
 10
-8.858718530771432
 20
-181.2847140388802
 30
0.0
 10
-8.274085826924534
 20
-181.5796142124176
 30
0.0
 10
-7.671366371780075
 20
-181.5796142124176
 30
0.0
 10
-7.069680445281191
 20
-181.5796142124176
 30
0.0
 10
-6.489870875113644
 20
-181.2847140388802
 30
0.0
 10
-5.932971189923007
 20
-180.8203151674686
 30
0.0
  0
SPLINE
  5
449
330
1F
100
AcDbEntity
  8
Capa 1
 62
     7
420
 16777215
370
     9
100
AcDbSpline
210
0.0
220
0.0
230
1.0
 70
     8
 71
     3
 72
    11
 73
     7
 74
     0
 42
0.0000000001
 43
0.0000000001
 40
0.0
 40
0.0
 40
0.0
 40
0.0
 40
1.0
 40
1.0
 40
1.0
 40
2.0
 40
2.0
 40
2.0
 40
2.0
 10
2.389862738117812
 20
-177.0231309236262
 30
0.0
 10
1.281058756190152
 20
-176.5628661667968
 30
0.0
 10
0.0997355142979828
 20
-176.2621093309345
 30
0.0
 10
-1.098640950246173
 20
-176.2621093309345
 30
0.0
 10
-2.303046331889516
 20
-176.2641763882256
 30
0.0
 10
-3.490398490880873
 20
-176.5687228291217
 30
0.0
 10
-4.575259059186046
 20
-177.0231309236262
 30
0.0
  0
SPLINE
  5
44A
330
1F
100
AcDbEntity
  8
Capa 1
 62
     7
420
 16777215
370
     9
100
AcDbSpline
210
0.0
220
0.0
230
1.0
 70
     8
 71
     3
 72
    11
 73
     7
 74
     0
 42
0.0000000001
 43
0.0000000001
 40
0.0
 40
0.0
 40
0.0
 40
0.0
 40
1.0
 40
1.0
 40
1.0
 40
2.0
 40
2.0
 40
2.0
 40
2.0
 10
-4.575259059186046
 20
-180.8203151674686
 30
0.0
 10
-3.490398490880873
 20
-181.2726562046819
 30
0.0
 10
-2.303046331889516
 20
-181.5796142124176
 30
0.0
 10
-1.098640950246173
 20
-181.5796142124176
 30
0.0
 10
0.0997355142979828
 20
-181.5816812697088
 30
0.0
 10
1.281058756190152
 20
-181.2805799242979
 30
0.0
 10
2.389862738117812
 20
-180.8203151674686
 30
0.0
  0
POLYLINE
  5
44B
330
1F
100
AcDbEntity
  8
Capa 1
 62
     7
420
 16777215
370
     9
100
AcDb2dPolyline
 66
     1
 10
0.0
 20
0.0
 30
0.0
  0
VERTEX
  5
44C
330
44B
100
AcDbEntity
  8
Capa 1
 62
     7
420
 16777215
370
     9
100
AcDbVertex
100
AcDb2dVertex
 10
150.6784857479207
 20
-170.3014051223552
 30
0.0
  0
VERTEX
  5
44D
330
44B
100
AcDbEntity
  8
Capa 1
 62
     7
420
 16777215
370
     9
100
AcDbVertex
100
AcDb2dVertex
 10
139.5394585154624
 20
-170.3014051223552
 30
0.0
  0
SEQEND
  5
44E
330
44B
100
AcDbEntity
  8
Capa 1
370
     9
  0
POLYLINE
  5
44F
330
1F
100
AcDbEntity
  8
Capa 1
 62
     7
420
 16777215
370
     9
100
AcDb2dPolyline
 66
     1
 10
0.0
 20
0.0
 30
0.0
  0
VERTEX
  5
450
330
44F
100
AcDbEntity
  8
Capa 1
 62
     7
420
 16777215
370
     9
100
AcDbVertex
100
AcDb2dVertex
 10
138.527289461896
 20
-169.2892360687888
 30
0.0
  0
VERTEX
  5
451
330
44F
100
AcDbEntity
  8
Capa 1
 62
     7
420
 16777215
370
     9
100
AcDbVertex
100
AcDb2dVertex
 10
138.527289461896
 20
-161.1825818824474
 30
0.0
  0
SEQEND
  5
452
330
44F
100
AcDbEntity
  8
Capa 1
370
     9
  0
POLYLINE
  5
453
330
1F
100
AcDbEntity
  8
Capa 1
 62
     7
420
 16777215
370
     9
100
AcDb2dPolyline
 66
     1
 10
0.0
 20
0.0
 30
0.0
  0
VERTEX
  5
454
330
453
100
AcDbEntity
  8
Capa 1
 62
     7
420
 16777215
370
     9
100
AcDbVertex
100
AcDb2dVertex
 10
139.5394585154624
 20
-160.1724798861722
 30
0.0
  0
VERTEX
  5
455
330
453
100
AcDbEntity
  8
Capa 1
 62
     7
420
 16777215
370
     9
100
AcDbVertex
100
AcDb2dVertex
 10
150.6784857479207
 20
-160.1724798861722
 30
0.0
  0
SEQEND
  5
456
330
453
100
AcDbEntity
  8
Capa 1
370
     9
  0
POLYLINE
  5
457
330
1F
100
AcDbEntity
  8
Capa 1
 62
     7
420
 16777215
370
     9
100
AcDb2dPolyline
 66
     1
 10
0.0
 20
0.0
 30
0.0
  0
VERTEX
  5
458
330
457
100
AcDbEntity
  8
Capa 1
 62
     7
420
 16777215
370
     9
100
AcDbVertex
100
AcDb2dVertex
 10
139.5394585154624
 20
-160.1724798861722
 30
0.0
  0
VERTEX
  5
459
330
457
100
AcDbEntity
  8
Capa 1
 62
     7
420
 16777215
370
     9
100
AcDbVertex
100
AcDb2dVertex
 10
138.527289461896
 20
-161.1825818824474
 30
0.0
  0
SEQEND
  5
45A
330
457
100
AcDbEntity
  8
Capa 1
370
     9
  0
POLYLINE
  5
45B
330
1F
100
AcDbEntity
  8
Capa 1
 62
     7
420
 16777215
370
     9
100
AcDb2dPolyline
 66
     1
 10
0.0
 20
0.0
 30
0.0
  0
VERTEX
  5
45C
330
45B
100
AcDbEntity
  8
Capa 1
 62
     7
420
 16777215
370
     9
100
AcDbVertex
100
AcDb2dVertex
 10
139.5394585154624
 20
-170.3014051223552
 30
0.0
  0
VERTEX
  5
45D
330
45B
100
AcDbEntity
  8
Capa 1
 62
     7
420
 16777215
370
     9
100
AcDbVertex
100
AcDb2dVertex
 10
138.527289461896
 20
-169.2892360687888
 30
0.0
  0
SEQEND
  5
45E
330
45B
100
AcDbEntity
  8
Capa 1
370
     9
  0
POLYLINE
  5
45F
330
1F
100
AcDbEntity
  8
Capa 1
 62
     7
420
 16777215
370
     9
100
AcDb2dPolyline
 66
     1
 10
0.0
 20
0.0
 30
0.0
  0
VERTEX
  5
460
330
45F
100
AcDbEntity
  8
Capa 1
 62
     7
420
 16777215
370
     9
100
AcDbVertex
100
AcDb2dVertex
 10
139.5394585154624
 20
-160.1724798861722
 30
0.0
  0
VERTEX
  5
461
330
45F
100
AcDbEntity
  8
Capa 1
 62
     7
420
 16777215
370
     9
100
AcDbVertex
100
AcDb2dVertex
 10
139.5394585154624
 20
-170.3014051223552
 30
0.0
  0
SEQEND
  5
462
330
45F
100
AcDbEntity
  8
Capa 1
370
     9
  0
POLYLINE
  5
463
330
1F
100
AcDbEntity
  8
Capa 1
 62
     7
420
 16777215
370
     9
100
AcDb2dPolyline
 66
     1
 10
0.0
 20
0.0
 30
0.0
  0
VERTEX
  5
464
330
463
100
AcDbEntity
  8
Capa 1
 62
     7
420
 16777215
370
     9
100
AcDbVertex
100
AcDb2dVertex
 10
69.70840655809374
 20
-166.3881211606599
 30
0.0
  0
VERTEX
  5
465
330
463
100
AcDbEntity
  8
Capa 1
 62
     7
420
 16777215
370
     9
100
AcDbVertex
100
AcDb2dVertex
 10
69.70840655809374
 20
-155.2490939282016
 30
0.0
  0
SEQEND
  5
466
330
463
100
AcDbEntity
  8
Capa 1
370
     9
  0
POLYLINE
  5
467
330
1F
100
AcDbEntity
  8
Capa 1
 62
     7
420
 16777215
370
     9
100
AcDb2dPolyline
 66
     1
 10
0.0
 20
0.0
 30
0.0
  0
VERTEX
  5
468
330
467
100
AcDbEntity
  8
Capa 1
 62
     7
420
 16777215
370
     9
100
AcDbVertex
100
AcDb2dVertex
 10
70.71850855436898
 20
-154.2369248746352
 30
0.0
  0
VERTEX
  5
469
330
467
100
AcDbEntity
  8
Capa 1
 62
     7
420
 16777215
370
     9
100
AcDbVertex
100
AcDb2dVertex
 10
78.82533499548464
 20
-154.2369248746352
 30
0.0
  0
SEQEND
  5
46A
330
467
100
AcDbEntity
  8
Capa 1
370
     9
  0
POLYLINE
  5
46B
330
1F
100
AcDbEntity
  8
Capa 1
 62
     7
420
 16777215
370
     9
100
AcDb2dPolyline
 66
     1
 10
0.0
 20
0.0
 30
0.0
  0
VERTEX
  5
46C
330
46B
100
AcDbEntity
  8
Capa 1
 62
     7
420
 16777215
370
     9
100
AcDbVertex
100
AcDb2dVertex
 10
79.83733179427678
 20
-155.2490939282016
 30
0.0
  0
VERTEX
  5
46D
330
46B
100
AcDbEntity
  8
Capa 1
 62
     7
420
 16777215
370
     9
100
AcDbVertex
100
AcDb2dVertex
 10
79.83733179427678
 20
-166.3881211606599
 30
0.0
  0
SEQEND
  5
46E
330
46B
100
AcDbEntity
  8
Capa 1
370
     9
  0
POLYLINE
  5
46F
330
1F
100
AcDbEntity
  8
Capa 1
 62
     7
420
 16777215
370
     9
100
AcDb2dPolyline
 66
     1
 10
0.0
 20
0.0
 30
0.0
  0
VERTEX
  5
470
330
46F
100
AcDbEntity
  8
Capa 1
 62
     7
420
 16777215
370
     9
100
AcDbVertex
100
AcDb2dVertex
 10
79.83733179427678
 20
-155.2490939282016
 30
0.0
  0
VERTEX
  5
471
330
46F
100
AcDbEntity
  8
Capa 1
 62
     7
420
 16777215
370
     9
100
AcDbVertex
100
AcDb2dVertex
 10
78.82533499548464
 20
-154.2369248746352
 30
0.0
  0
SEQEND
  5
472
330
46F
100
AcDbEntity
  8
Capa 1
370
     9
  0
POLYLINE
  5
473
330
1F
100
AcDbEntity
  8
Capa 1
 62
     7
420
 16777215
370
     9
100
AcDb2dPolyline
 66
     1
 10
0.0
 20
0.0
 30
0.0
  0
VERTEX
  5
474
330
473
100
AcDbEntity
  8
Capa 1
 62
     7
420
 16777215
370
     9
100
AcDbVertex
100
AcDb2dVertex
 10
69.70840655809374
 20
-155.2490939282016
 30
0.0
  0
VERTEX
  5
475
330
473
100
AcDbEntity
  8
Capa 1
 62
     7
420
 16777215
370
     9
100
AcDbVertex
100
AcDb2dVertex
 10
70.71850855436898
 20
-154.2369248746352
 30
0.0
  0
SEQEND
  5
476
330
473
100
AcDbEntity
  8
Capa 1
370
     9
  0
POLYLINE
  5
477
330
1F
100
AcDbEntity
  8
Capa 1
 62
     7
420
 16777215
370
     9
100
AcDb2dPolyline
 66
     1
 10
0.0
 20
0.0
 30
0.0
  0
VERTEX
  5
478
330
477
100
AcDbEntity
  8
Capa 1
 62
     7
420
 16777215
370
     9
100
AcDbVertex
100
AcDb2dVertex
 10
79.83733179427678
 20
-155.2490939282016
 30
0.0
  0
VERTEX
  5
479
330
477
100
AcDbEntity
  8
Capa 1
 62
     7
420
 16777215
370
     9
100
AcDbVertex
100
AcDb2dVertex
 10
69.70840655809374
 20
-155.2490939282016
 30
0.0
  0
SEQEND
  5
47A
330
477
100
AcDbEntity
  8
Capa 1
370
     9
  0
POLYLINE
  5
47B
330
1F
100
AcDbEntity
  8
Capa 1
 62
     7
420
 16777215
370
     9
100
AcDb2dPolyline
 66
     1
 10
0.0
 20
0.0
 30
0.0
  0
VERTEX
  5
47C
330
47B
100
AcDbEntity
  8
Capa 1
 62
     7
420
 16777215
370
     9
100
AcDbVertex
100
AcDb2dVertex
 10
-6.500895180666443
 20
-166.3881211606599
 30
0.0
  0
VERTEX
  5
47D
330
47B
100
AcDbEntity
  8
Capa 1
 62
     7
420
 16777215
370
     9
100
AcDbVertex
100
AcDb2dVertex
 10
-6.500895180666443
 20
-155.2490939282016
 30
0.0
  0
SEQEND
  5
47E
330
47B
100
AcDbEntity
  8
Capa 1
370
     9
  0
POLYLINE
  5
47F
330
1F
100
AcDbEntity
  8
Capa 1
 62
     7
420
 16777215
370
     9
100
AcDb2dPolyline
 66
     1
 10
0.0
 20
0.0
 30
0.0
  0
VERTEX
  5
480
330
47F
100
AcDbEntity
  8
Capa 1
 62
     7
420
 16777215
370
     9
100
AcDbVertex
100
AcDb2dVertex
 10
-5.489759655745616
 20
-154.2369248746352
 30
0.0
  0
VERTEX
  5
481
330
47F
100
AcDbEntity
  8
Capa 1
 62
     7
420
 16777215
370
     9
100
AcDbVertex
100
AcDb2dVertex
 10
2.611037868270852
 20
-154.2369248746352
 30
0.0
  0
SEQEND
  5
482
330
47F
100
AcDbEntity
  8
Capa 1
370
     9
  0
POLYLINE
  5
483
330
1F
100
AcDbEntity
  8
Capa 1
 62
     7
420
 16777215
370
     9
100
AcDb2dPolyline
 66
     1
 10
0.0
 20
0.0
 30
0.0
  0
VERTEX
  5
484
330
483
100
AcDbEntity
  8
Capa 1
 62
     7
420
 16777215
370
     9
100
AcDbVertex
100
AcDb2dVertex
 10
3.628030055516604
 20
-155.2490939282016
 30
0.0
  0
VERTEX
  5
485
330
483
100
AcDbEntity
  8
Capa 1
 62
     7
420
 16777215
370
     9
100
AcDbVertex
100
AcDb2dVertex
 10
3.628030055516604
 20
-166.3881211606599
 30
0.0
  0
SEQEND
  5
486
330
483
100
AcDbEntity
  8
Capa 1
370
     9
  0
POLYLINE
  5
487
330
1F
100
AcDbEntity
  8
Capa 1
 62
     7
420
 16777215
370
     9
100
AcDb2dPolyline
 66
     1
 10
0.0
 20
0.0
 30
0.0
  0
VERTEX
  5
488
330
487
100
AcDbEntity
  8
Capa 1
 62
     7
420
 16777215
370
     9
100
AcDbVertex
100
AcDb2dVertex
 10
3.628030055516604
 20
-155.2490939282016
 30
0.0
  0
VERTEX
  5
489
330
487
100
AcDbEntity
  8
Capa 1
 62
     7
420
 16777215
370
     9
100
AcDbVertex
100
AcDb2dVertex
 10
2.611037868270852
 20
-154.2369248746352
 30
0.0
  0
SEQEND
  5
48A
330
487
100
AcDbEntity
  8
Capa 1
370
     9
  0
POLYLINE
  5
48B
330
1F
100
AcDbEntity
  8
Capa 1
 62
     7
420
 16777215
370
     9
100
AcDb2dPolyline
 66
     1
 10
0.0
 20
0.0
 30
0.0
  0
VERTEX
  5
48C
330
48B
100
AcDbEntity
  8
Capa 1
 62
     7
420
 16777215
370
     9
100
AcDbVertex
100
AcDb2dVertex
 10
-6.500895180666443
 20
-155.2490939282016
 30
0.0
  0
VERTEX
  5
48D
330
48B
100
AcDbEntity
  8
Capa 1
 62
     7
420
 16777215
370
     9
100
AcDbVertex
100
AcDb2dVertex
 10
-5.489759655745616
 20
-154.2369248746352
 30
0.0
  0
SEQEND
  5
48E
330
48B
100
AcDbEntity
  8
Capa 1
370
     9
  0
POLYLINE
  5
48F
330
1F
100
AcDbEntity
  8
Capa 1
 62
     7
420
 16777215
370
     9
100
AcDb2dPolyline
 66
     1
 10
0.0
 20
0.0
 30
0.0
  0
VERTEX
  5
490
330
48F
100
AcDbEntity
  8
Capa 1
 62
     7
420
 16777215
370
     9
100
AcDbVertex
100
AcDb2dVertex
 10
3.628030055516604
 20
-155.2490939282016
 30
0.0
  0
VERTEX
  5
491
330
48F
100
AcDbEntity
  8
Capa 1
 62
     7
420
 16777215
370
     9
100
AcDbVertex
100
AcDb2dVertex
 10
-6.500895180666443
 20
-155.2490939282016
 30
0.0
  0
SEQEND
  5
492
330
48F
100
AcDbEntity
  8
Capa 1
370
     9
  0
POLYLINE
  5
493
330
1F
100
AcDbEntity
  8
Capa 1
 62
     7
420
 16777215
370
     9
100
AcDb2dPolyline
 66
     1
 10
0.0
 20
0.0
 30
0.0
  0
VERTEX
  5
494
330
493
100
AcDbEntity
  8
Capa 1
 62
     7
420
 16777215
370
     9
100
AcDbVertex
100
AcDb2dVertex
 10
207.8439886633168
 20
-159.2281792136652
 30
0.0
  0
VERTEX
  5
495
330
493
100
AcDbEntity
  8
Capa 1
 62
     7
420
 16777215
370
     9
100
AcDbVertex
100
AcDb2dVertex
 10
204.0884900748459
 20
-159.2281792136652
 30
0.0
  0
SEQEND
  5
496
330
493
100
AcDbEntity
  8
Capa 1
370
     9
  0
POLYLINE
  5
497
330
1F
100
AcDbEntity
  8
Capa 1
 62
     7
420
 16777215
370
     9
100
AcDb2dPolyline
 66
     1
 10
0.0
 20
0.0
 30
0.0
  0
VERTEX
  5
498
330
497
100
AcDbEntity
  8
Capa 1
 62
     7
420
 16777215
370
     9
100
AcDbVertex
100
AcDb2dVertex
 10
199.0238552019802
 20
-159.2281792136652
 30
0.0
  0
VERTEX
  5
499
330
497
100
AcDbEntity
  8
Capa 1
 62
     7
420
 16777215
370
     9
100
AcDbVertex
100
AcDb2dVertex
 10
197.7050726502265
 20
-159.2281792136652
 30
0.0
  0
SEQEND
  5
49A
330
497
100
AcDbEntity
  8
Capa 1
370
     9
  0
POLYLINE
  5
49B
330
1F
100
AcDbEntity
  8
Capa 1
 62
     7
420
 16777215
370
     9
100
AcDb2dPolyline
 66
     1
 10
0.0
 20
0.0
 30
0.0
  0
VERTEX
  5
49C
330
49B
100
AcDbEntity
  8
Capa 1
 62
     7
420
 16777215
370
     9
100
AcDbVertex
100
AcDb2dVertex
 10
193.961631895954
 20
-182.2731119335984
 30
0.0
  0
VERTEX
  5
49D
330
49B
100
AcDbEntity
  8
Capa 1
 62
     7
420
 16777215
370
     9
100
AcDbVertex
100
AcDb2dVertex
 10
209.3401936325608
 20
-182.2731119335984
 30
0.0
  0
SEQEND
  5
49E
330
49B
100
AcDbEntity
  8
Capa 1
370
     9
  0
POLYLINE
  5
49F
330
1F
100
AcDbEntity
  8
Capa 1
 62
     7
420
 16777215
370
     9
100
AcDb2dPolyline
 66
     1
 10
0.0
 20
0.0
 30
0.0
  0
VERTEX
  5
4A0
330
49F
100
AcDbEntity
  8
Capa 1
 62
     7
420
 16777215
370
     9
100
AcDbVertex
100
AcDb2dVertex
 10
211.4299885539133
 20
-208.52990717443
 30
0.0
  0
VERTEX
  5
4A1
330
49F
100
AcDbEntity
  8
Capa 1
 62
     7
420
 16777215
370
     9
100
AcDbVertex
100
AcDb2dVertex
 10
211.4299885539133
 20
-185.7437011254391
 30
0.0
  0
SEQEND
  5
4A2
330
49F
100
AcDbEntity
  8
Capa 1
370
     9
  0
POLYLINE
  5
4A3
330
1F
100
AcDbEntity
  8
Capa 1
 62
     7
420
 16777215
370
     9
100
AcDb2dPolyline
 66
     1
 10
0.0
 20
0.0
 30
0.0
  0
VERTEX
  5
4A4
330
4A3
100
AcDbEntity
  8
Capa 1
 62
     7
420
 16777215
370
     9
100
AcDbVertex
100
AcDb2dVertex
 10
211.4299885539133
 20
-185.7437011254391
 30
0.0
  0
VERTEX
  5
4A5
330
4A3
100
AcDbEntity
  8
Capa 1
 62
     7
420
 16777215
370
     9
100
AcDbVertex
100
AcDb2dVertex
 10
211.4299885539133
 20
-184.6419595892562
 30
0.0
  0
SEQEND
  5
4A6
330
4A3
100
AcDbEntity
  8
Capa 1
370
     9
  0
POLYLINE
  5
4A7
330
1F
100
AcDbEntity
  8
Capa 1
 62
     7
420
 16777215
370
     9
100
AcDb2dPolyline
 66
     1
 10
0.0
 20
0.0
 30
0.0
  0
VERTEX
  5
4A8
330
4A7
100
AcDbEntity
  8
Capa 1
 62
     7
420
 16777215
370
     9
100
AcDbVertex
100
AcDb2dVertex
 10
193.961631895954
 20
-182.2731119335984
 30
0.0
  0
VERTEX
  5
4A9
330
4A7
100
AcDbEntity
  8
Capa 1
 62
     7
420
 16777215
370
     9
100
AcDbVertex
100
AcDb2dVertex
 10
193.961631895954
 20
-170.7496120449862
 30
0.0
  0
SEQEND
  5
4AA
330
4A7
100
AcDbEntity
  8
Capa 1
370
     9
  0
SPLINE
  5
4AB
330
1F
100
AcDbEntity
  8
Capa 1
 62
     7
420
 16777215
370
     9
100
AcDbSpline
210
0.0
220
0.0
230
1.0
 70
     8
 71
     3
 72
     8
 73
     4
 74
     0
 42
0.0000000001
 43
0.0000000001
 40
0.0
 40
0.0
 40
0.0
 40
0.0
 40
1.0
 40
1.0
 40
1.0
 40
1.0
 10
204.0884900748459
 20
-159.1048447952932
 30
0.0
 10
202.4686061776815
 20
-158.4271945133446
 30
0.0
 10
200.6458061564358
 20
-158.4271945133446
 30
0.0
 10
199.0238552019802
 20
-159.1048447952932
 30
0.0
  0
SPLINE
  5
4AC
330
1F
100
AcDbEntity
  8
Capa 1
 62
     7
420
 16777215
370
     9
100
AcDbSpline
210
0.0
220
0.0
230
1.0
 70
     8
 71
     3
 72
     8
 73
     4
 74
     0
 42
0.0000000001
 43
0.0000000001
 40
0.0
 40
0.0
 40
0.0
 40
0.0
 40
1.0
 40
1.0
 40
1.0
 40
1.0
 10
211.4299885539133
 20
-184.8056016248055
 30
0.0
 10
211.4241318915884
 20
-183.5681233265038
 30
0.0
 10
210.5494221478835
 20
-182.5104790125321
 30
0.0
 10
209.3401936325608
 20
-182.2731119335984
 30
0.0
  0
SPLINE
  5
4AD
330
1F
100
AcDbEntity
  8
Capa 1
 62
     7
420
 16777215
370
     9
100
AcDbSpline
210
0.0
220
0.0
230
1.0
 70
     8
 71
     3
 72
    80
 73
    76
 74
     0
 42
0.0000000001
 43
0.0000000001
 40
0.0
 40
0.0
 40
0.0
 40
0.0
 40
1.0
 40
1.0
 40
1.0
 40
2.0
 40
2.0
 40
2.0
 40
3.0
 40
3.0
 40
3.0
 40
4.0
 40
4.0
 40
4.0
 40
5.0
 40
5.0
 40
5.0
 40
6.0
 40
6.0
 40
6.0
 40
7.0
 40
7.0
 40
7.0
 40
8.0
 40
8.0
 40
8.0
 40
9.0
 40
9.0
 40
9.0
 40
10.0
 40
10.0
 40
10.0
 40
11.0
 40
11.0
 40
11.0
 40
12.0
 40
12.0
 40
12.0
 40
13.0
 40
13.0
 40
13.0
 40
14.0
 40
14.0
 40
14.0
 40
15.0
 40
15.0
 40
15.0
 40
16.0
 40
16.0
 40
16.0
 40
17.0
 40
17.0
 40
17.0
 40
18.0
 40
18.0
 40
18.0
 40
19.0
 40
19.0
 40
19.0
 40
20.0
 40
20.0
 40
20.0
 40
21.0
 40
21.0
 40
21.0
 40
22.0
 40
22.0
 40
22.0
 40
23.0
 40
23.0
 40
23.0
 40
24.0
 40
24.0
 40
24.0
 40
25.0
 40
25.0
 40
25.0
 40
25.0
 10
213.6593098424185
 20
-209.1376220180281
 30
0.0
 10
213.6593098424185
 20
-208.5119926779067
 30
0.0
 10
213.6593098424185
 20
-207.8922200001103
 30
0.0
 10
213.6593098424185
 20
-207.2748588891535
 30
0.0
 10
213.6593098424185
 20
-206.047371367759
 30
0.0
 10
213.6593098424185
 20
-204.8260850182379
 30
0.0
 10
213.6593098424185
 20
-203.598942006392
 30
0.0
 10
213.6593098424185
 20
-202.4913438078841
 30
0.0
 10
213.6593098424185
 20
-201.3834010998278
 30
0.0
 10
213.6593098424185
 20
-200.2758029013199
 30
0.0
 10
213.6593098424185
 20
-199.2815483442768
 30
0.0
 10
213.6593098424185
 20
-198.2934949591072
 30
0.0
 10
213.6593098424185
 20
-197.2992404020641
 30
0.0
 10
213.6593098424185
 20
-196.5998860185584
 30
0.0
 10
213.6593098424185
 20
-195.9005316350527
 30
0.0
 10
213.6593098424185
 20
-195.2073784234204
 30
0.0
 10
213.6593098424185
 20
-194.5776149687167
 30
0.0
 10
213.6593098424185
 20
-193.9523301381439
 30
0.0
 10
213.6593098424185
 20
-193.3267007980225
 30
0.0
 10
213.6593098424185
 20
-192.7648057243782
 30
0.0
 10
213.6593098424185
 20
-192.2087673130589
 30
0.0
 10
213.6593098424185
 20
-191.6451496916721
 30
0.0
 10
213.6593098424185
 20
-191.0953124522262
 30
0.0
 10
213.6593098424185
 20
-190.5434081554891
 30
0.0
 10
213.6593098424185
 20
-189.9973605210771
 30
0.0
 10
213.6593098424185
 20
-189.4354654474328
 30
0.0
 10
213.6593098424185
 20
-188.879771545662
 30
0.0
 10
213.6593098424185
 20
-188.3158094147266
 30
0.0
 10
213.6593098424185
 20
-187.7480576787574
 30
0.0
 10
213.6593098424185
 20
-187.1803059427883
 30
0.0
 10
213.6593098424185
 20
-186.6125542068191
 30
0.0
 10
213.6593098424185
 20
-185.8294840030218
 30
0.0
 10
213.6593098424185
 20
-185.0384900796084
 30
0.0
 10
213.6593098424185
 20
-184.2495632134862
 30
0.0
 10
213.6593098424185
 20
-183.4485785131656
 30
0.0
 10
213.6593098424185
 20
-182.6417371505201
 30
0.0
 10
213.6593098424185
 20
-181.8410969597481
 30
0.0
 10
213.6593098424185
 20
-181.0221977629042
 30
0.0
 10
213.6593098424185
 20
-180.199164451478
 30
0.0
 10
213.6593098424185
 20
-179.3802652546341
 30
0.0
 10
213.6575872946759
 20
-178.5455186185581
 30
0.0
 10
213.6575872946759
 20
-177.710771982482
 30
0.0
 10
213.6575872946759
 20
-176.8701686840811
 30
0.0
 10
213.6593098424185
 20
-176.0013156027011
 30
0.0
 10
213.6593098424185
 20
-175.1248833112535
 30
0.0
 10
213.6575872946759
 20
-174.2501735675486
 30
0.0
 10
213.6575872946759
 20
-173.6586506727312
 30
0.0
 10
213.6575872946759
 20
-173.0726399306902
 30
0.0
 10
213.6575872946759
 20
-172.4831840931639
 30
0.0
 10
213.6634439570008
 20
-171.8575547530426
 30
0.0
 10
213.6755017911992
 20
-171.2377820752461
 30
0.0
 10
213.6575872946759
 20
-170.6200764547408
 30
0.0
 10
213.6434624031864
 20
-170.0006482864929
 30
0.0
 10
213.6034992955575
 20
-169.3750189463715
 30
0.0
 10
213.521850532557
 20
-168.7614474404485
 30
0.0
 10
213.4284884449068
 20
-168.085864215791
 30
0.0
 10
213.2827609058807
 20
-167.4206162775893
 30
0.0
 10
213.0915581064494
 20
-166.7670816640374
 30
0.0
 10
212.956165853879
 20
-166.2968261303008
 30
0.0
 10
212.7987249902031
 20
-165.8365613734714
 30
0.0
 10
212.6154459103878
 20
-165.3862873935493
 30
0.0
 10
212.4242431109564
 20
-164.9101751974877
 30
0.0
 10
212.2051350380946
 20
-164.4440537783334
 30
0.0
 10
211.9639783541271
 20
-163.9958468557024
 30
0.0
 10
211.7111083455097
 20
-163.5235242646747
 30
0.0
 10
211.4299885539133
 20
-163.0632595078453
 30
0.0
 10
211.129231718051
 20
-162.6271104194127
 30
0.0
 10
210.8105603856654
 20
-162.1668456625833
 30
0.0
 10
210.4698404421742
 20
-161.7286295168595
 30
0.0
 10
210.1070718875774
 20
-161.308327867659
 30
0.0
 10
209.7284558937484
 20
-160.8759683842602
 30
0.0
 10
209.3281357983624
 20
-160.4673800597095
 30
0.0
 10
208.9016329772885
 20
-160.0928981804629
 30
0.0
 10
208.6845919617178
 20
-159.8996283237404
 30
0.0
 10
208.4596272265309
 20
-159.7122151293428
 30
0.0
 10
208.2284613194707
 20
-159.535137221401
 30
0.0
  0
SPLINE
  5
4AE
330
1F
100
AcDbEntity
  8
Capa 1
 62
     7
420
 16777215
370
     9
100
AcDbSpline
210
0.0
220
0.0
230
1.0
 70
     8
 71
     3
 72
    11
 73
     7
 74
     0
 42
0.0000000001
 43
0.0000000001
 40
0.0
 40
0.0
 40
0.0
 40
0.0
 40
1.0
 40
1.0
 40
1.0
 40
2.0
 40
2.0
 40
2.0
 40
2.0
 10
209.3739555683162
 20
-179.9662759966751
 30
0.0
 10
210.0054415707625
 20
-180.2790906667358
 30
0.0
 10
210.7268445653739
 20
-181.0859320293813
 30
0.0
 10
210.9938394654807
 20
-181.7491129102919
 30
0.0
 10
211.2625569133302
 20
-182.4147053580422
 30
0.0
 10
211.4299885539133
 20
-183.7555365209014
 30
0.0
 10
211.4299885539133
 20
-184.6419595892562
 30
0.0
  0
SPLINE
  5
4AF
330
1F
100
AcDbEntity
  8
Capa 1
 62
     7
420
 16777215
370
     9
100
AcDbSpline
210
0.0
220
0.0
230
1.0
 70
     8
 71
     3
 72
    17
 73
    13
 74
     0
 42
0.0000000001
 43
0.0000000001
 40
0.0
 40
0.0
 40
0.0
 40
0.0
 40
1.0
 40
1.0
 40
1.0
 40
2.0
 40
2.0
 40
2.0
 40
3.0
 40
3.0
 40
3.0
 40
4.0
 40
4.0
 40
4.0
 40
4.0
 10
204.0884900748459
 20
-159.2281792136652
 30
0.0
 10
204.0884900748459
 20
-159.2281792136652
 30
0.0
 10
203.813571455123
 20
-159.2981146520158
 30
0.0
 10
203.3471055264202
 20
-159.3718396954001
 30
0.0
 10
202.8809841072659
 20
-159.4452202292359
 30
0.0
 10
202.221592831389
 20
-159.5130886102953
 30
0.0
 10
201.5560003836388
 20
-159.5130886102953
 30
0.0
 10
200.8945420504708
 20
-159.5130886102953
 30
0.0
 10
200.2372178318851
 20
-159.4452202292359
 30
0.0
 10
199.7669622981485
 20
-159.3718396954001
 30
0.0
 10
199.2967067644119
 20
-159.2981146520158
 30
0.0
 10
199.0238552019802
 20
-159.2281792136652
 30
0.0
 10
199.0238552019802
 20
-159.2281792136652
 30
0.0
  0
SPLINE
  5
4B0
330
1F
100
AcDbEntity
  8
Capa 1
 62
     7
420
 16777215
370
     9
100
AcDbSpline
210
0.0
220
0.0
230
1.0
 70
     8
 71
     3
 72
    11
 73
     7
 74
     0
 42
0.0000000001
 43
0.0000000001
 40
0.0
 40
0.0
 40
0.0
 40
0.0
 40
1.0
 40
1.0
 40
1.0
 40
2.0
 40
2.0
 40
2.0
 40
2.0
 10
213.4381347122655
 20
-181.1634466777994
 30
0.0
 10
213.5118597556498
 20
-181.5799587219661
 30
0.0
 10
213.555956977861
 20
-182.2272921636446
 30
0.0
 10
213.5838622512915
 20
-183.0282768639652
 30
0.0
 10
213.6055663528486
 20
-183.8351182266107
 30
0.0
 10
213.617624187047
 20
-184.7835530137
 30
0.0
 10
213.6155571297558
 20
-185.7437011254391
 30
0.0
  0
SPLINE
  5
4B1
330
1F
100
AcDbEntity
  8
Capa 1
 62
     7
420
 16777215
370
     9
100
AcDbSpline
210
0.0
220
0.0
230
1.0
 70
     8
 71
     3
 72
    29
 73
    25
 74
     0
 42
0.0000000001
 43
0.0000000001
 40
0.0
 40
0.0
 40
0.0
 40
0.0
 40
1.0
 40
1.0
 40
1.0
 40
2.0
 40
2.0
 40
2.0
 40
3.0
 40
3.0
 40
3.0
 40
4.0
 40
4.0
 40
4.0
 40
5.0
 40
5.0
 40
5.0
 40
6.0
 40
6.0
 40
6.0
 40
7.0
 40
7.0
 40
7.0
 40
8.0
 40
8.0
 40
8.0
 40
8.0
 10
207.8439886633168
 20
-159.2281792136652
 30
0.0
 10
207.8460557206079
 20
-159.2281792136652
 30
0.0
 10
208.1547362760863
 20
-159.4731255026664
 30
0.0
 10
208.5950194791013
 20
-159.8937716614155
 30
0.0
 10
209.033235624825
 20
-160.308216648291
 30
0.0
 10
209.5892740361444
 20
-160.9117973773068
 30
0.0
 10
210.1270534413919
 20
-161.6549044734752
 30
0.0
 10
210.6631102988967
 20
-162.3938774550613
 30
0.0
 10
211.2008897041442
 20
-163.2964924721967
 30
0.0
 10
211.6473740790326
 20
-164.3365667991936
 30
0.0
 10
212.0893798297902
 20
-165.3766411261906
 30
0.0
 10
212.4442246647709
 20
-166.5700222022811
 30
0.0
 10
212.6454182411095
 20
-167.8350612644649
 30
0.0
 10
212.742914443342
 20
-168.4665472669111
 30
0.0
 10
212.8107828244015
 20
-169.1138807085896
 30
0.0
 10
212.8307643782159
 20
-169.7794731563399
 30
0.0
 10
212.8545355370642
 20
-170.442998546799
 30
0.0
 10
212.8228406585999
 20
-171.118237261908
 30
0.0
 10
212.8107828244015
 20
-171.7838297096582
 30
0.0
 10
212.790801270587
 20
-173.1067463759942
 30
0.0
 10
212.804581652528
 20
-174.4213948131655
 30
0.0
 10
212.8566025943553
 20
-175.6247666661633
 30
0.0
 10
212.9620225162039
 20
-178.0297878244162
 30
0.0
 10
213.2352185881843
 20
-180.033799868186
 30
0.0
 10
213.4381347122655
 20
-181.1634466777994
 30
0.0
  0
SPLINE
  5
4B2
330
1F
100
AcDbEntity
  8
Capa 1
 62
     7
420
 16777215
370
     9
100
AcDbSpline
210
0.0
220
0.0
230
1.0
 70
     8
 71
     3
 72
     8
 73
     4
 74
     0
 42
0.0000000001
 43
0.0000000001
 40
0.0
 40
0.0
 40
0.0
 40
0.0
 40
1.0
 40
1.0
 40
1.0
 40
1.0
 10
211.4299885539133
 20
-208.52990717443
 30
0.0
 10
211.6012097995303
 20
-211.8192843437466
 30
0.0
 10
212.0776665051403
 20
-215.0786891823414
 30
0.0
 10
212.8566025943553
 20
-218.272292697168
 30
0.0
  0
SPLINE
  5
4B3
330
1F
100
AcDbEntity
  8
Capa 1
 62
     7
420
 16777215
370
     9
100
AcDbSpline
210
0.0
220
0.0
230
1.0
 70
     8
 71
     3
 72
     8
 73
     4
 74
     0
 42
0.0000000001
 43
0.0000000001
 40
0.0
 40
0.0
 40
0.0
 40
0.0
 40
1.0
 40
1.0
 40
1.0
 40
1.0
 10
212.8566025943553
 20
-218.272292697168
 30
0.0
 10
212.9103460839252
 20
-218.499324489646
 30
0.0
 10
213.1115396602638
 20
-218.6588324106131
 30
0.0
 10
213.3447726246152
 20
-218.6588324106131
 30
0.0
  0
POLYLINE
  5
4B4
330
1F
100
AcDbEntity
  8
Capa 1
 62
     7
420
 16777215
370
     9
100
AcDb2dPolyline
 66
     1
 10
0.0
 20
0.0
 30
0.0
  0
VERTEX
  5
4B5
330
4B4
100
AcDbEntity
  8
Capa 1
 62
     7
420
 16777215
370
     9
100
AcDbVertex
100
AcDb2dVertex
 10
213.3447726246152
 20
-218.6588324106131
 30
0.0
  0
VERTEX
  5
4B6
330
4B4
100
AcDbEntity
  8
Capa 1
 62
     7
420
 16777215
370
     9
100
AcDbVertex
100
AcDb2dVertex
 10
214.3190456278438
 20
-218.6588324106131
 30
0.0
  0
SEQEND
  5
4B7
330
4B4
100
AcDbEntity
  8
Capa 1
370
     9
  0
SPLINE
  5
4B8
330
1F
100
AcDbEntity
  8
Capa 1
 62
     7
420
 16777215
370
     9
100
AcDbSpline
210
0.0
220
0.0
230
1.0
 70
     8
 71
     3
 72
     8
 73
     4
 74
     0
 42
0.0000000001
 43
0.0000000001
 40
0.0
 40
0.0
 40
0.0
 40
0.0
 40
1.0
 40
1.0
 40
1.0
 40
1.0
 10
213.6593098424185
 20
-208.52990717443
 30
0.0
 10
213.6355386835703
 20
-211.7335014661639
 30
0.0
 10
214.0200113397242
 20
-214.9253824332478
 30
0.0
 10
214.8110052631375
 20
-218.0273464081668
 30
0.0
  0
SPLINE
  5
4B9
330
1F
100
AcDbEntity
  8
Capa 1
 62
     7
420
 16777215
370
     9
100
AcDbSpline
210
0.0
220
0.0
230
1.0
 70
     8
 71
     3
 72
    11
 73
     7
 74
     0
 42
0.0000000001
 43
0.0000000001
 40
0.0
 40
0.0
 40
0.0
 40
0.0
 40
1.0
 40
1.0
 40
1.0
 40
2.0
 40
2.0
 40
2.0
 40
2.0
 10
214.3190456278438
 20
-218.6588324106131
 30
0.0
 10
214.5998209098917
 20
-218.6588324106131
 30
0.0
 10
214.8247856450785
 20
-218.4318006181351
 30
0.0
 10
214.8247856450785
 20
-218.1527478838299
 30
0.0
 10
214.8247856450785
 20
-218.112784776201
 30
0.0
 10
214.8230630973359
 20
-218.0669650062472
 30
0.0
 10
214.8110052631375
 20
-218.0273464081668
 30
0.0
  0
POLYLINE
  5
4BA
330
1F
100
AcDbEntity
  8
Capa 1
 62
     7
420
 16777215
370
     9
100
AcDb2dPolyline
 66
     1
 10
0.0
 20
0.0
 30
0.0
  0
VERTEX
  5
4BB
330
4BA
100
AcDbEntity
  8
Capa 1
 62
     7
420
 16777215
370
     9
100
AcDbVertex
100
AcDb2dVertex
 10
193.961631895954
 20
-170.7496120449862
 30
0.0
  0
VERTEX
  5
4BC
330
4BA
100
AcDbEntity
  8
Capa 1
 62
     7
420
 16777215
370
     9
100
AcDbVertex
100
AcDb2dVertex
 10
197.7050726502265
 20
-159.2281792136652
 30
0.0
  0
SEQEND
  5
4BD
330
4BA
100
AcDbEntity
  8
Capa 1
370
     9
  0
POLYLINE
  5
4BE
330
1F
100
AcDbEntity
  8
Capa 1
 62
     7
420
 16777215
370
     9
100
AcDb2dPolyline
 66
     1
 10
0.0
 20
0.0
 30
0.0
  0
VERTEX
  5
4BF
330
4BE
100
AcDbEntity
  8
Capa 1
 62
     7
420
 16777215
370
     9
100
AcDbVertex
100
AcDb2dVertex
 10
49.16030679109534
 20
-209.12315261699
 30
0.0
  0
VERTEX
  5
4C0
330
4BE
100
AcDbEntity
  8
Capa 1
 62
     7
420
 16777215
370
     9
100
AcDbVertex
100
AcDb2dVertex
 10
49.16030679109534
 20
-227.4924017443422
 30
0.0
  0
SEQEND
  5
4C1
330
4BE
100
AcDbEntity
  8
Capa 1
370
     9
  0
POLYLINE
  5
4C2
330
1F
100
AcDbEntity
  8
Capa 1
 62
     7
420
 16777215
370
     9
100
AcDb2dPolyline
 66
     1
 10
0.0
 20
0.0
 30
0.0
  0
VERTEX
  5
4C3
330
4C2
100
AcDbEntity
  8
Capa 1
 62
     7
420
 16777215
370
     9
100
AcDbVertex
100
AcDb2dVertex
 10
49.16030679109534
 20
-227.4924017443422
 30
0.0
  0
VERTEX
  5
4C4
330
4C2
100
AcDbEntity
  8
Capa 1
 62
     7
420
 16777215
370
     9
100
AcDbVertex
100
AcDb2dVertex
 10
24.8511962828497
 20
-227.4924017443422
 30
0.0
  0
SEQEND
  5
4C5
330
4C2
100
AcDbEntity
  8
Capa 1
370
     9
  0
POLYLINE
  5
4C6
330
1F
100
AcDbEntity
  8
Capa 1
 62
     7
420
 16777215
370
     9
100
AcDb2dPolyline
 66
     1
 10
0.0
 20
0.0
 30
0.0
  0
VERTEX
  5
4C7
330
4C6
100
AcDbEntity
  8
Capa 1
 62
     7
420
 16777215
370
     9
100
AcDbVertex
100
AcDb2dVertex
 10
24.8511962828497
 20
-227.4924017443422
 30
0.0
  0
VERTEX
  5
4C8
330
4C6
100
AcDbEntity
  8
Capa 1
 62
     7
420
 16777215
370
     9
100
AcDbVertex
100
AcDb2dVertex
 10
24.8511962828497
 20
-209.12315261699
 30
0.0
  0
SEQEND
  5
4C9
330
4C6
100
AcDbEntity
  8
Capa 1
370
     9
  0
SPLINE
  5
4CA
330
1F
100
AcDbEntity
  8
Capa 1
 62
     7
420
 16777215
370
     9
100
AcDbSpline
210
0.0
220
0.0
230
1.0
 70
     8
 71
     3
 72
    11
 73
     7
 74
     0
 42
0.0000000001
 43
0.0000000001
 40
0.0
 40
0.0
 40
0.0
 40
0.0
 40
1.0
 40
1.0
 40
1.0
 40
2.0
 40
2.0
 40
2.0
 40
2.0
 10
25.86818847009545
 20
-210.1194742313243
 30
0.0
 10
26.81748453105605
 20
-212.6316378591685
 30
0.0
 10
32.57234428439164
 20
-214.3631428500551
 30
0.0
 10
38.7245958019508
 20
-213.9824597989349
 30
0.0
 10
43.59286023215734
 20
-213.6817029630726
 30
0.0
 10
47.41002602981416
 20
-212.1234862750941
 30
0.0
 10
48.14917126617451
 20
-210.1353216705565
 30
0.0
  0
SPLINE
  5
4CB
330
1F
100
AcDbEntity
  8
Capa 1
 62
     7
420
 16777215
370
     9
100
AcDbSpline
210
0.0
220
0.0
230
1.0
 70
     8
 71
     3
 72
    11
 73
     7
 74
     0
 42
0.0000000001
 43
0.0000000001
 40
0.0
 40
0.0
 40
0.0
 40
0.0
 40
1.0
 40
1.0
 40
1.0
 40
2.0
 40
2.0
 40
2.0
 40
2.0
 10
24.8511962828497
 20
-227.4924017443422
 30
0.0
 10
24.8511962828497
 20
-224.8045382467503
 30
0.0
 10
30.29410263999592
 20
-222.628960447815
 30
0.0
 10
37.0092827598449
 20
-222.628960447815
 30
0.0
 10
43.71826170782044
 20
-222.628960447815
 30
0.0
 10
49.16030679109534
 20
-224.8045382467503
 30
0.0
 10
49.16030679109534
 20
-227.4924017443422
 30
0.0
  0
SPLINE
  5
4CC
330
1F
100
AcDbEntity
  8
Capa 1
 62
     7
420
 16777215
370
     9
100
AcDbSpline
210
0.0
220
0.0
230
1.0
 70
    11
 71
     3
 72
    20
 73
    16
 74
     0
 42
0.0000000001
 43
0.0000000001
 40
0.0
 40
0.0
 40
0.0
 40
0.0
 40
1.0
 40
1.0
 40
1.0
 40
2.0
 40
2.0
 40
2.0
 40
3.0
 40
3.0
 40
3.0
 40
4.0
 40
4.0
 40
4.0
 40
5.0
 40
5.0
 40
5.0
 40
5.0
 10
39.16780733612819
 20
-216.6878932835016
 30
0.0
 10
39.16780733612819
 20
-215.4945122074111
 30
0.0
 10
38.20163030728988
 20
-214.5264403760559
 30
0.0
 10
37.0092827598449
 20
-214.5264403760559
 30
0.0
 10
35.8157294289801
 20
-214.5264403760559
 30
0.0
 10
34.84455701168817
 20
-215.4945122074111
 30
0.0
 10
34.84455701168817
 20
-216.6878932835016
 30
0.0
 10
34.84455701168817
 20
-217.8795518118496
 30
0.0
 10
35.8157294289801
 20
-218.8455565859136
 30
0.0
 10
37.0092827598449
 20
-218.8455565859136
 30
0.0
 10
38.20163030728988
 20
-218.8455565859136
 30
0.0
 10
39.16780733612819
 20
-217.8795518118496
 30
0.0
 10
39.16780733612819
 20
-216.6878932835016
 30
0.0
 10
39.16780733612819
 20
-216.6878932835016
 30
0.0
 10
39.16780733612819
 20
-216.6878932835016
 30
0.0
 10
39.16780733612819
 20
-216.6878932835016
 30
0.0
  0
POLYLINE
  5
4CD
330
1F
100
AcDbEntity
  8
Capa 1
 62
     7
420
 16777215
370
     9
100
AcDb2dPolyline
 66
     1
 10
0.0
 20
0.0
 30
0.0
  0
VERTEX
  5
4CE
330
4CD
100
AcDbEntity
  8
Capa 1
 62
     7
420
 16777215
370
     9
100
AcDbVertex
100
AcDb2dVertex
 10
49.16030679109534
 20
-209.12315261699
 30
0.0
  0
VERTEX
  5
4CF
330
4CD
100
AcDbEntity
  8
Capa 1
 62
     7
420
 16777215
370
     9
100
AcDbVertex
100
AcDb2dVertex
 10
48.49592012676491
 20
-209.12315261699
 30
0.0
  0
SEQEND
  5
4D0
330
4CD
100
AcDbEntity
  8
Capa 1
370
     9
  0
POLYLINE
  5
4D1
330
1F
100
AcDbEntity
  8
Capa 1
 62
     7
420
 16777215
370
     9
100
AcDb2dPolyline
 66
     1
 10
0.0
 20
0.0
 30
0.0
  0
VERTEX
  5
4D2
330
4D1
100
AcDbEntity
  8
Capa 1
 62
     7
420
 16777215
370
     9
100
AcDbVertex
100
AcDb2dVertex
 10
25.52746852660425
 20
-209.12315261699
 30
0.0
  0
VERTEX
  5
4D3
330
4D1
100
AcDbEntity
  8
Capa 1
 62
     7
420
 16777215
370
     9
100
AcDbVertex
100
AcDb2dVertex
 10
24.8511962828497
 20
-209.12315261699
 30
0.0
  0
SEQEND
  5
4D4
330
4D1
100
AcDbEntity
  8
Capa 1
370
     9
  0
POLYLINE
  5
4D5
330
1F
100
AcDbEntity
  8
Capa 1
 62
     7
420
 16777215
370
     9
100
AcDb2dPolyline
 66
     1
 10
0.0
 20
0.0
 30
0.0
  0
VERTEX
  5
4D6
330
4D5
100
AcDbEntity
  8
Capa 1
 62
     7
420
 16777215
370
     9
100
AcDbVertex
100
AcDb2dVertex
 10
167.7706379788907
 20
-187.9871473054338
 30
0.0
  0
VERTEX
  5
4D7
330
4D5
100
AcDbEntity
  8
Capa 1
 62
     7
420
 16777215
370
     9
100
AcDbVertex
100
AcDb2dVertex
 10
166.7564018680331
 20
-183.9367485434256
 30
0.0
  0
SEQEND
  5
4D8
330
4D5
100
AcDbEntity
  8
Capa 1
370
     9
  0
POLYLINE
  5
4D9
330
1F
100
AcDbEntity
  8
Capa 1
 62
     7
420
 16777215
370
     9
100
AcDb2dPolyline
 66
     1
 10
0.0
 20
0.0
 30
0.0
  0
VERTEX
  5
4DA
330
4D9
100
AcDbEntity
  8
Capa 1
 62
     7
420
 16777215
370
     9
100
AcDbVertex
100
AcDb2dVertex
 10
166.7564018680331
 20
-183.9367485434256
 30
0.0
  0
VERTEX
  5
4DB
330
4D9
100
AcDbEntity
  8
Capa 1
 62
     7
420
 16777215
370
     9
100
AcDbVertex
100
AcDb2dVertex
 10
178.909665211349
 20
-183.9367485434256
 30
0.0
  0
SEQEND
  5
4DC
330
4D9
100
AcDbEntity
  8
Capa 1
370
     9
  0
POLYLINE
  5
4DD
330
1F
100
AcDbEntity
  8
Capa 1
 62
     7
420
 16777215
370
     9
100
AcDb2dPolyline
 66
     1
 10
0.0
 20
0.0
 30
0.0
  0
VERTEX
  5
4DE
330
4DD
100
AcDbEntity
  8
Capa 1
 62
     7
420
 16777215
370
     9
100
AcDbVertex
100
AcDb2dVertex
 10
167.7706379788907
 20
-187.9871473054338
 30
0.0
  0
VERTEX
  5
4DF
330
4DD
100
AcDbEntity
  8
Capa 1
 62
     7
420
 16777215
370
     9
100
AcDbVertex
100
AcDb2dVertex
 10
172.8349283422079
 20
-187.9871473054338
 30
0.0
  0
SEQEND
  5
4E0
330
4DD
100
AcDbEntity
  8
Capa 1
370
     9
  0
POLYLINE
  5
4E1
330
1F
100
AcDbEntity
  8
Capa 1
 62
     7
420
 16777215
370
     9
100
AcDb2dPolyline
 66
     1
 10
0.0
 20
0.0
 30
0.0
  0
VERTEX
  5
4E2
330
4E1
100
AcDbEntity
  8
Capa 1
 62
     7
420
 16777215
370
     9
100
AcDbVertex
100
AcDb2dVertex
 10
177.8954291004914
 20
-187.9871473054338
 30
0.0
  0
VERTEX
  5
4E3
330
4E1
100
AcDbEntity
  8
Capa 1
 62
     7
420
 16777215
370
     9
100
AcDbVertex
100
AcDb2dVertex
 10
178.909665211349
 20
-183.9367485434256
 30
0.0
  0
SEQEND
  5
4E4
330
4E1
100
AcDbEntity
  8
Capa 1
370
     9
  0
POLYLINE
  5
4E5
330
1F
100
AcDbEntity
  8
Capa 1
 62
     7
420
 16777215
370
     9
100
AcDb2dPolyline
 66
     1
 10
0.0
 20
0.0
 30
0.0
  0
VERTEX
  5
4E6
330
4E5
100
AcDbEntity
  8
Capa 1
 62
     7
420
 16777215
370
     9
100
AcDbVertex
100
AcDb2dVertex
 10
177.8954291004914
 20
-187.9871473054338
 30
0.0
  0
VERTEX
  5
4E7
330
4E5
100
AcDbEntity
  8
Capa 1
 62
     7
420
 16777215
370
     9
100
AcDbVertex
100
AcDb2dVertex
 10
172.8349283422079
 20
-187.9871473054338
 30
0.0
  0
SEQEND
  5
4E8
330
4E5
100
AcDbEntity
  8
Capa 1
370
     9
  0
POLYLINE
  5
4E9
330
1F
100
AcDbEntity
  8
Capa 1
 62
     7
420
 16777215
370
     9
100
AcDb2dPolyline
 66
     1
 10
0.0
 20
0.0
 30
0.0
  0
VERTEX
  5
4EA
330
4E9
100
AcDbEntity
  8
Capa 1
 62
     7
420
 16777215
370
     9
100
AcDbVertex
100
AcDb2dVertex
 10
167.7706379788907
 20
-187.9871473054338
 30
0.0
  0
VERTEX
  5
4EB
330
4E9
100
AcDbEntity
  8
Capa 1
 62
     7
420
 16777215
370
     9
100
AcDbVertex
100
AcDb2dVertex
 10
167.7706379788907
 20
-192.2149684849324
 30
0.0
  0
SEQEND
  5
4EC
330
4E9
100
AcDbEntity
  8
Capa 1
370
     9
  0
POLYLINE
  5
4ED
330
1F
100
AcDbEntity
  8
Capa 1
 62
     7
420
 16777215
370
     9
100
AcDb2dPolyline
 66
     1
 10
0.0
 20
0.0
 30
0.0
  0
VERTEX
  5
4EE
330
4ED
100
AcDbEntity
  8
Capa 1
 62
     7
420
 16777215
370
     9
100
AcDbVertex
100
AcDb2dVertex
 10
168.6053846149667
 20
-193.0497151210084
 30
0.0
  0
VERTEX
  5
4EF
330
4ED
100
AcDbEntity
  8
Capa 1
 62
     7
420
 16777215
370
     9
100
AcDbVertex
100
AcDb2dVertex
 10
177.0606824644154
 20
-193.0497151210084
 30
0.0
  0
SEQEND
  5
4F0
330
4ED
100
AcDbEntity
  8
Capa 1
370
     9
  0
POLYLINE
  5
4F1
330
1F
100
AcDbEntity
  8
Capa 1
 62
     7
420
 16777215
370
     9
100
AcDb2dPolyline
 66
     1
 10
0.0
 20
0.0
 30
0.0
  0
VERTEX
  5
4F2
330
4F1
100
AcDbEntity
  8
Capa 1
 62
     7
420
 16777215
370
     9
100
AcDbVertex
100
AcDb2dVertex
 10
177.8954291004914
 20
-192.2149684849324
 30
0.0
  0
VERTEX
  5
4F3
330
4F1
100
AcDbEntity
  8
Capa 1
 62
     7
420
 16777215
370
     9
100
AcDbVertex
100
AcDb2dVertex
 10
177.8954291004914
 20
-187.9871473054338
 30
0.0
  0
SEQEND
  5
4F4
330
4F1
100
AcDbEntity
  8
Capa 1
370
     9
  0
POLYLINE
  5
4F5
330
1F
100
AcDbEntity
  8
Capa 1
 62
     7
420
 16777215
370
     9
100
AcDb2dPolyline
 66
     1
 10
0.0
 20
0.0
 30
0.0
  0
VERTEX
  5
4F6
330
4F5
100
AcDbEntity
  8
Capa 1
 62
     7
420
 16777215
370
     9
100
AcDbVertex
100
AcDb2dVertex
 10
168.6053846149667
 20
-193.0497151210084
 30
0.0
  0
VERTEX
  5
4F7
330
4F5
100
AcDbEntity
  8
Capa 1
 62
     7
420
 16777215
370
     9
100
AcDbVertex
100
AcDb2dVertex
 10
167.7706379788907
 20
-192.2149684849324
 30
0.0
  0
SEQEND
  5
4F8
330
4F5
100
AcDbEntity
  8
Capa 1
370
     9
  0
POLYLINE
  5
4F9
330
1F
100
AcDbEntity
  8
Capa 1
 62
     7
420
 16777215
370
     9
100
AcDb2dPolyline
 66
     1
 10
0.0
 20
0.0
 30
0.0
  0
VERTEX
  5
4FA
330
4F9
100
AcDbEntity
  8
Capa 1
 62
     7
420
 16777215
370
     9
100
AcDbVertex
100
AcDb2dVertex
 10
177.0606824644154
 20
-193.0497151210084
 30
0.0
  0
VERTEX
  5
4FB
330
4F9
100
AcDbEntity
  8
Capa 1
 62
     7
420
 16777215
370
     9
100
AcDbVertex
100
AcDb2dVertex
 10
177.8954291004914
 20
-192.2149684849324
 30
0.0
  0
SEQEND
  5
4FC
330
4F9
100
AcDbEntity
  8
Capa 1
370
     9
  0
POLYLINE
  5
4FD
330
1F
100
AcDbEntity
  8
Capa 1
 62
     7
420
 16777215
370
     9
100
AcDb2dPolyline
 66
     1
 10
0.0
 20
0.0
 30
0.0
  0
VERTEX
  5
4FE
330
4FD
100
AcDbEntity
  8
Capa 1
 62
     7
420
 16777215
370
     9
100
AcDbVertex
100
AcDb2dVertex
 10
167.7706379788907
 20
-192.2149684849324
 30
0.0
  0
VERTEX
  5
4FF
330
4FD
100
AcDbEntity
  8
Capa 1
 62
     7
420
 16777215
370
     9
100
AcDbVertex
100
AcDb2dVertex
 10
177.8954291004914
 20
-192.2149684849324
 30
0.0
  0
SEQEND
  5
500
330
4FD
100
AcDbEntity
  8
Capa 1
370
     9
  0
POLYLINE
  5
501
330
1F
100
AcDbEntity
  8
Capa 1
370
     0
100
AcDb2dPolyline
 66
     1
 10
0.0
 20
0.0
 30
0.0
  0
VERTEX
  5
502
330
501
100
AcDbEntity
  8
Capa 1
370
     0
100
AcDbVertex
100
AcDb2dVertex
 10
139.5394585154624
 20
-161.1825818824474
 30
0.0
  0
VERTEX
  5
503
330
501
100
AcDbEntity
  8
Capa 1
370
     0
100
AcDbVertex
100
AcDb2dVertex
 10
150.6784857479207
 20
-161.1825818824474
 30
0.0
  0
SEQEND
  5
504
330
501
100
AcDbEntity
  8
Capa 1
370
     0
  0
POLYLINE
  5
505
330
1F
100
AcDbEntity
  8
Capa 1
370
     0
100
AcDb2dPolyline
 66
     1
 10
0.0
 20
0.0
 30
0.0
  0
VERTEX
  5
506
330
505
100
AcDbEntity
  8
Capa 1
370
     0
100
AcDbVertex
100
AcDb2dVertex
 10
139.5394585154624
 20
-169.2892360687888
 30
0.0
  0
VERTEX
  5
507
330
505
100
AcDbEntity
  8
Capa 1
370
     0
100
AcDbVertex
100
AcDb2dVertex
 10
150.6784857479207
 20
-169.2892360687888
 30
0.0
  0
SEQEND
  5
508
330
505
100
AcDbEntity
  8
Capa 1
370
     0
  0
POLYLINE
  5
509
330
1F
100
AcDbEntity
  8
Capa 1
370
     0
100
AcDb2dPolyline
 66
     1
 10
0.0
 20
0.0
 30
0.0
  0
VERTEX
  5
50A
330
509
100
AcDbEntity
  8
Capa 1
370
     0
100
AcDbVertex
100
AcDb2dVertex
 10
78.82533499548464
 20
-155.2490939282016
 30
0.0
  0
VERTEX
  5
50B
330
509
100
AcDbEntity
  8
Capa 1
370
     0
100
AcDbVertex
100
AcDb2dVertex
 10
78.82533499548464
 20
-166.3881211606599
 30
0.0
  0
SEQEND
  5
50C
330
509
100
AcDbEntity
  8
Capa 1
370
     0
  0
POLYLINE
  5
50D
330
1F
100
AcDbEntity
  8
Capa 1
370
     0
100
AcDb2dPolyline
 66
     1
 10
0.0
 20
0.0
 30
0.0
  0
VERTEX
  5
50E
330
50D
100
AcDbEntity
  8
Capa 1
370
     0
100
AcDbVertex
100
AcDb2dVertex
 10
70.71850855436898
 20
-155.2490939282016
 30
0.0
  0
VERTEX
  5
50F
330
50D
100
AcDbEntity
  8
Capa 1
370
     0
100
AcDbVertex
100
AcDb2dVertex
 10
70.71850855436898
 20
-166.3881211606599
 30
0.0
  0
SEQEND
  5
510
330
50D
100
AcDbEntity
  8
Capa 1
370
     0
  0
POLYLINE
  5
511
330
1F
100
AcDbEntity
  8
Capa 1
370
     0
100
AcDb2dPolyline
 66
     1
 10
0.0
 20
0.0
 30
0.0
  0
VERTEX
  5
512
330
511
100
AcDbEntity
  8
Capa 1
370
     0
100
AcDbVertex
100
AcDb2dVertex
 10
2.611037868270852
 20
-155.2490939282016
 30
0.0
  0
VERTEX
  5
513
330
511
100
AcDbEntity
  8
Capa 1
370
     0
100
AcDbVertex
100
AcDb2dVertex
 10
2.611037868270852
 20
-166.3881211606599
 30
0.0
  0
SEQEND
  5
514
330
511
100
AcDbEntity
  8
Capa 1
370
     0
  0
POLYLINE
  5
515
330
1F
100
AcDbEntity
  8
Capa 1
370
     0
100
AcDb2dPolyline
 66
     1
 10
0.0
 20
0.0
 30
0.0
  0
VERTEX
  5
516
330
515
100
AcDbEntity
  8
Capa 1
370
     0
100
AcDbVertex
100
AcDb2dVertex
 10
-5.489759655745616
 20
-155.2490939282016
 30
0.0
  0
VERTEX
  5
517
330
515
100
AcDbEntity
  8
Capa 1
370
     0
100
AcDbVertex
100
AcDb2dVertex
 10
-5.489759655745616
 20
-166.3881211606599
 30
0.0
  0
SEQEND
  5
518
330
515
100
AcDbEntity
  8
Capa 1
370
     0
  0
POLYLINE
  5
519
330
1F
100
AcDbEntity
  8
Capa 1
370
     0
100
AcDb2dPolyline
 66
     1
 10
0.0
 20
0.0
 30
0.0
  0
VERTEX
  5
51A
330
519
100
AcDbEntity
  8
Capa 1
370
     0
100
AcDbVertex
100
AcDb2dVertex
 10
168.6053846149667
 20
-192.2149684849324
 30
0.0
  0
VERTEX
  5
51B
330
519
100
AcDbEntity
  8
Capa 1
370
     0
100
AcDbVertex
100
AcDb2dVertex
 10
168.6053846149667
 20
-187.9871473054338
 30
0.0
  0
SEQEND
  5
51C
330
519
100
AcDbEntity
  8
Capa 1
370
     0
  0
POLYLINE
  5
51D
330
1F
100
AcDbEntity
  8
Capa 1
370
     0
100
AcDb2dPolyline
 66
     1
 10
0.0
 20
0.0
 30
0.0
  0
VERTEX
  5
51E
330
51D
100
AcDbEntity
  8
Capa 1
370
     0
100
AcDbVertex
100
AcDb2dVertex
 10
177.0606824644154
 20
-187.9871473054338
 30
0.0
  0
VERTEX
  5
51F
330
51D
100
AcDbEntity
  8
Capa 1
370
     0
100
AcDbVertex
100
AcDb2dVertex
 10
177.0606824644154
 20
-192.2149684849324
 30
0.0
  0
SEQEND
  5
520
330
51D
100
AcDbEntity
  8
Capa 1
370
     0
  0
INSERT
  5
522
330
1F
100
AcDbEntity
  8
Capa 1
100
AcDbBlockReference
  2
block 2
 10
0.0
 20
0.0
 30
0.0
  0
INSERT
  5
52A
330
1F
100
AcDbEntity
  8
Capa 1
100
AcDbBlockReference
  2
block 3
 10
0.0
 20
0.0
 30
0.0
  0
INSERT
  5
532
330
1F
100
AcDbEntity
  8
Capa 1
100
AcDbBlockReference
  2
block 4
 10
0.0
 20
0.0
 30
0.0
  0
INSERT
  5
53A
330
1F
100
AcDbEntity
  8
Capa 1
100
AcDbBlockReference
  2
block 5
 10
0.0
 20
0.0
 30
0.0
  0
INSERT
  5
542
330
1F
100
AcDbEntity
  8
Capa 1
100
AcDbBlockReference
  2
block 6
 10
0.0
 20
0.0
 30
0.0
  0
INSERT
  5
54A
330
1F
100
AcDbEntity
  8
Capa 1
100
AcDbBlockReference
  2
block 7
 10
0.0
 20
0.0
 30
0.0
  0
INSERT
  5
552
330
1F
100
AcDbEntity
  8
Capa 1
100
AcDbBlockReference
  2
block 8
 10
0.0
 20
0.0
 30
0.0
  0
INSERT
  5
55A
330
1F
100
AcDbEntity
  8
Capa 1
100
AcDbBlockReference
  2
block 9
 10
0.0
 20
0.0
 30
0.0
  0
INSERT
  5
562
330
1F
100
AcDbEntity
  8
Capa 1
100
AcDbBlockReference
  2
block 10
 10
0.0
 20
0.0
 30
0.0
  0
INSERT
  5
56A
330
1F
100
AcDbEntity
  8
Capa 1
100
AcDbBlockReference
  2
block 11
 10
0.0
 20
0.0
 30
0.0
  0
INSERT
  5
572
330
1F
100
AcDbEntity
  8
Capa 1
100
AcDbBlockReference
  2
block 12
 10
0.0
 20
0.0
 30
0.0
  0
INSERT
  5
57A
330
1F
100
AcDbEntity
  8
Capa 1
100
AcDbBlockReference
  2
block 13
 10
0.0
 20
0.0
 30
0.0
  0
ENDSEC
  0
SECTION
  2
OBJECTS
  0
DICTIONARY
  5
C
330
0
100
AcDbDictionary
281
     1
  3
ACAD_GROUP
350
D
  3
ACAD_LAYOUT
350
1A
  3
ACAD_MLINESTYLE
350
17
  3
ACAD_PLOTSETTINGS
350
19
  3
ACAD_PLOTSTYLENAME
350
E
  3
ACAD_TABLESTYLE
350
581
  3
ACAD_VISUALSTYLE
350
2A
  0
DICTIONARY
  5
D
102
{ACAD_REACTORS
330
C
102
}
330
C
100
AcDbDictionary
281
     1
  0
DICTIONARY
  5
1A
102
{ACAD_REACTORS
330
C
102
}
330
C
100
AcDbDictionary
281
     1
  3
Layout1
350
1E
  3
Layout2
350
26
  3
Model
350
22
  0
DICTIONARY
  5
17
102
{ACAD_REACTORS
330
C
102
}
330
C
100
AcDbDictionary
281
     1
  3
Standard
350
18
  0
DICTIONARY
  5
19
102
{ACAD_REACTORS
330
C
102
}
330
C
100
AcDbDictionary
281
     1
  0
ACDBDICTIONARYWDFLT
  5
E
102
{ACAD_REACTORS
330
C
102
}
330
C
100
AcDbDictionary
281
     1
  3
Normal
350
F
100
AcDbDictionaryWithDefault
340
F
  0
DICTIONARY
  5
581
102
{ACAD_REACTORS
330
C
102
}
330
C
100
AcDbDictionary
281
     1
  0
DICTIONARY
  5
2A
102
{ACAD_REACTORS
330
C
102
}
330
C
100
AcDbDictionary
281
     1
  3
2dWireframe
350
2F
  3
3D Hidden
350
31
  3
3dWireframe
350
30
  3
Basic
350
32
  3
Brighten
350
36
  3
ColorChange
350
3A
  3
Conceptual
350
34
  3
Dim
350
35
  3
Facepattern
350
39
  3
Flat
350
2B
  3
FlatWithEdges
350
2C
  3
Gouraud
350
2D
  3
GouraudWithEdges
350
2E
  3
Linepattern
350
38
  3
Realistic
350
33
  3
Thicken
350
37
  0
LAYOUT
  5
1E
102
{ACAD_REACTORS
330
1A
102
}
330
1A
100
AcDbPlotSettings
  1

  2
none_device
  4

  6

 40
0.0
 41
0.0
 42
0.0
 43
0.0
 44
0.0
 45
0.0
 46
0.0
 47
0.0
 48
0.0
 49
0.0
140
0.0
141
0.0
142
1.0
143
1.0
 70
   688
 72
     0
 73
     0
 74
     5
  7

 75
    16
 76
     0
 77
     2
 78
   300
147
1.0
148
0.0
149
0.0
100
AcDbLayout
  1
Layout1
 70
     1
 71
     1
 10
0.0
 20
0.0
 11
12.0
 21
9.0
 12
0.0
 22
0.0
 32
0.0
 14
1.000000000000000E+20
 24
1.000000000000000E+20
 34
1.000000000000000E+20
 15
-1.000000000000000E+20
 25
-1.000000000000000E+20
 35
-1.000000000000000E+20
146
0.0
 13
0.0
 23
0.0
 33
0.0
 16
1.0
 26
0.0
 36
0.0
 17
0.0
 27
1.0
 37
0.0
 76
     0
330
1B
  0
LAYOUT
  5
26
102
{ACAD_REACTORS
330
1A
102
}
330
1A
100
AcDbPlotSettings
  1

  2
none_device
  4

  6

 40
0.0
 41
0.0
 42
0.0
 43
0.0
 44
0.0
 45
0.0
 46
0.0
 47
0.0
 48
0.0
 49
0.0
140
0.0
141
0.0
142
1.0
143
1.0
 70
   688
 72
     0
 73
     0
 74
     5
  7

 75
    16
 76
     0
 77
     2
 78
   300
147
1.0
148
0.0
149
0.0
100
AcDbLayout
  1
Layout2
 70
     1
 71
     2
 10
0.0
 20
0.0
 11
0.0
 21
0.0
 12
0.0
 22
0.0
 32
0.0
 14
0.0
 24
0.0
 34
0.0
 15
0.0
 25
0.0
 35
0.0
146
0.0
 13
0.0
 23
0.0
 33
0.0
 16
1.0
 26
0.0
 36
0.0
 17
0.0
 27
1.0
 37
0.0
 76
     0
330
23
  0
LAYOUT
  5
22
102
{ACAD_REACTORS
330
1A
102
}
330
1A
100
AcDbPlotSettings
  1

  2
none_device
  4

  6

 40
0.0
 41
0.0
 42
0.0
 43
0.0
 44
0.0
 45
0.0
 46
0.0
 47
0.0
 48
0.0
 49
0.0
140
0.0
141
0.0
142
1.0
143
1.0
 70
  1712
 72
     0
 73
     0
 74
     0
  7

 75
     0
 76
     0
 77
     2
 78
   300
147
1.0
148
0.0
149
0.0
100
AcDbLayout
  1
Model
 70
     1
 71
     0
 10
0.0
 20
0.0
 11
12.0
 21
9.0
 12
0.0
 22
0.0
 32
0.0
 14
1.000000000000000E+20
 24
1.000000000000000E+20
 34
1.000000000000000E+20
 15
-1.000000000000000E+20
 25
-1.000000000000000E+20
 35
-1.000000000000000E+20
146
0.0
 13
0.0
 23
0.0
 33
0.0
 16
1.0
 26
0.0
 36
0.0
 17
0.0
 27
1.0
 37
0.0
 76
     0
330
1F
331
29
  0
MLINESTYLE
  5
18
102
{ACAD_REACTORS
330
17
102
}
330
17
100
AcDbMlineStyle
  2
Standard
 70
     0
  3

 62
   256
 51
90.0
 52
90.0
 71
     2
 49
0.5
 62
   256
  6
BYLAYER
 49
-0.5
 62
   256
  6
BYLAYER
  0
ACDBPLACEHOLDER
  5
F
102
{ACAD_REACTORS
330
E
102
}
330
E
  0
VISUALSTYLE
  5
2F
102
{ACAD_REACTORS
330
2A
102
}
330
2A
100
AcDbVisualStyle
  2
2dWireframe
 70
     4
 71
     0
 72
     2
 73
     0
 90
        0
 40
-0.6
 41
-30.0
 62
     5
 63
     7
421
 16777215
 74
     1
 91
        4
 64
     7
 65
   257
 75
     1
175
     1
 42
1.0
 92
        0
 66
   257
 43
1.0
 76
     1
 77
     6
 78
     2
 67
     7
 79
     5
170
     0
171
     0
290
     0
174
     0
 93
        1
 44
0.0
173
     0
291
     0
 45
0.0
1001
ACAD
1000
AcDbSavedByObjectVersion
1070
     0
  0
VISUALSTYLE
  5
31
102
{ACAD_REACTORS
330
2A
102
}
330
2A
100
AcDbVisualStyle
  2
3D Hidden
 70
     6
 71
     1
 72
     2
 73
     2
 90
        0
 40
-0.6
 41
-30.0
 62
     5
 63
     7
421
 16777215
 74
     2
 91
        2
 64
     7
 65
   257
 75
     2
175
     1
 42
40.0
 92
        0
 66
   257
 43
1.0
 76
     1
 77
     6
 78
     2
 67
     7
 79
     3
170
     0
171
     0
290
     0
174
     0
 93
        1
 44
0.0
173
     0
291
     0
 45
0.0
1001
ACAD
1000
AcDbSavedByObjectVersion
1070
     0
  0
VISUALSTYLE
  5
30
102
{ACAD_REACTORS
330
2A
102
}
330
2A
100
AcDbVisualStyle
  2
3dWireframe
 70
     5
 71
     0
 72
     2
 73
     0
 90
        0
 40
-0.6
 41
-30.0
 62
     5
 63
     7
421
 16777215
 74
     1
 91
        4
 64
     7
 65
   257
 75
     1
175
     1
 42
1.0
 92
        0
 66
   257
 43
1.0
 76
     1
 77
     6
 78
     2
 67
     7
 79
     5
170
     0
171
     0
290
     0
174
     0
 93
        1
 44
0.0
173
     0
291
     0
 45
0.0
1001
ACAD
1000
AcDbSavedByObjectVersion
1070
     0
  0
VISUALSTYLE
  5
32
102
{ACAD_REACTORS
330
2A
102
}
330
2A
100
AcDbVisualStyle
  2
Basic
 70
     7
 71
     1
 72
     0
 73
     1
 90
        0
 40
-0.6
 41
-30.0
 62
     5
 63
     7
421
 16777215
 74
     0
 91
        4
 64
     7
 65
   257
 75
     1
175
     1
 42
1.0
 92
        8
 66
     7
 43
1.0
 76
     1
 77
     6
 78
     2
 67
     7
 79
     5
170
     0
171
     0
290
     0
174
     0
 93
        1
 44
0.0
173
     0
291
     1
 45
0.0
1001
ACAD
1000
AcDbSavedByObjectVersion
1070
     0
  0
VISUALSTYLE
  5
36
102
{ACAD_REACTORS
330
2A
102
}
330
2A
100
AcDbVisualStyle
  2
Brighten
 70
    12
 71
     2
 72
     2
 73
     0
 90
        0
 40
-0.6
 41
-30.0
 62
     5
 63
     7
421
 16777215
 74
     1
 91
        4
 64
     7
 65
   257
 75
     1
175
     1
 42
1.0
 92
        8
 66
     7
 43
1.0
 76
     1
 77
     6
 78
     2
 67
     7
 79
     5
170
     0
171
     0
290
     0
174
     0
 93
        1
 44
50.0
173
     0
291
     1
 45
0.0
1001
ACAD
1000
AcDbSavedByObjectVersion
1070
     0
  0
VISUALSTYLE
  5
3A
102
{ACAD_REACTORS
330
2A
102
}
330
2A
100
AcDbVisualStyle
  2
ColorChange
 70
    16
 71
     2
 72
     2
 73
     3
 90
        0
 40
-0.6
 41
-30.0
 62
     5
 63
     8
421
  8421504
 74
     1
 91
        4
 64
     7
 65
   257
 75
     1
175
     1
 42
1.0
 92
        8
 66
     8
424
  8421504
 43
1.0
 76
     1
 77
     6
 78
     2
 67
     7
 79
     5
170
     0
171
     0
290
     0
174
     0
 93
        1
 44
0.0
173
     0
291
     1
 45
0.0
1001
ACAD
1000
AcDbSavedByObjectVersion
1070
     0
  0
VISUALSTYLE
  5
34
102
{ACAD_REACTORS
330
2A
102
}
330
2A
100
AcDbVisualStyle
  2
Conceptual
 70
     9
 71
     3
 72
     2
 73
     0
 90
        0
 40
-0.6
 41
-30.0
 62
     5
 63
     7
421
 16777215
 74
     2
 91
        2
 64
     7
 65
   257
 75
     1
175
     1
 42
40.0
 92
        8
 66
     7
 43
1.0
 76
     1
 77
     6
 78
     2
 67
     7
 79
     3
170
     0
171
     0
290
     0
174
     0
 93
        1
 44
0.0
173
     0
291
     0
 45
0.0
1001
ACAD
1000
AcDbSavedByObjectVersion
1070
     0
  0
VISUALSTYLE
  5
35
102
{ACAD_REACTORS
330
2A
102
}
330
2A
100
AcDbVisualStyle
  2
Dim
 70
    11
 71
     2
 72
     2
 73
     0
 90
        0
 40
-0.6
 41
-30.0
 62
     5
 63
     7
421
 16777215
 74
     1
 91
        4
 64
     7
 65
   257
 75
     1
175
     1
 42
1.0
 92
        8
 66
     7
 43
1.0
 76
     1
 77
     6
 78
     2
 67
     7
 79
     5
170
     0
171
     0
290
     0
174
     0
 93
        1
 44
-50.0
173
     0
291
     1
 45
0.0
1001
ACAD
1000
AcDbSavedByObjectVersion
1070
     0
  0
VISUALSTYLE
  5
39
102
{ACAD_REACTORS
330
2A
102
}
330
2A
100
AcDbVisualStyle
  2
Facepattern
 70
    15
 71
     2
 72
     2
 73
     0
 90
        0
 40
-0.6
 41
-30.0
 62
     5
 63
     7
421
 16777215
 74
     1
 91
        4
 64
     7
 65
   257
 75
     1
175
     1
 42
1.0
 92
        8
 66
     7
 43
1.0
 76
     1
 77
     6
 78
     2
 67
     7
 79
     5
170
     0
171
     0
290
     0
174
     0
 93
        1
 44
0.0
173
     0
291
     1
 45
0.0
1001
ACAD
1000
AcDbSavedByObjectVersion
1070
     0
  0
VISUALSTYLE
  5
2B
102
{ACAD_REACTORS
330
2A
102
}
330
2A
100
AcDbVisualStyle
  2
Flat
 70
     0
 71
     2
 72
     1
 73
     1
 90
        2
 40
-0.6
 41
30.0
 62
     5
 63
     7
421
 16777215
 74
     0
 91
        4
 64
     7
 65
   257
 75
     1
175
     1
 42
1.0
 92
        8
 66
     7
 43
1.0
 76
     1
 77
     6
 78
     2
 67
     7
 79
     5
170
     0
171
     0
290
     0
174
     0
 93
       13
 44
0.0
173
     0
291
     1
 45
0.0
1001
ACAD
1000
AcDbSavedByObjectVersion
1070
     0
  0
VISUALSTYLE
  5
2C
102
{ACAD_REACTORS
330
2A
102
}
330
2A
100
AcDbVisualStyle
  2
FlatWithEdges
 70
     1
 71
     2
 72
     1
 73
     1
 90
        2
 40
-0.6
 41
30.0
 62
     5
 63
     7
421
 16777215
 74
     1
 91
        4
 64
     7
 65
   257
 75
     1
175
     1
 42
1.0
 92
        0
 66
   257
 43
1.0
 76
     1
 77
     6
 78
     2
 67
     7
 79
     5
170
     0
171
     0
290
     0
174
     0
 93
       13
 44
0.0
173
     0
291
     1
 45
0.0
1001
ACAD
1000
AcDbSavedByObjectVersion
1070
     0
  0
VISUALSTYLE
  5
2D
102
{ACAD_REACTORS
330
2A
102
}
330
2A
100
AcDbVisualStyle
  2
Gouraud
 70
     2
 71
     2
 72
     2
 73
     1
 90
        2
 40
-0.6
 41
30.0
 62
     5
 63
     7
421
 16777215
 74
     0
 91
        4
 64
     7
 65
   257
 75
     1
175
     1
 42
1.0
 92
        0
 66
     7
 43
1.0
 76
     1
 77
     6
 78
     2
 67
     7
 79
     5
170
     0
171
     0
290
     0
174
     0
 93
       13
 44
0.0
173
     0
291
     1
 45
0.0
1001
ACAD
1000
AcDbSavedByObjectVersion
1070
     0
  0
VISUALSTYLE
  5
2E
102
{ACAD_REACTORS
330
2A
102
}
330
2A
100
AcDbVisualStyle
  2
GouraudWithEdges
 70
     3
 71
     2
 72
     2
 73
     1
 90
        2
 40
-0.6
 41
30.0
 62
     5
 63
     7
421
 16777215
 74
     1
 91
        4
 64
     7
 65
   257
 75
     1
175
     1
 42
1.0
 92
        0
 66
   257
 43
1.0
 76
     1
 77
     6
 78
     2
 67
     7
 79
     5
170
     0
171
     0
290
     0
174
     0
 93
       13
 44
0.0
173
     0
291
     1
 45
0.0
1001
ACAD
1000
AcDbSavedByObjectVersion
1070
     0
  0
VISUALSTYLE
  5
38
102
{ACAD_REACTORS
330
2A
102
}
330
2A
100
AcDbVisualStyle
  2
Linepattern
 70
    14
 71
     2
 72
     2
 73
     0
 90
        0
 40
-0.6
 41
-30.0
 62
     5
 63
     7
421
 16777215
 74
     1
 91
        4
 64
     7
 65
   257
 75
     7
175
     7
 42
1.0
 92
        8
 66
     7
 43
1.0
 76
     1
 77
     6
 78
     2
 67
     7
 79
     5
170
     0
171
     0
290
     0
174
     0
 93
        1
 44
0.0
173
     0
291
     1
 45
0.0
1001
ACAD
1000
AcDbSavedByObjectVersion
1070
     0
  0
VISUALSTYLE
  5
33
102
{ACAD_REACTORS
330
2A
102
}
330
2A
100
AcDbVisualStyle
  2
Realistic
 70
     8
 71
     2
 72
     2
 73
     0
 90
        0
 40
-0.6
 41
-30.0
 62
     5
 63
     7
421
 16777215
 74
     1
 91
        0
 64
     7
 65
   257
 75
     1
175
     1
 42
1.0
 92
        8
 66
     8
424
  7895160
 43
1.0
 76
     1
 77
     6
 78
     2
 67
     7
 79
     5
170
     0
171
     0
290
     0
174
     0
 93
       13
 44
0.0
173
     0
291
     0
 45
0.0
1001
ACAD
1000
AcDbSavedByObjectVersion
1070
     0
  0
VISUALSTYLE
  5
37
102
{ACAD_REACTORS
330
2A
102
}
330
2A
100
AcDbVisualStyle
  2
Thicken
 70
    13
 71
     2
 72
     2
 73
     0
 90
        0
 40
-0.6
 41
-30.0
 62
     5
 63
     7
421
 16777215
 74
     1
 91
        4
 64
     7
 65
   257
 75
     1
175
     1
 42
1.0
 92
       12
 66
     7
 43
1.0
 76
     1
 77
     6
 78
     2
 67
     7
 79
     5
170
     0
171
     0
290
     0
174
     0
 93
        1
 44
0.0
173
     0
291
     1
 45
0.0
1001
ACAD
1000
AcDbSavedByObjectVersion
1070
     0
  0
ENDSEC
  0
EOF
