  0
SECTION
  2
HEADER
  9
$ACADVER
  1
AC1018
  9
$ACADMAINTVER
 70
     0
  9
$DWGCODEPAGE
  3
ANSI_1252
  9
$INSBASE
 10
0.0
 20
0.0
 30
0.0
  9
$EXTMIN
 10
1.000000000000000E+20
 20
1.000000000000000E+20
 30
1.000000000000000E+20
  9
$EXTMAX
 10
-1.000000000000000E+20
 20
-1.000000000000000E+20
 30
-1.000000000000000E+20
  9
$LIMMIN
 10
0.0
 20
0.0
  9
$LIMMAX
 10
12.0
 20
9.0
  9
$ORTHOMODE
 70
     0
  9
$REGENMODE
 70
     1
  9
$FILLMODE
 70
     1
  9
$QTEXTMODE
 70
     0
  9
$MIRRTEXT
 70
     1
  9
$LTSCALE
 40
1.0
  9
$ATTMODE
 70
     1
  9
$TEXTSIZE
 40
0.2
  9
$TRACEWID
 40
0.05
  9
$TEXTSTYLE
  7
Standard
  9
$CLAYER
  8
0
  9
$CELTYPE
  6
ByLayer
  9
$CECOLOR
 62
   256
  9
$CELTSCALE
 40
1.0
  9
$DISPSILH
 70
     0
  9
$DIMSCALE
 40
1.0
  9
$DIMASZ
 40
0.18
  9
$DIMEXO
 40
0.0625
  9
$DIMDLI
 40
0.38
  9
$DIMRND
 40
0.0
  9
$DIMDLE
 40
0.0
  9
$DIMEXE
 40
0.18
  9
$DIMTP
 40
0.0
  9
$DIMTM
 40
0.0
  9
$DIMTXT
 40
0.18
  9
$DIMCEN
 40
0.09
  9
$DIMTSZ
 40
0.0
  9
$DIMTOL
 70
     0
  9
$DIMLIM
 70
     0
  9
$DIMTIH
 70
     1
  9
$DIMTOH
 70
     1
  9
$DIMSE1
 70
     0
  9
$DIMSE2
 70
     0
  9
$DIMTAD
 70
     0
  9
$DIMZIN
 70
     0
  9
$DIMBLK
  1

  9
$DIMASO
 70
     1
  9
$DIMSHO
 70
     1
  9
$DIMPOST
  1

  9
$DIMAPOST
  1

  9
$DIMALT
 70
     0
  9
$DIMALTD
 70
     2
  9
$DIMALTF
 40
25.4
  9
$DIMLFAC
 40
1.0
  9
$DIMTOFL
 70
     0
  9
$DIMTVP
 40
0.0
  9
$DIMTIX
 70
     0
  9
$DIMSOXD
 70
     0
  9
$DIMSAH
 70
     0
  9
$DIMBLK1
  1

  9
$DIMBLK2
  1

  9
$DIMSTYLE
  2
Standard
  9
$DIMCLRD
 70
     0
  9
$DIMCLRE
 70
     0
  9
$DIMCLRT
 70
     0
  9
$DIMTFAC
 40
1.0
  9
$DIMGAP
 40
0.09
  9
$DIMJUST
 70
     0
  9
$DIMSD1
 70
     0
  9
$DIMSD2
 70
     0
  9
$DIMTOLJ
 70
     1
  9
$DIMTZIN
 70
     0
  9
$DIMALTZ
 70
     0
  9
$DIMALTTZ
 70
     0
  9
$DIMUPT
 70
     0
  9
$DIMDEC
 70
     4
  9
$DIMTDEC
 70
     4
  9
$DIMALTU
 70
     2
  9
$DIMALTTD
 70
     2
  9
$DIMTXSTY
  7
Standard
  9
$DIMAUNIT
 70
     0
  9
$DIMADEC
 70
     0
  9
$DIMALTRND
 40
0.0
  9
$DIMAZIN
 70
     0
  9
$DIMDSEP
 70
    46
  9
$DIMATFIT
 70
     3
  9
$DIMFRAC
 70
     0
  9
$DIMLDRBLK
  1

  9
$DIMLUNIT
 70
     2
  9
$DIMLWD
 70
    -2
  9
$DIMLWE
 70
    -2
  9
$DIMTMOVE
 70
     0
  9
$LUNITS
 70
     2
  9
$LUPREC
 70
     4
  9
$SKETCHINC
 40
0.1
  9
$FILLETRAD
 40
0.5
  9
$AUNITS
 70
     0
  9
$AUPREC
 70
     0
  9
$MENU
  1
.
  9
$ELEVATION
 40
0.0
  9
$PELEVATION
 40
0.0
  9
$THICKNESS
 40
0.0
  9
$LIMCHECK
 70
     0
  9
$CHAMFERA
 40
0.5
  9
$CHAMFERB
 40
0.5
  9
$CHAMFERC
 40
1.0
  9
$CHAMFERD
 40
0.0
  9
$SKPOLY
 70
     0
  9
$TDCREATE
 40
2457548.349872754
  9
$TDUCREATE
 40
2457548.266539421
  9
$TDUPDATE
 40
2457548.349872766
  9
$TDUUPDATE
 40
2457548.266539433
  9
$TDINDWG
 40
0.0000000116
  9
$TDUSRTIMER
 40
0.0000000116
  9
$USRTIMER
 70
     1
  9
$ANGBASE
 50
0.0
  9
$ANGDIR
 70
     0
  9
$PDMODE
 70
     0
  9
$PDSIZE
 40
0.0
  9
$PLINEWID
 40
0.0
  9
$SPLFRAME
 70
     0
  9
$SPLINETYPE
 70
     6
  9
$SPLINESEGS
 70
     8
  9
$HANDSEED
  5
505
  9
$SURFTAB1
 70
     6
  9
$SURFTAB2
 70
     6
  9
$SURFTYPE
 70
     6
  9
$SURFU
 70
     6
  9
$SURFV
 70
     6
  9
$UCSBASE
  2

  9
$UCSNAME
  2

  9
$UCSORG
 10
0.0
 20
0.0
 30
0.0
  9
$UCSXDIR
 10
1.0
 20
0.0
 30
0.0
  9
$UCSYDIR
 10
0.0
 20
1.0
 30
0.0
  9
$UCSORTHOREF
  2

  9
$UCSORTHOVIEW
 70
     0
  9
$UCSORGTOP
 10
0.0
 20
0.0
 30
0.0
  9
$UCSORGBOTTOM
 10
0.0
 20
0.0
 30
0.0
  9
$UCSORGLEFT
 10
0.0
 20
0.0
 30
0.0
  9
$UCSORGRIGHT
 10
0.0
 20
0.0
 30
0.0
  9
$UCSORGFRONT
 10
0.0
 20
0.0
 30
0.0
  9
$UCSORGBACK
 10
0.0
 20
0.0
 30
0.0
  9
$PUCSBASE
  2

  9
$PUCSNAME
  2

  9
$PUCSORG
 10
0.0
 20
0.0
 30
0.0
  9
$PUCSXDIR
 10
1.0
 20
0.0
 30
0.0
  9
$PUCSYDIR
 10
0.0
 20
1.0
 30
0.0
  9
$PUCSORTHOREF
  2

  9
$PUCSORTHOVIEW
 70
     0
  9
$PUCSORGTOP
 10
0.0
 20
0.0
 30
0.0
  9
$PUCSORGBOTTOM
 10
0.0
 20
0.0
 30
0.0
  9
$PUCSORGLEFT
 10
0.0
 20
0.0
 30
0.0
  9
$PUCSORGRIGHT
 10
0.0
 20
0.0
 30
0.0
  9
$PUCSORGFRONT
 10
0.0
 20
0.0
 30
0.0
  9
$PUCSORGBACK
 10
0.0
 20
0.0
 30
0.0
  9
$USERI1
 70
     0
  9
$USERI2
 70
     0
  9
$USERI3
 70
     0
  9
$USERI4
 70
     0
  9
$USERI5
 70
     0
  9
$USERR1
 40
0.0
  9
$USERR2
 40
0.0
  9
$USERR3
 40
0.0
  9
$USERR4
 40
0.0
  9
$USERR5
 40
0.0
  9
$WORLDVIEW
 70
     1
  9
$SHADEDGE
 70
     3
  9
$SHADEDIF
 70
    70
  9
$TILEMODE
 70
     1
  9
$MAXACTVP
 70
    64
  9
$PINSBASE
 10
0.0
 20
0.0
 30
0.0
  9
$PLIMCHECK
 70
     0
  9
$PEXTMIN
 10
1.000000000000000E+20
 20
1.000000000000000E+20
 30
1.000000000000000E+20
  9
$PEXTMAX
 10
-1.000000000000000E+20
 20
-1.000000000000000E+20
 30
-1.000000000000000E+20
  9
$PLIMMIN
 10
0.0
 20
0.0
  9
$PLIMMAX
 10
12.0
 20
9.0
  9
$UNITMODE
 70
     0
  9
$VISRETAIN
 70
     1
  9
$PLINEGEN
 70
     0
  9
$PSLTSCALE
 70
     1
  9
$TREEDEPTH
 70
  3020
  9
$CMLSTYLE
  2
Standard
  9
$CMLJUST
 70
     0
  9
$CMLSCALE
 40
1.0
  9
$PROXYGRAPHICS
 70
     1
  9
$MEASUREMENT
 70
     0
  9
$CELWEIGHT
370
    -1
  9
$ENDCAPS
280
     0
  9
$JOINSTYLE
280
     0
  9
$LWDISPLAY
290
     1
  9
$INSUNITS
 70
     1
  9
$HYPERLINKBASE
  1

  9
$STYLESHEET
  1

  9
$XEDIT
290
     1
  9
$CEPSNTYPE
380
     0
  9
$PSTYLEMODE
290
     1
  9
$FINGERPRINTGUID
  2
{D503D3AD-89B5-4DFD-9E7C-96F09D10E7FE}
  9
$VERSIONGUID
  2
{FAEB1C32-E019-11D5-929B-00C0DF256EC4}
  9
$EXTNAMES
290
     1
  9
$PSVPSCALE
 40
0.0
  9
$OLESTARTUP
290
     0
  9
$SORTENTS
280
   127
  9
$INDEXCTL
280
     0
  9
$HIDETEXT
280
     1
  9
$XCLIPFRAME
290
     0
  9
$HALOGAP
280
     0
  9
$OBSCOLOR
 70
   257
  9
$OBSLTYPE
280
     0
  9
$INTERSECTIONDISPLAY
280
     0
  9
$INTERSECTIONCOLOR
 70
   257
  9
$DIMASSOC
280
     2
  9
$PROJECTNAME
  1

  0
ENDSEC
  0
SECTION
  2
CLASSES
  0
CLASS
  1
ACDBDICTIONARYWDFLT
  2
AcDbDictionaryWithDefault
  3
ObjectDBX Classes
 90
        0
 91
        3
280
     0
281
     0
  0
CLASS
  1
VISUALSTYLE
  2
AcDbVisualStyle
  3
ObjectDBX Classes
 90
     4095
 91
        3
280
     0
281
     0
  0
ENDSEC
  0
SECTION
  2
TABLES
  0
TABLE
  2
VPORT
  5
8
330
0
100
AcDbSymbolTable
 70
     1
  0
VPORT
  5
29
330
8
100
AcDbSymbolTableRecord
100
AcDbViewportTableRecord
  2
*Active
 70
     0
 10
0.0
 20
0.0
 11
1.0
 21
1.0
 12
0.0
 22
0.0
 13
0.0
 23
0.0
 14
0.5
 24
0.5
 15
0.5
 25
0.5
 16
0.0
 26
0.0
 36
1.0
 17
96.69332272973293
 27
-99.07672591381589
 37
0.0
 40
313.7808470895235
 41
0.8161872278847986
 42
50.0
 43
0.0
 44
0.0
 50
0.0
 51
0.0
 71
     0
 72
   100
 73
     1
 74
     3
 75
     0
 76
     0
 77
     0
 78
     0
281
     0
 65
     1
110
0.0
120
0.0
130
0.0
111
1.0
121
0.0
131
0.0
112
0.0
122
1.0
132
0.0
 79
     0
146
0.0
  0
ENDTAB
  0
TABLE
  2
LTYPE
  5
5
330
0
100
AcDbSymbolTable
 70
     1
  0
LTYPE
  5
14
330
5
100
AcDbSymbolTableRecord
100
AcDbLinetypeTableRecord
  2
ByBlock
 70
     0
  3

 72
    65
 73
     0
 40
0.0
  0
LTYPE
  5
15
330
5
100
AcDbSymbolTableRecord
100
AcDbLinetypeTableRecord
  2
ByLayer
 70
     0
  3

 72
    65
 73
     0
 40
0.0
  0
LTYPE
  5
16
330
5
100
AcDbSymbolTableRecord
100
AcDbLinetypeTableRecord
  2
Continuous
 70
     0
  3
Solid line
 72
    65
 73
     0
 40
0.0
  0
ENDTAB
  0
TABLE
  2
LAYER
  5
2
330
0
100
AcDbSymbolTable
 70
     2
  0
LAYER
  5
10
330
2
100
AcDbSymbolTableRecord
100
AcDbLayerTableRecord
  2
0
 70
     0
 62
     7
  6
Continuous
370
    -3
390
F
  0
LAYER
  5
3B
330
2
100
AcDbSymbolTableRecord
100
AcDbLayerTableRecord
  2
Capa 1
 70
     0
 62
     7
  6
Continuous
370
    -3
390
F
  0
ENDTAB
  0
TABLE
  2
STYLE
  5
3
330
0
100
AcDbSymbolTable
 70
     1
  0
STYLE
  5
11
330
3
100
AcDbSymbolTableRecord
100
AcDbTextStyleTableRecord
  2
Standard
 70
     0
 40
0.0
 41
1.0
 50
0.0
 71
     0
 42
0.2
  3
txt
  4

  0
ENDTAB
  0
TABLE
  2
VIEW
  5
6
330
0
100
AcDbSymbolTable
 70
     0
  0
ENDTAB
  0
TABLE
  2
UCS
  5
7
330
0
100
AcDbSymbolTable
 70
     0
  0
ENDTAB
  0
TABLE
  2
APPID
  5
9
330
0
100
AcDbSymbolTable
 70
     1
  0
APPID
  5
12
330
9
100
AcDbSymbolTableRecord
100
AcDbRegAppTableRecord
  2
ACAD
 70
     0
  0
ENDTAB
  0
TABLE
  2
DIMSTYLE
  5
A
330
0
100
AcDbSymbolTable
 70
     1
100
AcDbDimStyleTable
  0
DIMSTYLE
105
27
330
A
100
AcDbSymbolTableRecord
100
AcDbDimStyleTableRecord
  2
Standard
 70
     0
340
11
  0
ENDTAB
  0
TABLE
  2
BLOCK_RECORD
  5
1
330
0
100
AcDbSymbolTable
 70
     1
  0
BLOCK_RECORD
  5
1F
330
1
100
AcDbSymbolTableRecord
100
AcDbBlockTableRecord
  2
*Model_Space
340
22
  0
BLOCK_RECORD
  5
1B
330
1
100
AcDbSymbolTableRecord
100
AcDbBlockTableRecord
  2
*Paper_Space
340
1E
  0
BLOCK_RECORD
  5
23
330
1
100
AcDbSymbolTableRecord
100
AcDbBlockTableRecord
  2
*Paper_Space0
340
26
  0
ENDTAB
  0
ENDSEC
  0
SECTION
  2
BLOCKS
  0
BLOCK
  5
20
330
1F
100
AcDbEntity
  8
0
100
AcDbBlockBegin
  2
*Model_Space
 70
     0
 71
     0
 10
0.0
 20
0.0
 30
0.0
  3
*Model_Space
  1

  0
ENDBLK
  5
21
330
1F
100
AcDbEntity
  8
0
100
AcDbBlockEnd
  0
BLOCK
  5
1C
330
1B
100
AcDbEntity
 67
     1
  8
0
100
AcDbBlockBegin
  2
*Paper_Space
 70
     0
 71
     0
 10
0.0
 20
0.0
 30
0.0
  3
*Paper_Space
  1

  0
ENDBLK
  5
1D
330
1B
100
AcDbEntity
 67
     1
  8
0
100
AcDbBlockEnd
  0
BLOCK
  5
24
330
23
100
AcDbEntity
  8
0
100
AcDbBlockBegin
  2
*Paper_Space0
 70
     0
 71
     0
 10
0.0
 20
0.0
 30
0.0
  3
*Paper_Space0
  1

  0
ENDBLK
  5
25
330
23
100
AcDbEntity
  8
0
100
AcDbBlockEnd
  0
ENDSEC
  0
SECTION
  2
ENTITIES
  0
POLYLINE
  5
3C
330
1F
100
AcDbEntity
  8
Capa 1
 62
     7
420
 16777215
370
     9
100
AcDb2dPolyline
 66
     1
 10
0.0
 20
0.0
 30
0.0
  0
VERTEX
  5
3D
330
3C
100
AcDbEntity
  8
Capa 1
 62
     7
420
 16777215
370
     9
100
AcDbVertex
100
AcDb2dVertex
 10
95.02641327919478
 20
-76.60755477685505
 30
0.0
  0
VERTEX
  5
3E
330
3C
100
AcDbEntity
  8
Capa 1
 62
     7
420
 16777215
370
     9
100
AcDbVertex
100
AcDb2dVertex
 10
85.83162568383723
 20
-76.60755477685505
 30
0.0
  0
SEQEND
  5
3F
330
3C
100
AcDbEntity
  8
Capa 1
370
     9
  0
POLYLINE
  5
40
330
1F
100
AcDbEntity
  8
Capa 1
 62
     7
420
 16777215
370
     9
100
AcDb2dPolyline
 66
     1
 10
0.0
 20
0.0
 30
0.0
  0
VERTEX
  5
41
330
40
100
AcDbEntity
  8
Capa 1
 62
     7
420
 16777215
370
     9
100
AcDbVertex
100
AcDb2dVertex
 10
70.16798229582606
 20
-84.13956703625678
 30
0.0
  0
VERTEX
  5
42
330
40
100
AcDbEntity
  8
Capa 1
 62
     7
420
 16777215
370
     9
100
AcDbVertex
100
AcDb2dVertex
 10
69.57732067487999
 20
-84.73212345971974
 30
0.0
  0
SEQEND
  5
43
330
40
100
AcDbEntity
  8
Capa 1
370
     9
  0
POLYLINE
  5
44
330
1F
100
AcDbEntity
  8
Capa 1
 62
     7
420
 16777215
370
     9
100
AcDb2dPolyline
 66
     1
 10
0.0
 20
0.0
 30
0.0
  0
VERTEX
  5
45
330
44
100
AcDbEntity
  8
Capa 1
 62
     7
420
 16777215
370
     9
100
AcDbVertex
100
AcDb2dVertex
 10
69.57732067487999
 20
-95.3735066493337
 30
0.0
  0
VERTEX
  5
46
330
44
100
AcDbEntity
  8
Capa 1
 62
     7
420
 16777215
370
     9
100
AcDbVertex
100
AcDb2dVertex
 10
70.16798229582606
 20
-95.96623532757094
 30
0.0
  0
SEQEND
  5
47
330
44
100
AcDbEntity
  8
Capa 1
370
     9
  0
POLYLINE
  5
48
330
1F
100
AcDbEntity
  8
Capa 1
 62
     7
420
 16777215
370
     9
100
AcDb2dPolyline
 66
     1
 10
0.0
 20
0.0
 30
0.0
  0
VERTEX
  5
49
330
48
100
AcDbEntity
  8
Capa 1
 62
     7
420
 16777215
370
     9
100
AcDbVertex
100
AcDb2dVertex
 10
74.30760903090227
 20
-95.96623532757094
 30
0.0
  0
VERTEX
  5
4A
330
48
100
AcDbEntity
  8
Capa 1
 62
     7
420
 16777215
370
     9
100
AcDbVertex
100
AcDb2dVertex
 10
74.8980983970741
 20
-95.3735066493337
 30
0.0
  0
SEQEND
  5
4B
330
48
100
AcDbEntity
  8
Capa 1
370
     9
  0
POLYLINE
  5
4C
330
1F
100
AcDbEntity
  8
Capa 1
 62
     7
420
 16777215
370
     9
100
AcDb2dPolyline
 66
     1
 10
0.0
 20
0.0
 30
0.0
  0
VERTEX
  5
4D
330
4C
100
AcDbEntity
  8
Capa 1
 62
     7
420
 16777215
370
     9
100
AcDbVertex
100
AcDb2dVertex
 10
74.8980983970741
 20
-84.73212345971974
 30
0.0
  0
VERTEX
  5
4E
330
4C
100
AcDbEntity
  8
Capa 1
 62
     7
420
 16777215
370
     9
100
AcDbVertex
100
AcDb2dVertex
 10
74.30760903090227
 20
-84.13956703625678
 30
0.0
  0
SEQEND
  5
4F
330
4C
100
AcDbEntity
  8
Capa 1
370
     9
  0
POLYLINE
  5
50
330
1F
100
AcDbEntity
  8
Capa 1
 62
     7
420
 16777215
370
     9
100
AcDb2dPolyline
 66
     1
 10
0.0
 20
0.0
 30
0.0
  0
VERTEX
  5
51
330
50
100
AcDbEntity
  8
Capa 1
 62
     7
420
 16777215
370
     9
100
AcDbVertex
100
AcDb2dVertex
 10
74.99766165659781
 20
-96.12539873898949
 30
0.0
  0
VERTEX
  5
52
330
50
100
AcDbEntity
  8
Capa 1
 62
     7
420
 16777215
370
     9
100
AcDbVertex
100
AcDb2dVertex
 10
95.02641327919478
 20
-96.12539873898949
 30
0.0
  0
SEQEND
  5
53
330
50
100
AcDbEntity
  8
Capa 1
370
     9
  0
POLYLINE
  5
54
330
1F
100
AcDbEntity
  8
Capa 1
 62
     7
420
 16777215
370
     9
100
AcDb2dPolyline
 66
     1
 10
0.0
 20
0.0
 30
0.0
  0
VERTEX
  5
55
330
54
100
AcDbEntity
  8
Capa 1
 62
     7
420
 16777215
370
     9
100
AcDbVertex
100
AcDb2dVertex
 10
95.33182099396218
 20
-76.91261798207393
 30
0.0
  0
VERTEX
  5
56
330
54
100
AcDbEntity
  8
Capa 1
 62
     7
420
 16777215
370
     9
100
AcDbVertex
100
AcDb2dVertex
 10
95.02641327919478
 20
-76.60755477685505
 30
0.0
  0
SEQEND
  5
57
330
54
100
AcDbEntity
  8
Capa 1
370
     9
  0
POLYLINE
  5
58
330
1F
100
AcDbEntity
  8
Capa 1
 62
     7
420
 16777215
370
     9
100
AcDb2dPolyline
 66
     1
 10
0.0
 20
0.0
 30
0.0
  0
VERTEX
  5
59
330
58
100
AcDbEntity
  8
Capa 1
 62
     7
420
 16777215
370
     9
100
AcDbVertex
100
AcDb2dVertex
 10
74.99766165659781
 20
-69.31411537980689
 30
0.0
  0
VERTEX
  5
5A
330
58
100
AcDbEntity
  8
Capa 1
 62
     7
420
 16777215
370
     9
100
AcDbVertex
100
AcDb2dVertex
 10
74.99766165659781
 20
-76.60755477685505
 30
0.0
  0
SEQEND
  5
5B
330
58
100
AcDbEntity
  8
Capa 1
370
     9
  0
POLYLINE
  5
5C
330
1F
100
AcDbEntity
  8
Capa 1
 62
     7
420
 16777215
370
     9
100
AcDb2dPolyline
 66
     1
 10
0.0
 20
0.0
 30
0.0
  0
VERTEX
  5
5D
330
5C
100
AcDbEntity
  8
Capa 1
 62
     7
420
 16777215
370
     9
100
AcDbVertex
100
AcDb2dVertex
 10
62.48111299436236
 20
-103.458456734118
 30
0.0
  0
VERTEX
  5
5E
330
5C
100
AcDbEntity
  8
Capa 1
 62
     7
420
 16777215
370
     9
100
AcDbVertex
100
AcDb2dVertex
 10
68.0075629170259
 20
-99.2923027638054
 30
0.0
  0
SEQEND
  5
5F
330
5C
100
AcDbEntity
  8
Capa 1
370
     9
  0
POLYLINE
  5
60
330
1F
100
AcDbEntity
  8
Capa 1
 62
     7
420
 16777215
370
     9
100
AcDb2dPolyline
 66
     1
 10
0.0
 20
0.0
 30
0.0
  0
VERTEX
  5
61
330
60
100
AcDbEntity
  8
Capa 1
 62
     7
420
 16777215
370
     9
100
AcDbVertex
100
AcDb2dVertex
 10
68.0075629170259
 20
-80.81349960002233
 30
0.0
  0
VERTEX
  5
62
330
60
100
AcDbEntity
  8
Capa 1
 62
     7
420
 16777215
370
     9
100
AcDbVertex
100
AcDb2dVertex
 10
62.48111299436236
 20
-76.64717337493543
 30
0.0
  0
SEQEND
  5
63
330
60
100
AcDbEntity
  8
Capa 1
370
     9
  0
POLYLINE
  5
64
330
1F
100
AcDbEntity
  8
Capa 1
 62
     7
420
 16777215
370
     9
100
AcDb2dPolyline
 66
     1
 10
0.0
 20
0.0
 30
0.0
  0
VERTEX
  5
65
330
64
100
AcDbEntity
  8
Capa 1
 62
     7
420
 16777215
370
     9
100
AcDbVertex
100
AcDb2dVertex
 10
70.16798229582606
 20
-84.13956703625678
 30
0.0
  0
VERTEX
  5
66
330
64
100
AcDbEntity
  8
Capa 1
 62
     7
420
 16777215
370
     9
100
AcDbVertex
100
AcDb2dVertex
 10
69.57732067487999
 20
-84.73212345971974
 30
0.0
  0
SEQEND
  5
67
330
64
100
AcDbEntity
  8
Capa 1
370
     9
  0
POLYLINE
  5
68
330
1F
100
AcDbEntity
  8
Capa 1
 62
     7
420
 16777215
370
     9
100
AcDb2dPolyline
 66
     1
 10
0.0
 20
0.0
 30
0.0
  0
VERTEX
  5
69
330
68
100
AcDbEntity
  8
Capa 1
 62
     7
420
 16777215
370
     9
100
AcDbVertex
100
AcDb2dVertex
 10
69.57732067487999
 20
-95.3735066493337
 30
0.0
  0
VERTEX
  5
6A
330
68
100
AcDbEntity
  8
Capa 1
 62
     7
420
 16777215
370
     9
100
AcDbVertex
100
AcDb2dVertex
 10
70.16798229582606
 20
-95.96623532757094
 30
0.0
  0
SEQEND
  5
6B
330
68
100
AcDbEntity
  8
Capa 1
370
     9
  0
POLYLINE
  5
6C
330
1F
100
AcDbEntity
  8
Capa 1
 62
     7
420
 16777215
370
     9
100
AcDb2dPolyline
 66
     1
 10
0.0
 20
0.0
 30
0.0
  0
VERTEX
  5
6D
330
6C
100
AcDbEntity
  8
Capa 1
 62
     7
420
 16777215
370
     9
100
AcDbVertex
100
AcDb2dVertex
 10
74.30760903090227
 20
-95.96623532757094
 30
0.0
  0
VERTEX
  5
6E
330
6C
100
AcDbEntity
  8
Capa 1
 62
     7
420
 16777215
370
     9
100
AcDbVertex
100
AcDb2dVertex
 10
74.8980983970741
 20
-95.3735066493337
 30
0.0
  0
SEQEND
  5
6F
330
6C
100
AcDbEntity
  8
Capa 1
370
     9
  0
POLYLINE
  5
70
330
1F
100
AcDbEntity
  8
Capa 1
 62
     7
420
 16777215
370
     9
100
AcDb2dPolyline
 66
     1
 10
0.0
 20
0.0
 30
0.0
  0
VERTEX
  5
71
330
70
100
AcDbEntity
  8
Capa 1
 62
     7
420
 16777215
370
     9
100
AcDbVertex
100
AcDb2dVertex
 10
74.8980983970741
 20
-84.73212345971974
 30
0.0
  0
VERTEX
  5
72
330
70
100
AcDbEntity
  8
Capa 1
 62
     7
420
 16777215
370
     9
100
AcDbVertex
100
AcDb2dVertex
 10
74.30760903090227
 20
-84.13956703625678
 30
0.0
  0
SEQEND
  5
73
330
70
100
AcDbEntity
  8
Capa 1
370
     9
  0
POLYLINE
  5
74
330
1F
100
AcDbEntity
  8
Capa 1
 62
     7
420
 16777215
370
     9
100
AcDb2dPolyline
 66
     1
 10
0.0
 20
0.0
 30
0.0
  0
VERTEX
  5
75
330
74
100
AcDbEntity
  8
Capa 1
 62
     7
420
 16777215
370
     9
100
AcDbVertex
100
AcDb2dVertex
 10
74.30760903090227
 20
-95.96623532757094
 30
0.0
  0
VERTEX
  5
76
330
74
100
AcDbEntity
  8
Capa 1
 62
     7
420
 16777215
370
     9
100
AcDbVertex
100
AcDb2dVertex
 10
74.8980983970741
 20
-95.3735066493337
 30
0.0
  0
SEQEND
  5
77
330
74
100
AcDbEntity
  8
Capa 1
370
     9
  0
POLYLINE
  5
78
330
1F
100
AcDbEntity
  8
Capa 1
 62
     7
420
 16777215
370
     9
100
AcDb2dPolyline
 66
     1
 10
0.0
 20
0.0
 30
0.0
  0
VERTEX
  5
79
330
78
100
AcDbEntity
  8
Capa 1
 62
     7
420
 16777215
370
     9
100
AcDbVertex
100
AcDb2dVertex
 10
74.8980983970741
 20
-84.73212345971974
 30
0.0
  0
VERTEX
  5
7A
330
78
100
AcDbEntity
  8
Capa 1
 62
     7
420
 16777215
370
     9
100
AcDbVertex
100
AcDb2dVertex
 10
74.30760903090227
 20
-84.13956703625678
 30
0.0
  0
SEQEND
  5
7B
330
78
100
AcDbEntity
  8
Capa 1
370
     9
  0
POLYLINE
  5
7C
330
1F
100
AcDbEntity
  8
Capa 1
 62
     7
420
 16777215
370
     9
100
AcDb2dPolyline
 66
     1
 10
0.0
 20
0.0
 30
0.0
  0
VERTEX
  5
7D
330
7C
100
AcDbEntity
  8
Capa 1
 62
     7
420
 16777215
370
     9
100
AcDbVertex
100
AcDb2dVertex
 10
70.16798229582606
 20
-84.13956703625678
 30
0.0
  0
VERTEX
  5
7E
330
7C
100
AcDbEntity
  8
Capa 1
 62
     7
420
 16777215
370
     9
100
AcDbVertex
100
AcDb2dVertex
 10
69.57732067487999
 20
-84.73212345971974
 30
0.0
  0
SEQEND
  5
7F
330
7C
100
AcDbEntity
  8
Capa 1
370
     9
  0
POLYLINE
  5
80
330
1F
100
AcDbEntity
  8
Capa 1
 62
     7
420
 16777215
370
     9
100
AcDb2dPolyline
 66
     1
 10
0.0
 20
0.0
 30
0.0
  0
VERTEX
  5
81
330
80
100
AcDbEntity
  8
Capa 1
 62
     7
420
 16777215
370
     9
100
AcDbVertex
100
AcDb2dVertex
 10
69.57732067487999
 20
-95.3735066493337
 30
0.0
  0
VERTEX
  5
82
330
80
100
AcDbEntity
  8
Capa 1
 62
     7
420
 16777215
370
     9
100
AcDbVertex
100
AcDb2dVertex
 10
70.16798229582606
 20
-95.96623532757094
 30
0.0
  0
SEQEND
  5
83
330
80
100
AcDbEntity
  8
Capa 1
370
     9
  0
POLYLINE
  5
84
330
1F
100
AcDbEntity
  8
Capa 1
 62
     7
420
 16777215
370
     9
100
AcDb2dPolyline
 66
     1
 10
0.0
 20
0.0
 30
0.0
  0
VERTEX
  5
85
330
84
100
AcDbEntity
  8
Capa 1
 62
     7
420
 16777215
370
     9
100
AcDbVertex
100
AcDb2dVertex
 10
73.7172919195047
 20
-84.13956703625678
 30
0.0
  0
VERTEX
  5
86
330
84
100
AcDbEntity
  8
Capa 1
 62
     7
420
 16777215
370
     9
100
AcDbVertex
100
AcDb2dVertex
 10
70.75847166199789
 20
-84.13956703625678
 30
0.0
  0
SEQEND
  5
87
330
84
100
AcDbEntity
  8
Capa 1
370
     9
  0
POLYLINE
  5
88
330
1F
100
AcDbEntity
  8
Capa 1
 62
     7
420
 16777215
370
     9
100
AcDb2dPolyline
 66
     1
 10
0.0
 20
0.0
 30
0.0
  0
VERTEX
  5
89
330
88
100
AcDbEntity
  8
Capa 1
 62
     7
420
 16777215
370
     9
100
AcDbVertex
100
AcDb2dVertex
 10
99.33019881414315
 20
-77.29743514777634
 30
0.0
  0
VERTEX
  5
8A
330
88
100
AcDbEntity
  8
Capa 1
 62
     7
420
 16777215
370
     9
100
AcDbVertex
100
AcDb2dVertex
 10
99.33019881414315
 20
-86.02351750236565
 30
0.0
  0
SEQEND
  5
8B
330
88
100
AcDbEntity
  8
Capa 1
370
     9
  0
POLYLINE
  5
8C
330
1F
100
AcDbEntity
  8
Capa 1
 62
     7
420
 16777215
370
     9
100
AcDb2dPolyline
 66
     1
 10
0.0
 20
0.0
 30
0.0
  0
VERTEX
  5
8D
330
8C
100
AcDbEntity
  8
Capa 1
 62
     7
420
 16777215
370
     9
100
AcDbVertex
100
AcDb2dVertex
 10
70.75847166199789
 20
-95.96623532757094
 30
0.0
  0
VERTEX
  5
8E
330
8C
100
AcDbEntity
  8
Capa 1
 62
     7
420
 16777215
370
     9
100
AcDbVertex
100
AcDb2dVertex
 10
73.7172919195047
 20
-95.96623532757094
 30
0.0
  0
SEQEND
  5
8F
330
8C
100
AcDbEntity
  8
Capa 1
370
     9
  0
POLYLINE
  5
90
330
1F
100
AcDbEntity
  8
Capa 1
 62
     7
420
 16777215
370
     9
100
AcDb2dPolyline
 66
     1
 10
0.0
 20
0.0
 30
0.0
  0
VERTEX
  5
91
330
90
100
AcDbEntity
  8
Capa 1
 62
     7
420
 16777215
370
     9
100
AcDbVertex
100
AcDb2dVertex
 10
70.75847166199789
 20
-95.35576440758467
 30
0.0
  0
VERTEX
  5
92
330
90
100
AcDbEntity
  8
Capa 1
 62
     7
420
 16777215
370
     9
100
AcDbVertex
100
AcDb2dVertex
 10
70.75847166199789
 20
-95.96623532757094
 30
0.0
  0
SEQEND
  5
93
330
90
100
AcDbEntity
  8
Capa 1
370
     9
  0
POLYLINE
  5
94
330
1F
100
AcDbEntity
  8
Capa 1
 62
     7
420
 16777215
370
     9
100
AcDb2dPolyline
 66
     1
 10
0.0
 20
0.0
 30
0.0
  0
VERTEX
  5
95
330
94
100
AcDbEntity
  8
Capa 1
 62
     7
420
 16777215
370
     9
100
AcDbVertex
100
AcDb2dVertex
 10
70.75847166199789
 20
-95.96623532757094
 30
0.0
  0
VERTEX
  5
96
330
94
100
AcDbEntity
  8
Capa 1
 62
     7
420
 16777215
370
     9
100
AcDbVertex
100
AcDb2dVertex
 10
73.7172919195047
 20
-95.96623532757094
 30
0.0
  0
SEQEND
  5
97
330
94
100
AcDbEntity
  8
Capa 1
370
     9
  0
POLYLINE
  5
98
330
1F
100
AcDbEntity
  8
Capa 1
 62
     7
420
 16777215
370
     9
100
AcDb2dPolyline
 66
     1
 10
0.0
 20
0.0
 30
0.0
  0
VERTEX
  5
99
330
98
100
AcDbEntity
  8
Capa 1
 62
     7
420
 16777215
370
     9
100
AcDbVertex
100
AcDb2dVertex
 10
74.8980983970741
 20
-84.73212345971974
 30
0.0
  0
VERTEX
  5
9A
330
98
100
AcDbEntity
  8
Capa 1
 62
     7
420
 16777215
370
     9
100
AcDbVertex
100
AcDb2dVertex
 10
74.8980983970741
 20
-95.3735066493337
 30
0.0
  0
SEQEND
  5
9B
330
98
100
AcDbEntity
  8
Capa 1
370
     9
  0
POLYLINE
  5
9C
330
1F
100
AcDbEntity
  8
Capa 1
 62
     7
420
 16777215
370
     9
100
AcDb2dPolyline
 66
     1
 10
0.0
 20
0.0
 30
0.0
  0
VERTEX
  5
9D
330
9C
100
AcDbEntity
  8
Capa 1
 62
     7
420
 16777215
370
     9
100
AcDbVertex
100
AcDb2dVertex
 10
70.75847166199789
 20
-90.66337210190014
 30
0.0
  0
VERTEX
  5
9E
330
9C
100
AcDbEntity
  8
Capa 1
 62
     7
420
 16777215
370
     9
100
AcDbVertex
100
AcDb2dVertex
 10
73.7172919195047
 20
-90.66337210190014
 30
0.0
  0
SEQEND
  5
9F
330
9C
100
AcDbEntity
  8
Capa 1
370
     9
  0
POLYLINE
  5
A0
330
1F
100
AcDbEntity
  8
Capa 1
 62
     7
420
 16777215
370
     9
100
AcDb2dPolyline
 66
     1
 10
0.0
 20
0.0
 30
0.0
  0
VERTEX
  5
A1
330
A0
100
AcDbEntity
  8
Capa 1
 62
     7
420
 16777215
370
     9
100
AcDbVertex
100
AcDb2dVertex
 10
73.7172919195047
 20
-95.35576440758467
 30
0.0
  0
VERTEX
  5
A2
330
A0
100
AcDbEntity
  8
Capa 1
 62
     7
420
 16777215
370
     9
100
AcDbVertex
100
AcDb2dVertex
 10
70.75847166199789
 20
-95.35576440758467
 30
0.0
  0
SEQEND
  5
A3
330
A0
100
AcDbEntity
  8
Capa 1
370
     9
  0
POLYLINE
  5
A4
330
1F
100
AcDbEntity
  8
Capa 1
 62
     7
420
 16777215
370
     9
100
AcDb2dPolyline
 66
     1
 10
0.0
 20
0.0
 30
0.0
  0
VERTEX
  5
A5
330
A4
100
AcDbEntity
  8
Capa 1
 62
     7
420
 16777215
370
     9
100
AcDbVertex
100
AcDb2dVertex
 10
70.75847166199789
 20
-84.74986570146879
 30
0.0
  0
VERTEX
  5
A6
330
A4
100
AcDbEntity
  8
Capa 1
 62
     7
420
 16777215
370
     9
100
AcDbVertex
100
AcDb2dVertex
 10
73.7172919195047
 20
-84.74986570146879
 30
0.0
  0
SEQEND
  5
A7
330
A4
100
AcDbEntity
  8
Capa 1
370
     9
  0
POLYLINE
  5
A8
330
1F
100
AcDbEntity
  8
Capa 1
 62
     7
420
 16777215
370
     9
100
AcDb2dPolyline
 66
     1
 10
0.0
 20
0.0
 30
0.0
  0
VERTEX
  5
A9
330
A8
100
AcDbEntity
  8
Capa 1
 62
     7
420
 16777215
370
     9
100
AcDbVertex
100
AcDb2dVertex
 10
73.7172919195047
 20
-89.44260251670185
 30
0.0
  0
VERTEX
  5
AA
330
A8
100
AcDbEntity
  8
Capa 1
 62
     7
420
 16777215
370
     9
100
AcDbVertex
100
AcDb2dVertex
 10
70.75847166199789
 20
-89.44260251670185
 30
0.0
  0
SEQEND
  5
AB
330
A8
100
AcDbEntity
  8
Capa 1
370
     9
  0
POLYLINE
  5
AC
330
1F
100
AcDbEntity
  8
Capa 1
 62
     7
420
 16777215
370
     9
100
AcDb2dPolyline
 66
     1
 10
0.0
 20
0.0
 30
0.0
  0
VERTEX
  5
AD
330
AC
100
AcDbEntity
  8
Capa 1
 62
     7
420
 16777215
370
     9
100
AcDbVertex
100
AcDb2dVertex
 10
70.75847166199789
 20
-84.13956703625678
 30
0.0
  0
VERTEX
  5
AE
330
AC
100
AcDbEntity
  8
Capa 1
 62
     7
420
 16777215
370
     9
100
AcDbVertex
100
AcDb2dVertex
 10
70.75847166199789
 20
-84.74986570146879
 30
0.0
  0
SEQEND
  5
AF
330
AC
100
AcDbEntity
  8
Capa 1
370
     9
  0
POLYLINE
  5
B0
330
1F
100
AcDbEntity
  8
Capa 1
 62
     7
420
 16777215
370
     9
100
AcDb2dPolyline
 66
     1
 10
0.0
 20
0.0
 30
0.0
  0
VERTEX
  5
B1
330
B0
100
AcDbEntity
  8
Capa 1
 62
     7
420
 16777215
370
     9
100
AcDbVertex
100
AcDb2dVertex
 10
70.75847166199789
 20
-89.44260251670185
 30
0.0
  0
VERTEX
  5
B2
330
B0
100
AcDbEntity
  8
Capa 1
 62
     7
420
 16777215
370
     9
100
AcDbVertex
100
AcDb2dVertex
 10
70.75847166199789
 20
-90.66337210190014
 30
0.0
  0
SEQEND
  5
B3
330
B0
100
AcDbEntity
  8
Capa 1
370
     9
  0
POLYLINE
  5
B4
330
1F
100
AcDbEntity
  8
Capa 1
 62
     7
420
 16777215
370
     9
100
AcDb2dPolyline
 66
     1
 10
0.0
 20
0.0
 30
0.0
  0
VERTEX
  5
B5
330
B4
100
AcDbEntity
  8
Capa 1
 62
     7
420
 16777215
370
     9
100
AcDbVertex
100
AcDb2dVertex
 10
70.75847166199789
 20
-95.35576440758467
 30
0.0
  0
VERTEX
  5
B6
330
B4
100
AcDbEntity
  8
Capa 1
 62
     7
420
 16777215
370
     9
100
AcDbVertex
100
AcDb2dVertex
 10
70.75847166199789
 20
-95.96623532757094
 30
0.0
  0
SEQEND
  5
B7
330
B4
100
AcDbEntity
  8
Capa 1
370
     9
  0
POLYLINE
  5
B8
330
1F
100
AcDbEntity
  8
Capa 1
 62
     7
420
 16777215
370
     9
100
AcDb2dPolyline
 66
     1
 10
0.0
 20
0.0
 30
0.0
  0
VERTEX
  5
B9
330
B8
100
AcDbEntity
  8
Capa 1
 62
     7
420
 16777215
370
     9
100
AcDbVertex
100
AcDb2dVertex
 10
73.7172919195047
 20
-84.74986570146879
 30
0.0
  0
VERTEX
  5
BA
330
B8
100
AcDbEntity
  8
Capa 1
 62
     7
420
 16777215
370
     9
100
AcDbVertex
100
AcDb2dVertex
 10
73.7172919195047
 20
-84.13956703625678
 30
0.0
  0
SEQEND
  5
BB
330
B8
100
AcDbEntity
  8
Capa 1
370
     9
  0
POLYLINE
  5
BC
330
1F
100
AcDbEntity
  8
Capa 1
 62
     7
420
 16777215
370
     9
100
AcDb2dPolyline
 66
     1
 10
0.0
 20
0.0
 30
0.0
  0
VERTEX
  5
BD
330
BC
100
AcDbEntity
  8
Capa 1
 62
     7
420
 16777215
370
     9
100
AcDbVertex
100
AcDb2dVertex
 10
73.7172919195047
 20
-95.96623532757094
 30
0.0
  0
VERTEX
  5
BE
330
BC
100
AcDbEntity
  8
Capa 1
 62
     7
420
 16777215
370
     9
100
AcDbVertex
100
AcDb2dVertex
 10
73.7172919195047
 20
-95.35576440758467
 30
0.0
  0
SEQEND
  5
BF
330
BC
100
AcDbEntity
  8
Capa 1
370
     9
  0
POLYLINE
  5
C0
330
1F
100
AcDbEntity
  8
Capa 1
 62
     7
420
 16777215
370
     9
100
AcDb2dPolyline
 66
     1
 10
0.0
 20
0.0
 30
0.0
  0
VERTEX
  5
C1
330
C0
100
AcDbEntity
  8
Capa 1
 62
     7
420
 16777215
370
     9
100
AcDbVertex
100
AcDb2dVertex
 10
73.7172919195047
 20
-90.66337210190014
 30
0.0
  0
VERTEX
  5
C2
330
C0
100
AcDbEntity
  8
Capa 1
 62
     7
420
 16777215
370
     9
100
AcDbVertex
100
AcDb2dVertex
 10
73.7172919195047
 20
-89.44260251670185
 30
0.0
  0
SEQEND
  5
C3
330
C0
100
AcDbEntity
  8
Capa 1
370
     9
  0
POLYLINE
  5
C4
330
1F
100
AcDbEntity
  8
Capa 1
 62
     7
420
 16777215
370
     9
100
AcDb2dPolyline
 66
     1
 10
0.0
 20
0.0
 30
0.0
  0
VERTEX
  5
C5
330
C4
100
AcDbEntity
  8
Capa 1
 62
     7
420
 16777215
370
     9
100
AcDbVertex
100
AcDb2dVertex
 10
74.8980983970741
 20
-84.73212345971974
 30
0.0
  0
VERTEX
  5
C6
330
C4
100
AcDbEntity
  8
Capa 1
 62
     7
420
 16777215
370
     9
100
AcDbVertex
100
AcDb2dVertex
 10
74.8980983970741
 20
-95.3735066493337
 30
0.0
  0
SEQEND
  5
C7
330
C4
100
AcDbEntity
  8
Capa 1
370
     9
  0
POLYLINE
  5
C8
330
1F
100
AcDbEntity
  8
Capa 1
 62
     7
420
 16777215
370
     9
100
AcDb2dPolyline
 66
     1
 10
0.0
 20
0.0
 30
0.0
  0
VERTEX
  5
C9
330
C8
100
AcDbEntity
  8
Capa 1
 62
     7
420
 16777215
370
     9
100
AcDbVertex
100
AcDb2dVertex
 10
70.75847166199789
 20
-95.96623532757094
 30
0.0
  0
VERTEX
  5
CA
330
C8
100
AcDbEntity
  8
Capa 1
 62
     7
420
 16777215
370
     9
100
AcDbVertex
100
AcDb2dVertex
 10
73.7172919195047
 20
-95.96623532757094
 30
0.0
  0
SEQEND
  5
CB
330
C8
100
AcDbEntity
  8
Capa 1
370
     9
  0
POLYLINE
  5
CC
330
1F
100
AcDbEntity
  8
Capa 1
 62
     7
420
 16777215
370
     9
100
AcDb2dPolyline
 66
     1
 10
0.0
 20
0.0
 30
0.0
  0
VERTEX
  5
CD
330
CC
100
AcDbEntity
  8
Capa 1
 62
     7
420
 16777215
370
     9
100
AcDbVertex
100
AcDb2dVertex
 10
73.7172919195047
 20
-84.13956703625678
 30
0.0
  0
VERTEX
  5
CE
330
CC
100
AcDbEntity
  8
Capa 1
 62
     7
420
 16777215
370
     9
100
AcDbVertex
100
AcDb2dVertex
 10
70.75847166199789
 20
-84.13956703625678
 30
0.0
  0
SEQEND
  5
CF
330
CC
100
AcDbEntity
  8
Capa 1
370
     9
  0
POLYLINE
  5
D0
330
1F
100
AcDbEntity
  8
Capa 1
 62
     7
420
 16777215
370
     9
100
AcDb2dPolyline
 66
     1
 10
0.0
 20
0.0
 30
0.0
  0
VERTEX
  5
D1
330
D0
100
AcDbEntity
  8
Capa 1
 62
     7
420
 16777215
370
     9
100
AcDbVertex
100
AcDb2dVertex
 10
70.75847166199789
 20
-89.44260251670185
 30
0.0
  0
VERTEX
  5
D2
330
D0
100
AcDbEntity
  8
Capa 1
 62
     7
420
 16777215
370
     9
100
AcDbVertex
100
AcDb2dVertex
 10
70.75847166199789
 20
-90.66337210190014
 30
0.0
  0
SEQEND
  5
D3
330
D0
100
AcDbEntity
  8
Capa 1
370
     9
  0
POLYLINE
  5
D4
330
1F
100
AcDbEntity
  8
Capa 1
 62
     7
420
 16777215
370
     9
100
AcDb2dPolyline
 66
     1
 10
0.0
 20
0.0
 30
0.0
  0
VERTEX
  5
D5
330
D4
100
AcDbEntity
  8
Capa 1
 62
     7
420
 16777215
370
     9
100
AcDbVertex
100
AcDb2dVertex
 10
70.75847166199789
 20
-84.13956703625678
 30
0.0
  0
VERTEX
  5
D6
330
D4
100
AcDbEntity
  8
Capa 1
 62
     7
420
 16777215
370
     9
100
AcDbVertex
100
AcDb2dVertex
 10
70.75847166199789
 20
-84.74986570146879
 30
0.0
  0
SEQEND
  5
D7
330
D4
100
AcDbEntity
  8
Capa 1
370
     9
  0
POLYLINE
  5
D8
330
1F
100
AcDbEntity
  8
Capa 1
 62
     7
420
 16777215
370
     9
100
AcDb2dPolyline
 66
     1
 10
0.0
 20
0.0
 30
0.0
  0
VERTEX
  5
D9
330
D8
100
AcDbEntity
  8
Capa 1
 62
     7
420
 16777215
370
     9
100
AcDbVertex
100
AcDb2dVertex
 10
74.8980983970741
 20
-84.30303681703188
 30
0.0
  0
VERTEX
  5
DA
330
D8
100
AcDbEntity
  8
Capa 1
 62
     7
420
 16777215
370
     9
100
AcDbVertex
100
AcDb2dVertex
 10
74.70345050215748
 20
-84.30303681703188
 30
0.0
  0
SEQEND
  5
DB
330
D8
100
AcDbEntity
  8
Capa 1
370
     9
  0
POLYLINE
  5
DC
330
1F
100
AcDbEntity
  8
Capa 1
 62
     7
420
 16777215
370
     9
100
AcDb2dPolyline
 66
     1
 10
0.0
 20
0.0
 30
0.0
  0
VERTEX
  5
DD
330
DC
100
AcDbEntity
  8
Capa 1
 62
     7
420
 16777215
370
     9
100
AcDbVertex
100
AcDb2dVertex
 10
74.70345050215748
 20
-84.30303681703188
 30
0.0
  0
VERTEX
  5
DE
330
DC
100
AcDbEntity
  8
Capa 1
 62
     7
420
 16777215
370
     9
100
AcDbVertex
100
AcDb2dVertex
 10
74.70345050215748
 20
-84.00245223594384
 30
0.0
  0
SEQEND
  5
DF
330
DC
100
AcDbEntity
  8
Capa 1
370
     9
  0
POLYLINE
  5
E0
330
1F
100
AcDbEntity
  8
Capa 1
 62
     7
420
 16777215
370
     9
100
AcDb2dPolyline
 66
     1
 10
0.0
 20
0.0
 30
0.0
  0
VERTEX
  5
E1
330
E0
100
AcDbEntity
  8
Capa 1
 62
     7
420
 16777215
370
     9
100
AcDbVertex
100
AcDb2dVertex
 10
74.99766165659781
 20
-82.94532468629492
 30
0.0
  0
VERTEX
  5
E2
330
E0
100
AcDbEntity
  8
Capa 1
 62
     7
420
 16777215
370
     9
100
AcDbVertex
100
AcDb2dVertex
 10
74.99766165659781
 20
-83.51152612929573
 30
0.0
  0
SEQEND
  5
E3
330
E0
100
AcDbEntity
  8
Capa 1
370
     9
  0
POLYLINE
  5
E4
330
1F
100
AcDbEntity
  8
Capa 1
 62
     7
420
 16777215
370
     9
100
AcDb2dPolyline
 66
     1
 10
0.0
 20
0.0
 30
0.0
  0
VERTEX
  5
E5
330
E4
100
AcDbEntity
  8
Capa 1
 62
     7
420
 16777215
370
     9
100
AcDbVertex
100
AcDb2dVertex
 10
74.8980983970741
 20
-84.73212345971974
 30
0.0
  0
VERTEX
  5
E6
330
E4
100
AcDbEntity
  8
Capa 1
 62
     7
420
 16777215
370
     9
100
AcDbVertex
100
AcDb2dVertex
 10
74.8980983970741
 20
-95.3735066493337
 30
0.0
  0
SEQEND
  5
E7
330
E4
100
AcDbEntity
  8
Capa 1
370
     9
  0
POLYLINE
  5
E8
330
1F
100
AcDbEntity
  8
Capa 1
 62
     7
420
 16777215
370
     9
100
AcDb2dPolyline
 66
     1
 10
0.0
 20
0.0
 30
0.0
  0
VERTEX
  5
E9
330
E8
100
AcDbEntity
  8
Capa 1
 62
     7
420
 16777215
370
     9
100
AcDbVertex
100
AcDb2dVertex
 10
73.7172919195047
 20
-95.35576440758467
 30
0.0
  0
VERTEX
  5
EA
330
E8
100
AcDbEntity
  8
Capa 1
 62
     7
420
 16777215
370
     9
100
AcDbVertex
100
AcDb2dVertex
 10
70.75847166199789
 20
-95.35576440758467
 30
0.0
  0
SEQEND
  5
EB
330
E8
100
AcDbEntity
  8
Capa 1
370
     9
  0
POLYLINE
  5
EC
330
1F
100
AcDbEntity
  8
Capa 1
 62
     7
420
 16777215
370
     9
100
AcDb2dPolyline
 66
     1
 10
0.0
 20
0.0
 30
0.0
  0
VERTEX
  5
ED
330
EC
100
AcDbEntity
  8
Capa 1
 62
     7
420
 16777215
370
     9
100
AcDbVertex
100
AcDb2dVertex
 10
74.8980983970741
 20
-84.73212345971974
 30
0.0
  0
VERTEX
  5
EE
330
EC
100
AcDbEntity
  8
Capa 1
 62
     7
420
 16777215
370
     9
100
AcDbVertex
100
AcDb2dVertex
 10
74.8980983970741
 20
-84.30303681703188
 30
0.0
  0
SEQEND
  5
EF
330
EC
100
AcDbEntity
  8
Capa 1
370
     9
  0
POLYLINE
  5
F0
330
1F
100
AcDbEntity
  8
Capa 1
 62
     7
420
 16777215
370
     9
100
AcDb2dPolyline
 66
     1
 10
0.0
 20
0.0
 30
0.0
  0
VERTEX
  5
F1
330
F0
100
AcDbEntity
  8
Capa 1
 62
     7
420
 16777215
370
     9
100
AcDbVertex
100
AcDb2dVertex
 10
70.75847166199789
 20
-90.66337210190014
 30
0.0
  0
VERTEX
  5
F2
330
F0
100
AcDbEntity
  8
Capa 1
 62
     7
420
 16777215
370
     9
100
AcDbVertex
100
AcDb2dVertex
 10
73.7172919195047
 20
-90.66337210190014
 30
0.0
  0
SEQEND
  5
F3
330
F0
100
AcDbEntity
  8
Capa 1
370
     9
  0
POLYLINE
  5
F4
330
1F
100
AcDbEntity
  8
Capa 1
 62
     7
420
 16777215
370
     9
100
AcDb2dPolyline
 66
     1
 10
0.0
 20
0.0
 30
0.0
  0
VERTEX
  5
F5
330
F4
100
AcDbEntity
  8
Capa 1
 62
     7
420
 16777215
370
     9
100
AcDbVertex
100
AcDb2dVertex
 10
73.7172919195047
 20
-89.44260251670185
 30
0.0
  0
VERTEX
  5
F6
330
F4
100
AcDbEntity
  8
Capa 1
 62
     7
420
 16777215
370
     9
100
AcDbVertex
100
AcDb2dVertex
 10
70.75847166199789
 20
-89.44260251670185
 30
0.0
  0
SEQEND
  5
F7
330
F4
100
AcDbEntity
  8
Capa 1
370
     9
  0
POLYLINE
  5
F8
330
1F
100
AcDbEntity
  8
Capa 1
 62
     7
420
 16777215
370
     9
100
AcDb2dPolyline
 66
     1
 10
0.0
 20
0.0
 30
0.0
  0
VERTEX
  5
F9
330
F8
100
AcDbEntity
  8
Capa 1
 62
     7
420
 16777215
370
     9
100
AcDbVertex
100
AcDb2dVertex
 10
70.75847166199789
 20
-84.74986570146879
 30
0.0
  0
VERTEX
  5
FA
330
F8
100
AcDbEntity
  8
Capa 1
 62
     7
420
 16777215
370
     9
100
AcDbVertex
100
AcDb2dVertex
 10
73.7172919195047
 20
-84.74986570146879
 30
0.0
  0
SEQEND
  5
FB
330
F8
100
AcDbEntity
  8
Capa 1
370
     9
  0
POLYLINE
  5
FC
330
1F
100
AcDbEntity
  8
Capa 1
 62
     7
420
 16777215
370
     9
100
AcDb2dPolyline
 66
     1
 10
0.0
 20
0.0
 30
0.0
  0
VERTEX
  5
FD
330
FC
100
AcDbEntity
  8
Capa 1
 62
     7
420
 16777215
370
     9
100
AcDbVertex
100
AcDb2dVertex
 10
74.99766165659781
 20
-96.12539873898949
 30
0.0
  0
VERTEX
  5
FE
330
FC
100
AcDbEntity
  8
Capa 1
 62
     7
420
 16777215
370
     9
100
AcDbVertex
100
AcDb2dVertex
 10
74.99766165659781
 20
-95.63016626298483
 30
0.0
  0
SEQEND
  5
FF
330
FC
100
AcDbEntity
  8
Capa 1
370
     9
  0
POLYLINE
  5
100
330
1F
100
AcDbEntity
  8
Capa 1
 62
     7
420
 16777215
370
     9
100
AcDb2dPolyline
 66
     1
 10
0.0
 20
0.0
 30
0.0
  0
VERTEX
  5
101
330
100
100
AcDbEntity
  8
Capa 1
 62
     7
420
 16777215
370
     9
100
AcDbVertex
100
AcDb2dVertex
 10
74.70345050215748
 20
-84.30303681703188
 30
0.0
  0
VERTEX
  5
102
330
100
100
AcDbEntity
  8
Capa 1
 62
     7
420
 16777215
370
     9
100
AcDbVertex
100
AcDb2dVertex
 10
74.70345050215748
 20
-84.53316919544658
 30
0.0
  0
SEQEND
  5
103
330
100
100
AcDbEntity
  8
Capa 1
370
     9
  0
POLYLINE
  5
104
330
1F
100
AcDbEntity
  8
Capa 1
 62
     7
420
 16777215
370
     9
100
AcDb2dPolyline
 66
     1
 10
0.0
 20
0.0
 30
0.0
  0
VERTEX
  5
105
330
104
100
AcDbEntity
  8
Capa 1
 62
     7
420
 16777215
370
     9
100
AcDbVertex
100
AcDb2dVertex
 10
73.7172919195047
 20
-90.66337210190014
 30
0.0
  0
VERTEX
  5
106
330
104
100
AcDbEntity
  8
Capa 1
 62
     7
420
 16777215
370
     9
100
AcDbVertex
100
AcDb2dVertex
 10
73.7172919195047
 20
-89.44260251670185
 30
0.0
  0
SEQEND
  5
107
330
104
100
AcDbEntity
  8
Capa 1
370
     9
  0
POLYLINE
  5
108
330
1F
100
AcDbEntity
  8
Capa 1
 62
     7
420
 16777215
370
     9
100
AcDb2dPolyline
 66
     1
 10
0.0
 20
0.0
 30
0.0
  0
VERTEX
  5
109
330
108
100
AcDbEntity
  8
Capa 1
 62
     7
420
 16777215
370
     9
100
AcDbVertex
100
AcDb2dVertex
 10
74.99766165659781
 20
-82.94532468629492
 30
0.0
  0
VERTEX
  5
10A
330
108
100
AcDbEntity
  8
Capa 1
 62
     7
420
 16777215
370
     9
100
AcDbVertex
100
AcDb2dVertex
 10
74.99766165659781
 20
-79.49109969800918
 30
0.0
  0
SEQEND
  5
10B
330
108
100
AcDbEntity
  8
Capa 1
370
     9
  0
POLYLINE
  5
10C
330
1F
100
AcDbEntity
  8
Capa 1
 62
     7
420
 16777215
370
     9
100
AcDb2dPolyline
 66
     1
 10
0.0
 20
0.0
 30
0.0
  0
VERTEX
  5
10D
330
10C
100
AcDbEntity
  8
Capa 1
 62
     7
420
 16777215
370
     9
100
AcDbVertex
100
AcDb2dVertex
 10
73.7172919195047
 20
-84.13956703625678
 30
0.0
  0
VERTEX
  5
10E
330
10C
100
AcDbEntity
  8
Capa 1
 62
     7
420
 16777215
370
     9
100
AcDbVertex
100
AcDb2dVertex
 10
70.75847166199789
 20
-84.13956703625678
 30
0.0
  0
SEQEND
  5
10F
330
10C
100
AcDbEntity
  8
Capa 1
370
     9
  0
POLYLINE
  5
110
330
1F
100
AcDbEntity
  8
Capa 1
 62
     7
420
 16777215
370
     9
100
AcDb2dPolyline
 66
     1
 10
0.0
 20
0.0
 30
0.0
  0
VERTEX
  5
111
330
110
100
AcDbEntity
  8
Capa 1
 62
     7
420
 16777215
370
     9
100
AcDbVertex
100
AcDb2dVertex
 10
73.7172919195047
 20
-95.96623532757094
 30
0.0
  0
VERTEX
  5
112
330
110
100
AcDbEntity
  8
Capa 1
 62
     7
420
 16777215
370
     9
100
AcDbVertex
100
AcDb2dVertex
 10
73.7172919195047
 20
-95.35576440758467
 30
0.0
  0
SEQEND
  5
113
330
110
100
AcDbEntity
  8
Capa 1
370
     9
  0
POLYLINE
  5
114
330
1F
100
AcDbEntity
  8
Capa 1
 62
     7
420
 16777215
370
     9
100
AcDb2dPolyline
 66
     1
 10
0.0
 20
0.0
 30
0.0
  0
VERTEX
  5
115
330
114
100
AcDbEntity
  8
Capa 1
 62
     7
420
 16777215
370
     9
100
AcDbVertex
100
AcDb2dVertex
 10
95.02641327919478
 20
-76.60755477685505
 30
0.0
  0
VERTEX
  5
116
330
114
100
AcDbEntity
  8
Capa 1
 62
     7
420
 16777215
370
     9
100
AcDbVertex
100
AcDb2dVertex
 10
95.02641327919478
 20
-96.12539873898949
 30
0.0
  0
SEQEND
  5
117
330
114
100
AcDbEntity
  8
Capa 1
370
     9
  0
POLYLINE
  5
118
330
1F
100
AcDbEntity
  8
Capa 1
 62
     7
420
 16777215
370
     9
100
AcDb2dPolyline
 66
     1
 10
0.0
 20
0.0
 30
0.0
  0
VERTEX
  5
119
330
118
100
AcDbEntity
  8
Capa 1
 62
     7
420
 16777215
370
     9
100
AcDbVertex
100
AcDb2dVertex
 10
74.99766165659781
 20
-77.21768118729281
 30
0.0
  0
VERTEX
  5
11A
330
118
100
AcDbEntity
  8
Capa 1
 62
     7
420
 16777215
370
     9
100
AcDbVertex
100
AcDb2dVertex
 10
74.99766165659781
 20
-79.49109969800918
 30
0.0
  0
SEQEND
  5
11B
330
118
100
AcDbEntity
  8
Capa 1
370
     9
  0
POLYLINE
  5
11C
330
1F
100
AcDbEntity
  8
Capa 1
 62
     7
420
 16777215
370
     9
100
AcDb2dPolyline
 66
     1
 10
0.0
 20
0.0
 30
0.0
  0
VERTEX
  5
11D
330
11C
100
AcDbEntity
  8
Capa 1
 62
     7
420
 16777215
370
     9
100
AcDbVertex
100
AcDb2dVertex
 10
95.32286374570054
 20
-94.05110674732056
 30
0.0
  0
VERTEX
  5
11E
330
11C
100
AcDbEntity
  8
Capa 1
 62
     7
420
 16777215
370
     9
100
AcDbVertex
100
AcDb2dVertex
 10
95.32286374570054
 20
-76.90366073381229
 30
0.0
  0
SEQEND
  5
11F
330
11C
100
AcDbEntity
  8
Capa 1
370
     9
  0
POLYLINE
  5
120
330
1F
100
AcDbEntity
  8
Capa 1
 62
     7
420
 16777215
370
     9
100
AcDb2dPolyline
 66
     1
 10
0.0
 20
0.0
 30
0.0
  0
VERTEX
  5
121
330
120
100
AcDbEntity
  8
Capa 1
 62
     7
420
 16777215
370
     9
100
AcDbVertex
100
AcDb2dVertex
 10
73.7172919195047
 20
-84.74986570146879
 30
0.0
  0
VERTEX
  5
122
330
120
100
AcDbEntity
  8
Capa 1
 62
     7
420
 16777215
370
     9
100
AcDbVertex
100
AcDb2dVertex
 10
73.7172919195047
 20
-84.13956703625678
 30
0.0
  0
SEQEND
  5
123
330
120
100
AcDbEntity
  8
Capa 1
370
     9
  0
POLYLINE
  5
124
330
1F
100
AcDbEntity
  8
Capa 1
 62
     7
420
 16777215
370
     9
100
AcDb2dPolyline
 66
     1
 10
0.0
 20
0.0
 30
0.0
  0
VERTEX
  5
125
330
124
100
AcDbEntity
  8
Capa 1
 62
     7
420
 16777215
370
     9
100
AcDbVertex
100
AcDb2dVertex
 10
74.99766165659781
 20
-69.31411537980689
 30
0.0
  0
VERTEX
  5
126
330
124
100
AcDbEntity
  8
Capa 1
 62
     7
420
 16777215
370
     9
100
AcDbVertex
100
AcDb2dVertex
 10
84.4604776807078
 20
-69.31411537980689
 30
0.0
  0
SEQEND
  5
127
330
124
100
AcDbEntity
  8
Capa 1
370
     9
  0
POLYLINE
  5
128
330
1F
100
AcDbEntity
  8
Capa 1
 62
     7
420
 16777215
370
     9
100
AcDb2dPolyline
 66
     1
 10
0.0
 20
0.0
 30
0.0
  0
VERTEX
  5
129
330
128
100
AcDbEntity
  8
Capa 1
 62
     7
420
 16777215
370
     9
100
AcDbVertex
100
AcDb2dVertex
 10
74.99766165659781
 20
-76.60755477685505
 30
0.0
  0
VERTEX
  5
12A
330
128
100
AcDbEntity
  8
Capa 1
 62
     7
420
 16777215
370
     9
100
AcDbVertex
100
AcDb2dVertex
 10
74.99766165659781
 20
-77.21768118729281
 30
0.0
  0
SEQEND
  5
12B
330
128
100
AcDbEntity
  8
Capa 1
370
     9
  0
POLYLINE
  5
12C
330
1F
100
AcDbEntity
  8
Capa 1
 62
     7
420
 16777215
370
     9
100
AcDb2dPolyline
 66
     1
 10
0.0
 20
0.0
 30
0.0
  0
VERTEX
  5
12D
330
12C
100
AcDbEntity
  8
Capa 1
 62
     7
420
 16777215
370
     9
100
AcDbVertex
100
AcDb2dVertex
 10
95.02641327919478
 20
-96.12539873898949
 30
0.0
  0
VERTEX
  5
12E
330
12C
100
AcDbEntity
  8
Capa 1
 62
     7
420
 16777215
370
     9
100
AcDbVertex
100
AcDb2dVertex
 10
95.32286374570054
 20
-95.70974796869409
 30
0.0
  0
SEQEND
  5
12F
330
12C
100
AcDbEntity
  8
Capa 1
370
     9
  0
POLYLINE
  5
130
330
1F
100
AcDbEntity
  8
Capa 1
 62
     7
420
 16777215
370
     9
100
AcDb2dPolyline
 66
     1
 10
0.0
 20
0.0
 30
0.0
  0
VERTEX
  5
131
330
130
100
AcDbEntity
  8
Capa 1
 62
     7
420
 16777215
370
     9
100
AcDbVertex
100
AcDb2dVertex
 10
62.48111299436236
 20
-103.458456734118
 30
0.0
  0
VERTEX
  5
132
330
130
100
AcDbEntity
  8
Capa 1
 62
     7
420
 16777215
370
     9
100
AcDbVertex
100
AcDb2dVertex
 10
62.48111299436236
 20
-76.64717337493543
 30
0.0
  0
SEQEND
  5
133
330
130
100
AcDbEntity
  8
Capa 1
370
     9
  0
POLYLINE
  5
134
330
1F
100
AcDbEntity
  8
Capa 1
 62
     7
420
 16777215
370
     9
100
AcDb2dPolyline
 66
     1
 10
0.0
 20
0.0
 30
0.0
  0
VERTEX
  5
135
330
134
100
AcDbEntity
  8
Capa 1
 62
     7
420
 16777215
370
     9
100
AcDbVertex
100
AcDb2dVertex
 10
69.57732067487999
 20
-96.14314098073852
 30
0.0
  0
VERTEX
  5
136
330
134
100
AcDbEntity
  8
Capa 1
 62
     7
420
 16777215
370
     9
100
AcDbVertex
100
AcDb2dVertex
 10
69.57732067487999
 20
-83.96248912831494
 30
0.0
  0
SEQEND
  5
137
330
134
100
AcDbEntity
  8
Capa 1
370
     9
  0
POLYLINE
  5
138
330
1F
100
AcDbEntity
  8
Capa 1
 62
     7
420
 16777215
370
     9
100
AcDb2dPolyline
 66
     1
 10
0.0
 20
0.0
 30
0.0
  0
VERTEX
  5
139
330
138
100
AcDbEntity
  8
Capa 1
 62
     7
420
 16777215
370
     9
100
AcDbVertex
100
AcDb2dVertex
 10
70.75847166199789
 20
-90.66337210190014
 30
0.0
  0
VERTEX
  5
13A
330
138
100
AcDbEntity
  8
Capa 1
 62
     7
420
 16777215
370
     9
100
AcDbVertex
100
AcDb2dVertex
 10
73.7172919195047
 20
-90.66337210190014
 30
0.0
  0
SEQEND
  5
13B
330
138
100
AcDbEntity
  8
Capa 1
370
     9
  0
POLYLINE
  5
13C
330
1F
100
AcDbEntity
  8
Capa 1
 62
     7
420
 16777215
370
     9
100
AcDb2dPolyline
 66
     1
 10
0.0
 20
0.0
 30
0.0
  0
VERTEX
  5
13D
330
13C
100
AcDbEntity
  8
Capa 1
 62
     7
420
 16777215
370
     9
100
AcDbVertex
100
AcDb2dVertex
 10
73.7172919195047
 20
-95.35576440758467
 30
0.0
  0
VERTEX
  5
13E
330
13C
100
AcDbEntity
  8
Capa 1
 62
     7
420
 16777215
370
     9
100
AcDbVertex
100
AcDb2dVertex
 10
70.75847166199789
 20
-95.35576440758467
 30
0.0
  0
SEQEND
  5
13F
330
13C
100
AcDbEntity
  8
Capa 1
370
     9
  0
POLYLINE
  5
140
330
1F
100
AcDbEntity
  8
Capa 1
 62
     7
420
 16777215
370
     9
100
AcDb2dPolyline
 66
     1
 10
0.0
 20
0.0
 30
0.0
  0
VERTEX
  5
141
330
140
100
AcDbEntity
  8
Capa 1
 62
     7
420
 16777215
370
     9
100
AcDbVertex
100
AcDb2dVertex
 10
70.75847166199789
 20
-84.74986570146879
 30
0.0
  0
VERTEX
  5
142
330
140
100
AcDbEntity
  8
Capa 1
 62
     7
420
 16777215
370
     9
100
AcDbVertex
100
AcDb2dVertex
 10
73.7172919195047
 20
-84.74986570146879
 30
0.0
  0
SEQEND
  5
143
330
140
100
AcDbEntity
  8
Capa 1
370
     9
  0
POLYLINE
  5
144
330
1F
100
AcDbEntity
  8
Capa 1
 62
     7
420
 16777215
370
     9
100
AcDb2dPolyline
 66
     1
 10
0.0
 20
0.0
 30
0.0
  0
VERTEX
  5
145
330
144
100
AcDbEntity
  8
Capa 1
 62
     7
420
 16777215
370
     9
100
AcDbVertex
100
AcDb2dVertex
 10
73.7172919195047
 20
-89.44260251670185
 30
0.0
  0
VERTEX
  5
146
330
144
100
AcDbEntity
  8
Capa 1
 62
     7
420
 16777215
370
     9
100
AcDbVertex
100
AcDb2dVertex
 10
70.75847166199789
 20
-89.44260251670185
 30
0.0
  0
SEQEND
  5
147
330
144
100
AcDbEntity
  8
Capa 1
370
     9
  0
POLYLINE
  5
148
330
1F
100
AcDbEntity
  8
Capa 1
 62
     7
420
 16777215
370
     9
100
AcDb2dPolyline
 66
     1
 10
0.0
 20
0.0
 30
0.0
  0
VERTEX
  5
149
330
148
100
AcDbEntity
  8
Capa 1
 62
     7
420
 16777215
370
     9
100
AcDbVertex
100
AcDb2dVertex
 10
70.75847166199789
 20
-84.13956703625678
 30
0.0
  0
VERTEX
  5
14A
330
148
100
AcDbEntity
  8
Capa 1
 62
     7
420
 16777215
370
     9
100
AcDbVertex
100
AcDb2dVertex
 10
70.75847166199789
 20
-84.74986570146879
 30
0.0
  0
SEQEND
  5
14B
330
148
100
AcDbEntity
  8
Capa 1
370
     9
  0
POLYLINE
  5
14C
330
1F
100
AcDbEntity
  8
Capa 1
 62
     7
420
 16777215
370
     9
100
AcDb2dPolyline
 66
     1
 10
0.0
 20
0.0
 30
0.0
  0
VERTEX
  5
14D
330
14C
100
AcDbEntity
  8
Capa 1
 62
     7
420
 16777215
370
     9
100
AcDbVertex
100
AcDb2dVertex
 10
70.75847166199789
 20
-89.44260251670185
 30
0.0
  0
VERTEX
  5
14E
330
14C
100
AcDbEntity
  8
Capa 1
 62
     7
420
 16777215
370
     9
100
AcDbVertex
100
AcDb2dVertex
 10
70.75847166199789
 20
-90.66337210190014
 30
0.0
  0
SEQEND
  5
14F
330
14C
100
AcDbEntity
  8
Capa 1
370
     9
  0
POLYLINE
  5
150
330
1F
100
AcDbEntity
  8
Capa 1
 62
     7
420
 16777215
370
     9
100
AcDb2dPolyline
 66
     1
 10
0.0
 20
0.0
 30
0.0
  0
VERTEX
  5
151
330
150
100
AcDbEntity
  8
Capa 1
 62
     7
420
 16777215
370
     9
100
AcDbVertex
100
AcDb2dVertex
 10
70.75847166199789
 20
-95.35576440758467
 30
0.0
  0
VERTEX
  5
152
330
150
100
AcDbEntity
  8
Capa 1
 62
     7
420
 16777215
370
     9
100
AcDbVertex
100
AcDb2dVertex
 10
70.75847166199789
 20
-95.96623532757094
 30
0.0
  0
SEQEND
  5
153
330
150
100
AcDbEntity
  8
Capa 1
370
     9
  0
POLYLINE
  5
154
330
1F
100
AcDbEntity
  8
Capa 1
 62
     7
420
 16777215
370
     9
100
AcDb2dPolyline
 66
     1
 10
0.0
 20
0.0
 30
0.0
  0
VERTEX
  5
155
330
154
100
AcDbEntity
  8
Capa 1
 62
     7
420
 16777215
370
     9
100
AcDbVertex
100
AcDb2dVertex
 10
73.7172919195047
 20
-84.74986570146879
 30
0.0
  0
VERTEX
  5
156
330
154
100
AcDbEntity
  8
Capa 1
 62
     7
420
 16777215
370
     9
100
AcDbVertex
100
AcDb2dVertex
 10
73.7172919195047
 20
-84.13956703625678
 30
0.0
  0
SEQEND
  5
157
330
154
100
AcDbEntity
  8
Capa 1
370
     9
  0
POLYLINE
  5
158
330
1F
100
AcDbEntity
  8
Capa 1
 62
     7
420
 16777215
370
     9
100
AcDb2dPolyline
 66
     1
 10
0.0
 20
0.0
 30
0.0
  0
VERTEX
  5
159
330
158
100
AcDbEntity
  8
Capa 1
 62
     7
420
 16777215
370
     9
100
AcDbVertex
100
AcDb2dVertex
 10
73.7172919195047
 20
-95.96623532757094
 30
0.0
  0
VERTEX
  5
15A
330
158
100
AcDbEntity
  8
Capa 1
 62
     7
420
 16777215
370
     9
100
AcDbVertex
100
AcDb2dVertex
 10
73.7172919195047
 20
-95.35576440758467
 30
0.0
  0
SEQEND
  5
15B
330
158
100
AcDbEntity
  8
Capa 1
370
     9
  0
POLYLINE
  5
15C
330
1F
100
AcDbEntity
  8
Capa 1
 62
     7
420
 16777215
370
     9
100
AcDb2dPolyline
 66
     1
 10
0.0
 20
0.0
 30
0.0
  0
VERTEX
  5
15D
330
15C
100
AcDbEntity
  8
Capa 1
 62
     7
420
 16777215
370
     9
100
AcDbVertex
100
AcDb2dVertex
 10
73.7172919195047
 20
-90.66337210190014
 30
0.0
  0
VERTEX
  5
15E
330
15C
100
AcDbEntity
  8
Capa 1
 62
     7
420
 16777215
370
     9
100
AcDbVertex
100
AcDb2dVertex
 10
73.7172919195047
 20
-89.44260251670185
 30
0.0
  0
SEQEND
  5
15F
330
15C
100
AcDbEntity
  8
Capa 1
370
     9
  0
POLYLINE
  5
160
330
1F
100
AcDbEntity
  8
Capa 1
 62
     7
420
 16777215
370
     9
100
AcDb2dPolyline
 66
     1
 10
0.0
 20
0.0
 30
0.0
  0
VERTEX
  5
161
330
160
100
AcDbEntity
  8
Capa 1
 62
     7
420
 16777215
370
     9
100
AcDbVertex
100
AcDb2dVertex
 10
95.02641327919478
 20
-158.6204643700671
 30
0.0
  0
VERTEX
  5
162
330
160
100
AcDbEntity
  8
Capa 1
 62
     7
420
 16777215
370
     9
100
AcDbVertex
100
AcDb2dVertex
 10
95.32958168189677
 20
-158.9256998300602
 30
0.0
  0
SEQEND
  5
163
330
160
100
AcDbEntity
  8
Capa 1
370
     9
  0
POLYLINE
  5
164
330
1F
100
AcDbEntity
  8
Capa 1
 62
     7
420
 16777215
370
     9
100
AcDb2dPolyline
 66
     1
 10
0.0
 20
0.0
 30
0.0
  0
VERTEX
  5
165
330
164
100
AcDbEntity
  8
Capa 1
 62
     7
420
 16777215
370
     9
100
AcDbVertex
100
AcDb2dVertex
 10
95.32286374570054
 20
-177.8423746300186
 30
0.0
  0
VERTEX
  5
166
330
164
100
AcDbEntity
  8
Capa 1
 62
     7
420
 16777215
370
     9
100
AcDbVertex
100
AcDb2dVertex
 10
95.02641327919478
 20
-178.1383083322015
 30
0.0
  0
SEQEND
  5
167
330
164
100
AcDbEntity
  8
Capa 1
370
     9
  0
POLYLINE
  5
168
330
1F
100
AcDbEntity
  8
Capa 1
 62
     7
420
 16777215
370
     9
100
AcDb2dPolyline
 66
     1
 10
0.0
 20
0.0
 30
0.0
  0
VERTEX
  5
169
330
168
100
AcDbEntity
  8
Capa 1
 62
     7
420
 16777215
370
     9
100
AcDbVertex
100
AcDb2dVertex
 10
88.00737573754677
 20
-158.6204643700671
 30
0.0
  0
VERTEX
  5
16A
330
168
100
AcDbEntity
  8
Capa 1
 62
     7
420
 16777215
370
     9
100
AcDbVertex
100
AcDb2dVertex
 10
95.02641327919478
 20
-158.6204643700671
 30
0.0
  0
SEQEND
  5
16B
330
168
100
AcDbEntity
  8
Capa 1
370
     9
  0
POLYLINE
  5
16C
330
1F
100
AcDbEntity
  8
Capa 1
 62
     7
420
 16777215
370
     9
100
AcDb2dPolyline
 66
     1
 10
0.0
 20
0.0
 30
0.0
  0
VERTEX
  5
16D
330
16C
100
AcDbEntity
  8
Capa 1
 62
     7
420
 16777215
370
     9
100
AcDbVertex
100
AcDb2dVertex
 10
95.02641327919478
 20
-178.1383083322015
 30
0.0
  0
VERTEX
  5
16E
330
16C
100
AcDbEntity
  8
Capa 1
 62
     7
420
 16777215
370
     9
100
AcDbVertex
100
AcDb2dVertex
 10
88.00737573754677
 20
-178.1383083322015
 30
0.0
  0
SEQEND
  5
16F
330
16C
100
AcDbEntity
  8
Capa 1
370
     9
  0
POLYLINE
  5
170
330
1F
100
AcDbEntity
  8
Capa 1
 62
     7
420
 16777215
370
     9
100
AcDb2dPolyline
 66
     1
 10
0.0
 20
0.0
 30
0.0
  0
VERTEX
  5
171
330
170
100
AcDbEntity
  8
Capa 1
 62
     7
420
 16777215
370
     9
100
AcDbVertex
100
AcDb2dVertex
 10
73.7172919195047
 20
-132.2070895394309
 30
0.0
  0
VERTEX
  5
172
330
170
100
AcDbEntity
  8
Capa 1
 62
     7
420
 16777215
370
     9
100
AcDbVertex
100
AcDb2dVertex
 10
74.8980983970741
 20
-133.3880682717745
 30
0.0
  0
SEQEND
  5
173
330
170
100
AcDbEntity
  8
Capa 1
370
     9
  0
POLYLINE
  5
174
330
1F
100
AcDbEntity
  8
Capa 1
 62
     7
420
 16777215
370
     9
100
AcDb2dPolyline
 66
     1
 10
0.0
 20
0.0
 30
0.0
  0
VERTEX
  5
175
330
174
100
AcDbEntity
  8
Capa 1
 62
     7
420
 16777215
370
     9
100
AcDbVertex
100
AcDb2dVertex
 10
74.70345050215748
 20
-144.2328843497925
 30
0.0
  0
VERTEX
  5
176
330
174
100
AcDbEntity
  8
Capa 1
 62
     7
420
 16777215
370
     9
100
AcDbVertex
100
AcDb2dVertex
 10
73.7172919195047
 20
-145.2190429324452
 30
0.0
  0
SEQEND
  5
177
330
174
100
AcDbEntity
  8
Capa 1
370
     9
  0
POLYLINE
  5
178
330
1F
100
AcDbEntity
  8
Capa 1
 62
     7
420
 16777215
370
     9
100
AcDb2dPolyline
 66
     1
 10
0.0
 20
0.0
 30
0.0
  0
VERTEX
  5
179
330
178
100
AcDbEntity
  8
Capa 1
 62
     7
420
 16777215
370
     9
100
AcDbVertex
100
AcDb2dVertex
 10
70.75847166199789
 20
-145.2190429324452
 30
0.0
  0
VERTEX
  5
17A
330
178
100
AcDbEntity
  8
Capa 1
 62
     7
420
 16777215
370
     9
100
AcDbVertex
100
AcDb2dVertex
 10
69.57732067487999
 20
-144.0339300855193
 30
0.0
  0
SEQEND
  5
17B
330
178
100
AcDbEntity
  8
Capa 1
370
     9
  0
POLYLINE
  5
17C
330
1F
100
AcDbEntity
  8
Capa 1
 62
     7
420
 16777215
370
     9
100
AcDb2dPolyline
 66
     1
 10
0.0
 20
0.0
 30
0.0
  0
VERTEX
  5
17D
330
17C
100
AcDbEntity
  8
Capa 1
 62
     7
420
 16777215
370
     9
100
AcDbVertex
100
AcDb2dVertex
 10
69.57732067487999
 20
-133.3880682717745
 30
0.0
  0
VERTEX
  5
17E
330
17C
100
AcDbEntity
  8
Capa 1
 62
     7
420
 16777215
370
     9
100
AcDbVertex
100
AcDb2dVertex
 10
70.75847166199789
 20
-132.2070895394309
 30
0.0
  0
SEQEND
  5
17F
330
17C
100
AcDbEntity
  8
Capa 1
370
     9
  0
POLYLINE
  5
180
330
1F
100
AcDbEntity
  8
Capa 1
 62
     7
420
 16777215
370
     9
100
AcDb2dPolyline
 66
     1
 10
0.0
 20
0.0
 30
0.0
  0
VERTEX
  5
181
330
180
100
AcDbEntity
  8
Capa 1
 62
     7
420
 16777215
370
     9
100
AcDbVertex
100
AcDb2dVertex
 10
73.7172919195047
 20
-145.2190429324452
 30
0.0
  0
VERTEX
  5
182
330
180
100
AcDbEntity
  8
Capa 1
 62
     7
420
 16777215
370
     9
100
AcDbVertex
100
AcDb2dVertex
 10
70.75847166199789
 20
-145.2190429324452
 30
0.0
  0
SEQEND
  5
183
330
180
100
AcDbEntity
  8
Capa 1
370
     9
  0
POLYLINE
  5
184
330
1F
100
AcDbEntity
  8
Capa 1
 62
     7
420
 16777215
370
     9
100
AcDb2dPolyline
 66
     1
 10
0.0
 20
0.0
 30
0.0
  0
VERTEX
  5
185
330
184
100
AcDbEntity
  8
Capa 1
 62
     7
420
 16777215
370
     9
100
AcDbVertex
100
AcDb2dVertex
 10
70.75847166199789
 20
-132.2070895394309
 30
0.0
  0
VERTEX
  5
186
330
184
100
AcDbEntity
  8
Capa 1
 62
     7
420
 16777215
370
     9
100
AcDbVertex
100
AcDb2dVertex
 10
73.7172919195047
 20
-132.2070895394309
 30
0.0
  0
SEQEND
  5
187
330
184
100
AcDbEntity
  8
Capa 1
370
     9
  0
POLYLINE
  5
188
330
1F
100
AcDbEntity
  8
Capa 1
 62
     7
420
 16777215
370
     9
100
AcDb2dPolyline
 66
     1
 10
0.0
 20
0.0
 30
0.0
  0
VERTEX
  5
189
330
188
100
AcDbEntity
  8
Capa 1
 62
     7
420
 16777215
370
     9
100
AcDbVertex
100
AcDb2dVertex
 10
62.48111299436236
 20
-184.639892531965
 30
0.0
  0
VERTEX
  5
18A
330
188
100
AcDbEntity
  8
Capa 1
 62
     7
420
 16777215
370
     9
100
AcDbVertex
100
AcDb2dVertex
 10
68.0075629170259
 20
-188.8063910118262
 30
0.0
  0
SEQEND
  5
18B
330
188
100
AcDbEntity
  8
Capa 1
370
     9
  0
POLYLINE
  5
18C
330
1F
100
AcDbEntity
  8
Capa 1
 62
     7
420
 16777215
370
     9
100
AcDb2dPolyline
 66
     1
 10
0.0
 20
0.0
 30
0.0
  0
VERTEX
  5
18D
330
18C
100
AcDbEntity
  8
Capa 1
 62
     7
420
 16777215
370
     9
100
AcDbVertex
100
AcDb2dVertex
 10
68.0075629170259
 20
-207.2848496660608
 30
0.0
  0
VERTEX
  5
18E
330
18C
100
AcDbEntity
  8
Capa 1
 62
     7
420
 16777215
370
     9
100
AcDbVertex
100
AcDb2dVertex
 10
62.48111299436236
 20
-211.4513481459219
 30
0.0
  0
SEQEND
  5
18F
330
18C
100
AcDbEntity
  8
Capa 1
370
     9
  0
POLYLINE
  5
190
330
1F
100
AcDbEntity
  8
Capa 1
 62
     7
420
 16777215
370
     9
100
AcDb2dPolyline
 66
     1
 10
0.0
 20
0.0
 30
0.0
  0
VERTEX
  5
191
330
190
100
AcDbEntity
  8
Capa 1
 62
     7
420
 16777215
370
     9
100
AcDbVertex
100
AcDb2dVertex
 10
73.7172919195047
 20
-132.2070895394309
 30
0.0
  0
VERTEX
  5
192
330
190
100
AcDbEntity
  8
Capa 1
 62
     7
420
 16777215
370
     9
100
AcDbVertex
100
AcDb2dVertex
 10
74.8980983970741
 20
-133.3880682717745
 30
0.0
  0
SEQEND
  5
193
330
190
100
AcDbEntity
  8
Capa 1
370
     9
  0
POLYLINE
  5
194
330
1F
100
AcDbEntity
  8
Capa 1
 62
     7
420
 16777215
370
     9
100
AcDb2dPolyline
 66
     1
 10
0.0
 20
0.0
 30
0.0
  0
VERTEX
  5
195
330
194
100
AcDbEntity
  8
Capa 1
 62
     7
420
 16777215
370
     9
100
AcDbVertex
100
AcDb2dVertex
 10
74.70345050215748
 20
-144.2328843497925
 30
0.0
  0
VERTEX
  5
196
330
194
100
AcDbEntity
  8
Capa 1
 62
     7
420
 16777215
370
     9
100
AcDbVertex
100
AcDb2dVertex
 10
73.7172919195047
 20
-145.2190429324452
 30
0.0
  0
SEQEND
  5
197
330
194
100
AcDbEntity
  8
Capa 1
370
     9
  0
POLYLINE
  5
198
330
1F
100
AcDbEntity
  8
Capa 1
 62
     7
420
 16777215
370
     9
100
AcDb2dPolyline
 66
     1
 10
0.0
 20
0.0
 30
0.0
  0
VERTEX
  5
199
330
198
100
AcDbEntity
  8
Capa 1
 62
     7
420
 16777215
370
     9
100
AcDbVertex
100
AcDb2dVertex
 10
70.75847166199789
 20
-145.2190429324452
 30
0.0
  0
VERTEX
  5
19A
330
198
100
AcDbEntity
  8
Capa 1
 62
     7
420
 16777215
370
     9
100
AcDbVertex
100
AcDb2dVertex
 10
69.57732067487999
 20
-144.0339300855193
 30
0.0
  0
SEQEND
  5
19B
330
198
100
AcDbEntity
  8
Capa 1
370
     9
  0
POLYLINE
  5
19C
330
1F
100
AcDbEntity
  8
Capa 1
 62
     7
420
 16777215
370
     9
100
AcDb2dPolyline
 66
     1
 10
0.0
 20
0.0
 30
0.0
  0
VERTEX
  5
19D
330
19C
100
AcDbEntity
  8
Capa 1
 62
     7
420
 16777215
370
     9
100
AcDbVertex
100
AcDb2dVertex
 10
69.57732067487999
 20
-133.3880682717745
 30
0.0
  0
VERTEX
  5
19E
330
19C
100
AcDbEntity
  8
Capa 1
 62
     7
420
 16777215
370
     9
100
AcDbVertex
100
AcDb2dVertex
 10
70.75847166199789
 20
-132.2070895394309
 30
0.0
  0
SEQEND
  5
19F
330
19C
100
AcDbEntity
  8
Capa 1
370
     9
  0
POLYLINE
  5
1A0
330
1F
100
AcDbEntity
  8
Capa 1
 62
     7
420
 16777215
370
     9
100
AcDb2dPolyline
 66
     1
 10
0.0
 20
0.0
 30
0.0
  0
VERTEX
  5
1A1
330
1A0
100
AcDbEntity
  8
Capa 1
 62
     7
420
 16777215
370
     9
100
AcDbVertex
100
AcDb2dVertex
 10
73.7172919195047
 20
-145.2190429324452
 30
0.0
  0
VERTEX
  5
1A2
330
1A0
100
AcDbEntity
  8
Capa 1
 62
     7
420
 16777215
370
     9
100
AcDbVertex
100
AcDb2dVertex
 10
70.75847166199789
 20
-145.2190429324452
 30
0.0
  0
SEQEND
  5
1A3
330
1A0
100
AcDbEntity
  8
Capa 1
370
     9
  0
POLYLINE
  5
1A4
330
1F
100
AcDbEntity
  8
Capa 1
 62
     7
420
 16777215
370
     9
100
AcDb2dPolyline
 66
     1
 10
0.0
 20
0.0
 30
0.0
  0
VERTEX
  5
1A5
330
1A4
100
AcDbEntity
  8
Capa 1
 62
     7
420
 16777215
370
     9
100
AcDbVertex
100
AcDb2dVertex
 10
70.75847166199789
 20
-132.2070895394309
 30
0.0
  0
VERTEX
  5
1A6
330
1A4
100
AcDbEntity
  8
Capa 1
 62
     7
420
 16777215
370
     9
100
AcDbVertex
100
AcDb2dVertex
 10
73.7172919195047
 20
-132.2070895394309
 30
0.0
  0
SEQEND
  5
1A7
330
1A4
100
AcDbEntity
  8
Capa 1
370
     9
  0
POLYLINE
  5
1A8
330
1F
100
AcDbEntity
  8
Capa 1
 62
     7
420
 16777215
370
     9
100
AcDb2dPolyline
 66
     1
 10
0.0
 20
0.0
 30
0.0
  0
VERTEX
  5
1A9
330
1A8
100
AcDbEntity
  8
Capa 1
 62
     7
420
 16777215
370
     9
100
AcDbVertex
100
AcDb2dVertex
 10
70.75847166199789
 20
-204.5521999271606
 30
0.0
  0
VERTEX
  5
1AA
330
1A8
100
AcDbEntity
  8
Capa 1
 62
     7
420
 16777215
370
     9
100
AcDbVertex
100
AcDb2dVertex
 10
69.57732067487999
 20
-203.3712211948169
 30
0.0
  0
SEQEND
  5
1AB
330
1A8
100
AcDbEntity
  8
Capa 1
370
     9
  0
POLYLINE
  5
1AC
330
1F
100
AcDbEntity
  8
Capa 1
 62
     7
420
 16777215
370
     9
100
AcDb2dPolyline
 66
     1
 10
0.0
 20
0.0
 30
0.0
  0
VERTEX
  5
1AD
330
1AC
100
AcDbEntity
  8
Capa 1
 62
     7
420
 16777215
370
     9
100
AcDbVertex
100
AcDb2dVertex
 10
69.57732067487999
 20
-192.7255316358464
 30
0.0
  0
VERTEX
  5
1AE
330
1AC
100
AcDbEntity
  8
Capa 1
 62
     7
420
 16777215
370
     9
100
AcDbVertex
100
AcDb2dVertex
 10
70.75847166199789
 20
-191.5397297698234
 30
0.0
  0
SEQEND
  5
1AF
330
1AC
100
AcDbEntity
  8
Capa 1
370
     9
  0
POLYLINE
  5
1B0
330
1F
100
AcDbEntity
  8
Capa 1
 62
     7
420
 16777215
370
     9
100
AcDb2dPolyline
 66
     1
 10
0.0
 20
0.0
 30
0.0
  0
VERTEX
  5
1B1
330
1B0
100
AcDbEntity
  8
Capa 1
 62
     7
420
 16777215
370
     9
100
AcDbVertex
100
AcDb2dVertex
 10
73.7172919195047
 20
-191.5397297698234
 30
0.0
  0
VERTEX
  5
1B2
330
1B0
100
AcDbEntity
  8
Capa 1
 62
     7
420
 16777215
370
     9
100
AcDbVertex
100
AcDb2dVertex
 10
74.70345050215748
 20
-192.526405116799
 30
0.0
  0
SEQEND
  5
1B3
330
1B0
100
AcDbEntity
  8
Capa 1
370
     9
  0
POLYLINE
  5
1B4
330
1F
100
AcDbEntity
  8
Capa 1
 62
     7
420
 16777215
370
     9
100
AcDb2dPolyline
 66
     1
 10
0.0
 20
0.0
 30
0.0
  0
VERTEX
  5
1B5
330
1B4
100
AcDbEntity
  8
Capa 1
 62
     7
420
 16777215
370
     9
100
AcDbVertex
100
AcDb2dVertex
 10
74.8980983970741
 20
-203.3712211948169
 30
0.0
  0
VERTEX
  5
1B6
330
1B4
100
AcDbEntity
  8
Capa 1
 62
     7
420
 16777215
370
     9
100
AcDbVertex
100
AcDb2dVertex
 10
73.7172919195047
 20
-204.5521999271606
 30
0.0
  0
SEQEND
  5
1B7
330
1B4
100
AcDbEntity
  8
Capa 1
370
     9
  0
POLYLINE
  5
1B8
330
1F
100
AcDbEntity
  8
Capa 1
 62
     7
420
 16777215
370
     9
100
AcDb2dPolyline
 66
     1
 10
0.0
 20
0.0
 30
0.0
  0
VERTEX
  5
1B9
330
1B8
100
AcDbEntity
  8
Capa 1
 62
     7
420
 16777215
370
     9
100
AcDbVertex
100
AcDb2dVertex
 10
70.75847166199789
 20
-191.5397297698234
 30
0.0
  0
VERTEX
  5
1BA
330
1B8
100
AcDbEntity
  8
Capa 1
 62
     7
420
 16777215
370
     9
100
AcDbVertex
100
AcDb2dVertex
 10
73.7172919195047
 20
-191.5397297698234
 30
0.0
  0
SEQEND
  5
1BB
330
1B8
100
AcDbEntity
  8
Capa 1
370
     9
  0
POLYLINE
  5
1BC
330
1F
100
AcDbEntity
  8
Capa 1
 62
     7
420
 16777215
370
     9
100
AcDb2dPolyline
 66
     1
 10
0.0
 20
0.0
 30
0.0
  0
VERTEX
  5
1BD
330
1BC
100
AcDbEntity
  8
Capa 1
 62
     7
420
 16777215
370
     9
100
AcDbVertex
100
AcDb2dVertex
 10
73.7172919195047
 20
-204.5521999271606
 30
0.0
  0
VERTEX
  5
1BE
330
1BC
100
AcDbEntity
  8
Capa 1
 62
     7
420
 16777215
370
     9
100
AcDbVertex
100
AcDb2dVertex
 10
70.75847166199789
 20
-204.5521999271606
 30
0.0
  0
SEQEND
  5
1BF
330
1BC
100
AcDbEntity
  8
Capa 1
370
     9
  0
POLYLINE
  5
1C0
330
1F
100
AcDbEntity
  8
Capa 1
 62
     7
420
 16777215
370
     9
100
AcDb2dPolyline
 66
     1
 10
0.0
 20
0.0
 30
0.0
  0
VERTEX
  5
1C1
330
1C0
100
AcDbEntity
  8
Capa 1
 62
     7
420
 16777215
370
     9
100
AcDbVertex
100
AcDb2dVertex
 10
73.7172919195047
 20
-191.5397297698234
 30
0.0
  0
VERTEX
  5
1C2
330
1C0
100
AcDbEntity
  8
Capa 1
 62
     7
420
 16777215
370
     9
100
AcDbVertex
100
AcDb2dVertex
 10
74.70345050215748
 20
-192.526405116799
 30
0.0
  0
SEQEND
  5
1C3
330
1C0
100
AcDbEntity
  8
Capa 1
370
     9
  0
POLYLINE
  5
1C4
330
1F
100
AcDbEntity
  8
Capa 1
 62
     7
420
 16777215
370
     9
100
AcDb2dPolyline
 66
     1
 10
0.0
 20
0.0
 30
0.0
  0
VERTEX
  5
1C5
330
1C4
100
AcDbEntity
  8
Capa 1
 62
     7
420
 16777215
370
     9
100
AcDbVertex
100
AcDb2dVertex
 10
74.8980983970741
 20
-203.3712211948169
 30
0.0
  0
VERTEX
  5
1C6
330
1C4
100
AcDbEntity
  8
Capa 1
 62
     7
420
 16777215
370
     9
100
AcDbVertex
100
AcDb2dVertex
 10
73.7172919195047
 20
-204.5521999271606
 30
0.0
  0
SEQEND
  5
1C7
330
1C4
100
AcDbEntity
  8
Capa 1
370
     9
  0
POLYLINE
  5
1C8
330
1F
100
AcDbEntity
  8
Capa 1
 62
     7
420
 16777215
370
     9
100
AcDb2dPolyline
 66
     1
 10
0.0
 20
0.0
 30
0.0
  0
VERTEX
  5
1C9
330
1C8
100
AcDbEntity
  8
Capa 1
 62
     7
420
 16777215
370
     9
100
AcDbVertex
100
AcDb2dVertex
 10
70.75847166199789
 20
-204.5521999271606
 30
0.0
  0
VERTEX
  5
1CA
330
1C8
100
AcDbEntity
  8
Capa 1
 62
     7
420
 16777215
370
     9
100
AcDbVertex
100
AcDb2dVertex
 10
69.57732067487999
 20
-203.3712211948169
 30
0.0
  0
SEQEND
  5
1CB
330
1C8
100
AcDbEntity
  8
Capa 1
370
     9
  0
POLYLINE
  5
1CC
330
1F
100
AcDbEntity
  8
Capa 1
 62
     7
420
 16777215
370
     9
100
AcDb2dPolyline
 66
     1
 10
0.0
 20
0.0
 30
0.0
  0
VERTEX
  5
1CD
330
1CC
100
AcDbEntity
  8
Capa 1
 62
     7
420
 16777215
370
     9
100
AcDbVertex
100
AcDb2dVertex
 10
69.57732067487999
 20
-192.7255316358464
 30
0.0
  0
VERTEX
  5
1CE
330
1CC
100
AcDbEntity
  8
Capa 1
 62
     7
420
 16777215
370
     9
100
AcDbVertex
100
AcDb2dVertex
 10
70.75847166199789
 20
-191.5397297698234
 30
0.0
  0
SEQEND
  5
1CF
330
1CC
100
AcDbEntity
  8
Capa 1
370
     9
  0
POLYLINE
  5
1D0
330
1F
100
AcDbEntity
  8
Capa 1
 62
     7
420
 16777215
370
     9
100
AcDb2dPolyline
 66
     1
 10
0.0
 20
0.0
 30
0.0
  0
VERTEX
  5
1D1
330
1D0
100
AcDbEntity
  8
Capa 1
 62
     7
420
 16777215
370
     9
100
AcDbVertex
100
AcDb2dVertex
 10
70.75847166199789
 20
-191.5397297698234
 30
0.0
  0
VERTEX
  5
1D2
330
1D0
100
AcDbEntity
  8
Capa 1
 62
     7
420
 16777215
370
     9
100
AcDbVertex
100
AcDb2dVertex
 10
73.7172919195047
 20
-191.5397297698234
 30
0.0
  0
SEQEND
  5
1D3
330
1D0
100
AcDbEntity
  8
Capa 1
370
     9
  0
POLYLINE
  5
1D4
330
1F
100
AcDbEntity
  8
Capa 1
 62
     7
420
 16777215
370
     9
100
AcDb2dPolyline
 66
     1
 10
0.0
 20
0.0
 30
0.0
  0
VERTEX
  5
1D5
330
1D4
100
AcDbEntity
  8
Capa 1
 62
     7
420
 16777215
370
     9
100
AcDbVertex
100
AcDb2dVertex
 10
73.7172919195047
 20
-204.5521999271606
 30
0.0
  0
VERTEX
  5
1D6
330
1D4
100
AcDbEntity
  8
Capa 1
 62
     7
420
 16777215
370
     9
100
AcDbVertex
100
AcDb2dVertex
 10
70.75847166199789
 20
-204.5521999271606
 30
0.0
  0
SEQEND
  5
1D7
330
1D4
100
AcDbEntity
  8
Capa 1
370
     9
  0
POLYLINE
  5
1D8
330
1F
100
AcDbEntity
  8
Capa 1
 62
     7
420
 16777215
370
     9
100
AcDb2dPolyline
 66
     1
 10
0.0
 20
0.0
 30
0.0
  0
VERTEX
  5
1D9
330
1D8
100
AcDbEntity
  8
Capa 1
 62
     7
420
 16777215
370
     9
100
AcDbVertex
100
AcDb2dVertex
 10
62.48111299436236
 20
-125.3074245563468
 30
0.0
  0
VERTEX
  5
1DA
330
1D8
100
AcDbEntity
  8
Capa 1
 62
     7
420
 16777215
370
     9
100
AcDbVertex
100
AcDb2dVertex
 10
68.0075629170259
 20
-129.4739230362079
 30
0.0
  0
SEQEND
  5
1DB
330
1D8
100
AcDbEntity
  8
Capa 1
370
     9
  0
POLYLINE
  5
1DC
330
1F
100
AcDbEntity
  8
Capa 1
 62
     7
420
 16777215
370
     9
100
AcDb2dPolyline
 66
     1
 10
0.0
 20
0.0
 30
0.0
  0
VERTEX
  5
1DD
330
1DC
100
AcDbEntity
  8
Capa 1
 62
     7
420
 16777215
370
     9
100
AcDbVertex
100
AcDb2dVertex
 10
68.0075629170259
 20
-147.9525539452167
 30
0.0
  0
VERTEX
  5
1DE
330
1DC
100
AcDbEntity
  8
Capa 1
 62
     7
420
 16777215
370
     9
100
AcDbVertex
100
AcDb2dVertex
 10
62.48111299436236
 20
-152.1188801703036
 30
0.0
  0
SEQEND
  5
1DF
330
1DC
100
AcDbEntity
  8
Capa 1
370
     9
  0
POLYLINE
  5
1E0
330
1F
100
AcDbEntity
  8
Capa 1
 62
     7
420
 16777215
370
     9
100
AcDb2dPolyline
 66
     1
 10
0.0
 20
0.0
 30
0.0
  0
VERTEX
  5
1E1
330
1E0
100
AcDbEntity
  8
Capa 1
 62
     7
420
 16777215
370
     9
100
AcDbVertex
100
AcDb2dVertex
 10
77.87896726568651
 20
-203.1720946757695
 30
0.0
  0
VERTEX
  5
1E2
330
1E0
100
AcDbEntity
  8
Capa 1
 62
     7
420
 16777215
370
     9
100
AcDbVertex
100
AcDb2dVertex
 10
74.8980983970741
 20
-203.1720946757695
 30
0.0
  0
SEQEND
  5
1E3
330
1E0
100
AcDbEntity
  8
Capa 1
370
     9
  0
POLYLINE
  5
1E4
330
1F
100
AcDbEntity
  8
Capa 1
 62
     7
420
 16777215
370
     9
100
AcDb2dPolyline
 66
     1
 10
0.0
 20
0.0
 30
0.0
  0
VERTEX
  5
1E5
330
1E4
100
AcDbEntity
  8
Capa 1
 62
     7
420
 16777215
370
     9
100
AcDbVertex
100
AcDb2dVertex
 10
74.8980983970741
 20
-133.5870225360477
 30
0.0
  0
VERTEX
  5
1E6
330
1E4
100
AcDbEntity
  8
Capa 1
 62
     7
420
 16777215
370
     9
100
AcDbVertex
100
AcDb2dVertex
 10
77.88120657775193
 20
-133.5870225360477
 30
0.0
  0
SEQEND
  5
1E7
330
1E4
100
AcDbEntity
  8
Capa 1
370
     9
  0
POLYLINE
  5
1E8
330
1F
100
AcDbEntity
  8
Capa 1
 62
     7
420
 16777215
370
     9
100
AcDb2dPolyline
 66
     1
 10
0.0
 20
0.0
 30
0.0
  0
VERTEX
  5
1E9
330
1E8
100
AcDbEntity
  8
Capa 1
 62
     7
420
 16777215
370
     9
100
AcDbVertex
100
AcDb2dVertex
 10
113.3725802667958
 20
-177.0548258020905
 30
0.0
  0
VERTEX
  5
1EA
330
1E8
100
AcDbEntity
  8
Capa 1
 62
     7
420
 16777215
370
     9
100
AcDbVertex
100
AcDb2dVertex
 10
99.67953149634748
 20
-177.0548258020905
 30
0.0
  0
SEQEND
  5
1EB
330
1E8
100
AcDbEntity
  8
Capa 1
370
     9
  0
POLYLINE
  5
1EC
330
1F
100
AcDbEntity
  8
Capa 1
 62
     7
420
 16777215
370
     9
100
AcDb2dPolyline
 66
     1
 10
0.0
 20
0.0
 30
0.0
  0
VERTEX
  5
1ED
330
1EC
100
AcDbEntity
  8
Capa 1
 62
     7
420
 16777215
370
     9
100
AcDbVertex
100
AcDb2dVertex
 10
99.6927951139657
 20
-159.708425524309
 30
0.0
  0
VERTEX
  5
1EE
330
1EC
100
AcDbEntity
  8
Capa 1
 62
     7
420
 16777215
370
     9
100
AcDbVertex
100
AcDb2dVertex
 10
113.3725802667958
 20
-159.708425524309
 30
0.0
  0
SEQEND
  5
1EF
330
1EC
100
AcDbEntity
  8
Capa 1
370
     9
  0
POLYLINE
  5
1F0
330
1F
100
AcDbEntity
  8
Capa 1
 62
     7
420
 16777215
370
     9
100
AcDb2dPolyline
 66
     1
 10
0.0
 20
0.0
 30
0.0
  0
VERTEX
  5
1F1
330
1F0
100
AcDbEntity
  8
Capa 1
 62
     7
420
 16777215
370
     9
100
AcDbVertex
100
AcDb2dVertex
 10
73.7172919195047
 20
-132.2070895394309
 30
0.0
  0
VERTEX
  5
1F2
330
1F0
100
AcDbEntity
  8
Capa 1
 62
     7
420
 16777215
370
     9
100
AcDbVertex
100
AcDb2dVertex
 10
74.8980983970741
 20
-133.3880682717745
 30
0.0
  0
SEQEND
  5
1F3
330
1F0
100
AcDbEntity
  8
Capa 1
370
     9
  0
POLYLINE
  5
1F4
330
1F
100
AcDbEntity
  8
Capa 1
 62
     7
420
 16777215
370
     9
100
AcDb2dPolyline
 66
     1
 10
0.0
 20
0.0
 30
0.0
  0
VERTEX
  5
1F5
330
1F4
100
AcDbEntity
  8
Capa 1
 62
     7
420
 16777215
370
     9
100
AcDbVertex
100
AcDb2dVertex
 10
74.70345050215748
 20
-144.2328843497925
 30
0.0
  0
VERTEX
  5
1F6
330
1F4
100
AcDbEntity
  8
Capa 1
 62
     7
420
 16777215
370
     9
100
AcDbVertex
100
AcDb2dVertex
 10
73.7172919195047
 20
-145.2190429324452
 30
0.0
  0
SEQEND
  5
1F7
330
1F4
100
AcDbEntity
  8
Capa 1
370
     9
  0
POLYLINE
  5
1F8
330
1F
100
AcDbEntity
  8
Capa 1
 62
     7
420
 16777215
370
     9
100
AcDb2dPolyline
 66
     1
 10
0.0
 20
0.0
 30
0.0
  0
VERTEX
  5
1F9
330
1F8
100
AcDbEntity
  8
Capa 1
 62
     7
420
 16777215
370
     9
100
AcDbVertex
100
AcDb2dVertex
 10
70.75847166199789
 20
-145.2190429324452
 30
0.0
  0
VERTEX
  5
1FA
330
1F8
100
AcDbEntity
  8
Capa 1
 62
     7
420
 16777215
370
     9
100
AcDbVertex
100
AcDb2dVertex
 10
69.57732067487999
 20
-144.0339300855193
 30
0.0
  0
SEQEND
  5
1FB
330
1F8
100
AcDbEntity
  8
Capa 1
370
     9
  0
POLYLINE
  5
1FC
330
1F
100
AcDbEntity
  8
Capa 1
 62
     7
420
 16777215
370
     9
100
AcDb2dPolyline
 66
     1
 10
0.0
 20
0.0
 30
0.0
  0
VERTEX
  5
1FD
330
1FC
100
AcDbEntity
  8
Capa 1
 62
     7
420
 16777215
370
     9
100
AcDbVertex
100
AcDb2dVertex
 10
69.57732067487999
 20
-133.3880682717745
 30
0.0
  0
VERTEX
  5
1FE
330
1FC
100
AcDbEntity
  8
Capa 1
 62
     7
420
 16777215
370
     9
100
AcDbVertex
100
AcDb2dVertex
 10
70.75847166199789
 20
-132.2070895394309
 30
0.0
  0
SEQEND
  5
1FF
330
1FC
100
AcDbEntity
  8
Capa 1
370
     9
  0
POLYLINE
  5
200
330
1F
100
AcDbEntity
  8
Capa 1
 62
     7
420
 16777215
370
     9
100
AcDb2dPolyline
 66
     1
 10
0.0
 20
0.0
 30
0.0
  0
VERTEX
  5
201
330
200
100
AcDbEntity
  8
Capa 1
 62
     7
420
 16777215
370
     9
100
AcDbVertex
100
AcDb2dVertex
 10
73.7172919195047
 20
-145.2190429324452
 30
0.0
  0
VERTEX
  5
202
330
200
100
AcDbEntity
  8
Capa 1
 62
     7
420
 16777215
370
     9
100
AcDbVertex
100
AcDb2dVertex
 10
70.75847166199789
 20
-145.2190429324452
 30
0.0
  0
SEQEND
  5
203
330
200
100
AcDbEntity
  8
Capa 1
370
     9
  0
POLYLINE
  5
204
330
1F
100
AcDbEntity
  8
Capa 1
 62
     7
420
 16777215
370
     9
100
AcDb2dPolyline
 66
     1
 10
0.0
 20
0.0
 30
0.0
  0
VERTEX
  5
205
330
204
100
AcDbEntity
  8
Capa 1
 62
     7
420
 16777215
370
     9
100
AcDbVertex
100
AcDb2dVertex
 10
70.75847166199789
 20
-132.2070895394309
 30
0.0
  0
VERTEX
  5
206
330
204
100
AcDbEntity
  8
Capa 1
 62
     7
420
 16777215
370
     9
100
AcDbVertex
100
AcDb2dVertex
 10
73.7172919195047
 20
-132.2070895394309
 30
0.0
  0
SEQEND
  5
207
330
204
100
AcDbEntity
  8
Capa 1
370
     9
  0
POLYLINE
  5
208
330
1F
100
AcDbEntity
  8
Capa 1
 62
     7
420
 16777215
370
     9
100
AcDb2dPolyline
 66
     1
 10
0.0
 20
0.0
 30
0.0
  0
VERTEX
  5
209
330
208
100
AcDbEntity
  8
Capa 1
 62
     7
420
 16777215
370
     9
100
AcDbVertex
100
AcDb2dVertex
 10
73.7172919195047
 20
-191.5397297698234
 30
0.0
  0
VERTEX
  5
20A
330
208
100
AcDbEntity
  8
Capa 1
 62
     7
420
 16777215
370
     9
100
AcDbVertex
100
AcDb2dVertex
 10
74.70345050215748
 20
-192.526405116799
 30
0.0
  0
SEQEND
  5
20B
330
208
100
AcDbEntity
  8
Capa 1
370
     9
  0
POLYLINE
  5
20C
330
1F
100
AcDbEntity
  8
Capa 1
 62
     7
420
 16777215
370
     9
100
AcDb2dPolyline
 66
     1
 10
0.0
 20
0.0
 30
0.0
  0
VERTEX
  5
20D
330
20C
100
AcDbEntity
  8
Capa 1
 62
     7
420
 16777215
370
     9
100
AcDbVertex
100
AcDb2dVertex
 10
74.8980983970741
 20
-203.3712211948169
 30
0.0
  0
VERTEX
  5
20E
330
20C
100
AcDbEntity
  8
Capa 1
 62
     7
420
 16777215
370
     9
100
AcDbVertex
100
AcDb2dVertex
 10
73.7172919195047
 20
-204.5521999271606
 30
0.0
  0
SEQEND
  5
20F
330
20C
100
AcDbEntity
  8
Capa 1
370
     9
  0
POLYLINE
  5
210
330
1F
100
AcDbEntity
  8
Capa 1
 62
     7
420
 16777215
370
     9
100
AcDb2dPolyline
 66
     1
 10
0.0
 20
0.0
 30
0.0
  0
VERTEX
  5
211
330
210
100
AcDbEntity
  8
Capa 1
 62
     7
420
 16777215
370
     9
100
AcDbVertex
100
AcDb2dVertex
 10
70.75847166199789
 20
-204.5521999271606
 30
0.0
  0
VERTEX
  5
212
330
210
100
AcDbEntity
  8
Capa 1
 62
     7
420
 16777215
370
     9
100
AcDbVertex
100
AcDb2dVertex
 10
69.57732067487999
 20
-203.3712211948169
 30
0.0
  0
SEQEND
  5
213
330
210
100
AcDbEntity
  8
Capa 1
370
     9
  0
POLYLINE
  5
214
330
1F
100
AcDbEntity
  8
Capa 1
 62
     7
420
 16777215
370
     9
100
AcDb2dPolyline
 66
     1
 10
0.0
 20
0.0
 30
0.0
  0
VERTEX
  5
215
330
214
100
AcDbEntity
  8
Capa 1
 62
     7
420
 16777215
370
     9
100
AcDbVertex
100
AcDb2dVertex
 10
69.57732067487999
 20
-192.7255316358464
 30
0.0
  0
VERTEX
  5
216
330
214
100
AcDbEntity
  8
Capa 1
 62
     7
420
 16777215
370
     9
100
AcDbVertex
100
AcDb2dVertex
 10
70.75847166199789
 20
-191.5397297698234
 30
0.0
  0
SEQEND
  5
217
330
214
100
AcDbEntity
  8
Capa 1
370
     9
  0
POLYLINE
  5
218
330
1F
100
AcDbEntity
  8
Capa 1
 62
     7
420
 16777215
370
     9
100
AcDb2dPolyline
 66
     1
 10
0.0
 20
0.0
 30
0.0
  0
VERTEX
  5
219
330
218
100
AcDbEntity
  8
Capa 1
 62
     7
420
 16777215
370
     9
100
AcDbVertex
100
AcDb2dVertex
 10
73.7172919195047
 20
-204.5521999271606
 30
0.0
  0
VERTEX
  5
21A
330
218
100
AcDbEntity
  8
Capa 1
 62
     7
420
 16777215
370
     9
100
AcDbVertex
100
AcDb2dVertex
 10
70.75847166199789
 20
-204.5521999271606
 30
0.0
  0
SEQEND
  5
21B
330
218
100
AcDbEntity
  8
Capa 1
370
     9
  0
POLYLINE
  5
21C
330
1F
100
AcDbEntity
  8
Capa 1
 62
     7
420
 16777215
370
     9
100
AcDb2dPolyline
 66
     1
 10
0.0
 20
0.0
 30
0.0
  0
VERTEX
  5
21D
330
21C
100
AcDbEntity
  8
Capa 1
 62
     7
420
 16777215
370
     9
100
AcDbVertex
100
AcDb2dVertex
 10
70.75847166199789
 20
-191.5397297698234
 30
0.0
  0
VERTEX
  5
21E
330
21C
100
AcDbEntity
  8
Capa 1
 62
     7
420
 16777215
370
     9
100
AcDbVertex
100
AcDb2dVertex
 10
73.7172919195047
 20
-191.5397297698234
 30
0.0
  0
SEQEND
  5
21F
330
21C
100
AcDbEntity
  8
Capa 1
370
     9
  0
POLYLINE
  5
220
330
1F
100
AcDbEntity
  8
Capa 1
 62
     7
420
 16777215
370
     9
100
AcDb2dPolyline
 66
     1
 10
0.0
 20
0.0
 30
0.0
  0
VERTEX
  5
221
330
220
100
AcDbEntity
  8
Capa 1
 62
     7
420
 16777215
370
     9
100
AcDbVertex
100
AcDb2dVertex
 10
70.75847166199789
 20
-145.1882093278523
 30
0.0
  0
VERTEX
  5
222
330
220
100
AcDbEntity
  8
Capa 1
 62
     7
420
 16777215
370
     9
100
AcDbVertex
100
AcDb2dVertex
 10
73.7172919195047
 20
-145.1882093278523
 30
0.0
  0
SEQEND
  5
223
330
220
100
AcDbEntity
  8
Capa 1
370
     9
  0
POLYLINE
  5
224
330
1F
100
AcDbEntity
  8
Capa 1
 62
     7
420
 16777215
370
     9
100
AcDb2dPolyline
 66
     1
 10
0.0
 20
0.0
 30
0.0
  0
VERTEX
  5
225
330
224
100
AcDbEntity
  8
Capa 1
 62
     7
420
 16777215
370
     9
100
AcDbVertex
100
AcDb2dVertex
 10
73.7172919195047
 20
-142.4769191809606
 30
0.0
  0
VERTEX
  5
226
330
224
100
AcDbEntity
  8
Capa 1
 62
     7
420
 16777215
370
     9
100
AcDbVertex
100
AcDb2dVertex
 10
70.75847166199789
 20
-142.4769191809606
 30
0.0
  0
SEQEND
  5
227
330
224
100
AcDbEntity
  8
Capa 1
370
     9
  0
POLYLINE
  5
228
330
1F
100
AcDbEntity
  8
Capa 1
 62
     7
420
 16777215
370
     9
100
AcDb2dPolyline
 66
     1
 10
0.0
 20
0.0
 30
0.0
  0
VERTEX
  5
229
330
228
100
AcDbEntity
  8
Capa 1
 62
     7
420
 16777215
370
     9
100
AcDbVertex
100
AcDb2dVertex
 10
70.75847166199789
 20
-136.0018622164336
 30
0.0
  0
VERTEX
  5
22A
330
228
100
AcDbEntity
  8
Capa 1
 62
     7
420
 16777215
370
     9
100
AcDbVertex
100
AcDb2dVertex
 10
70.75847166199789
 20
-134.9450791763332
 30
0.0
  0
SEQEND
  5
22B
330
228
100
AcDbEntity
  8
Capa 1
370
     9
  0
POLYLINE
  5
22C
330
1F
100
AcDbEntity
  8
Capa 1
 62
     7
420
 16777215
370
     9
100
AcDb2dPolyline
 66
     1
 10
0.0
 20
0.0
 30
0.0
  0
VERTEX
  5
22D
330
22C
100
AcDbEntity
  8
Capa 1
 62
     7
420
 16777215
370
     9
100
AcDbVertex
100
AcDb2dVertex
 10
70.75847166199789
 20
-132.2336167746673
 30
0.0
  0
VERTEX
  5
22E
330
22C
100
AcDbEntity
  8
Capa 1
 62
     7
420
 16777215
370
     9
100
AcDbVertex
100
AcDb2dVertex
 10
70.75847166199789
 20
-132.2070895394309
 30
0.0
  0
SEQEND
  5
22F
330
22C
100
AcDbEntity
  8
Capa 1
370
     9
  0
POLYLINE
  5
230
330
1F
100
AcDbEntity
  8
Capa 1
 62
     7
420
 16777215
370
     9
100
AcDb2dPolyline
 66
     1
 10
0.0
 20
0.0
 30
0.0
  0
VERTEX
  5
231
330
230
100
AcDbEntity
  8
Capa 1
 62
     7
420
 16777215
370
     9
100
AcDbVertex
100
AcDb2dVertex
 10
70.75847166199789
 20
-145.1882093278523
 30
0.0
  0
VERTEX
  5
232
330
230
100
AcDbEntity
  8
Capa 1
 62
     7
420
 16777215
370
     9
100
AcDbVertex
100
AcDb2dVertex
 10
70.75847166199789
 20
-145.2190429324452
 30
0.0
  0
SEQEND
  5
233
330
230
100
AcDbEntity
  8
Capa 1
370
     9
  0
POLYLINE
  5
234
330
1F
100
AcDbEntity
  8
Capa 1
 62
     7
420
 16777215
370
     9
100
AcDb2dPolyline
 66
     1
 10
0.0
 20
0.0
 30
0.0
  0
VERTEX
  5
235
330
234
100
AcDbEntity
  8
Capa 1
 62
     7
420
 16777215
370
     9
100
AcDbVertex
100
AcDb2dVertex
 10
70.75847166199789
 20
-142.4769191809606
 30
0.0
  0
VERTEX
  5
236
330
234
100
AcDbEntity
  8
Capa 1
 62
     7
420
 16777215
370
     9
100
AcDbVertex
100
AcDb2dVertex
 10
70.75847166199789
 20
-141.4242702554425
 30
0.0
  0
SEQEND
  5
237
330
234
100
AcDbEntity
  8
Capa 1
370
     9
  0
POLYLINE
  5
238
330
1F
100
AcDbEntity
  8
Capa 1
 62
     7
420
 16777215
370
     9
100
AcDb2dPolyline
 66
     1
 10
0.0
 20
0.0
 30
0.0
  0
VERTEX
  5
239
330
238
100
AcDbEntity
  8
Capa 1
 62
     7
420
 16777215
370
     9
100
AcDbVertex
100
AcDb2dVertex
 10
73.7172919195047
 20
-132.2336167746673
 30
0.0
  0
VERTEX
  5
23A
330
238
100
AcDbEntity
  8
Capa 1
 62
     7
420
 16777215
370
     9
100
AcDbVertex
100
AcDb2dVertex
 10
73.7172919195047
 20
-132.2070895394309
 30
0.0
  0
SEQEND
  5
23B
330
238
100
AcDbEntity
  8
Capa 1
370
     9
  0
POLYLINE
  5
23C
330
1F
100
AcDbEntity
  8
Capa 1
 62
     7
420
 16777215
370
     9
100
AcDb2dPolyline
 66
     1
 10
0.0
 20
0.0
 30
0.0
  0
VERTEX
  5
23D
330
23C
100
AcDbEntity
  8
Capa 1
 62
     7
420
 16777215
370
     9
100
AcDbVertex
100
AcDb2dVertex
 10
73.7172919195047
 20
-134.9450791763332
 30
0.0
  0
VERTEX
  5
23E
330
23C
100
AcDbEntity
  8
Capa 1
 62
     7
420
 16777215
370
     9
100
AcDbVertex
100
AcDb2dVertex
 10
73.7172919195047
 20
-136.0018622164336
 30
0.0
  0
SEQEND
  5
23F
330
23C
100
AcDbEntity
  8
Capa 1
370
     9
  0
POLYLINE
  5
240
330
1F
100
AcDbEntity
  8
Capa 1
 62
     7
420
 16777215
370
     9
100
AcDb2dPolyline
 66
     1
 10
0.0
 20
0.0
 30
0.0
  0
VERTEX
  5
241
330
240
100
AcDbEntity
  8
Capa 1
 62
     7
420
 16777215
370
     9
100
AcDbVertex
100
AcDb2dVertex
 10
73.7172919195047
 20
-141.4242702554425
 30
0.0
  0
VERTEX
  5
242
330
240
100
AcDbEntity
  8
Capa 1
 62
     7
420
 16777215
370
     9
100
AcDbVertex
100
AcDb2dVertex
 10
73.7172919195047
 20
-142.4769191809606
 30
0.0
  0
SEQEND
  5
243
330
240
100
AcDbEntity
  8
Capa 1
370
     9
  0
POLYLINE
  5
244
330
1F
100
AcDbEntity
  8
Capa 1
 62
     7
420
 16777215
370
     9
100
AcDb2dPolyline
 66
     1
 10
0.0
 20
0.0
 30
0.0
  0
VERTEX
  5
245
330
244
100
AcDbEntity
  8
Capa 1
 62
     7
420
 16777215
370
     9
100
AcDbVertex
100
AcDb2dVertex
 10
73.7172919195047
 20
-145.1882093278523
 30
0.0
  0
VERTEX
  5
246
330
244
100
AcDbEntity
  8
Capa 1
 62
     7
420
 16777215
370
     9
100
AcDbVertex
100
AcDb2dVertex
 10
73.7172919195047
 20
-145.2190429324452
 30
0.0
  0
SEQEND
  5
247
330
244
100
AcDbEntity
  8
Capa 1
370
     9
  0
POLYLINE
  5
248
330
1F
100
AcDbEntity
  8
Capa 1
 62
     7
420
 16777215
370
     9
100
AcDb2dPolyline
 66
     1
 10
0.0
 20
0.0
 30
0.0
  0
VERTEX
  5
249
330
248
100
AcDbEntity
  8
Capa 1
 62
     7
420
 16777215
370
     9
100
AcDbVertex
100
AcDb2dVertex
 10
74.8980983970741
 20
-138.7131523633252
 30
0.0
  0
VERTEX
  5
24A
330
248
100
AcDbEntity
  8
Capa 1
 62
     7
420
 16777215
370
     9
100
AcDbVertex
100
AcDb2dVertex
 10
74.8980983970741
 20
-133.3880682717745
 30
0.0
  0
SEQEND
  5
24B
330
248
100
AcDbEntity
  8
Capa 1
370
     9
  0
POLYLINE
  5
24C
330
1F
100
AcDbEntity
  8
Capa 1
 62
     7
420
 16777215
370
     9
100
AcDb2dPolyline
 66
     1
 10
0.0
 20
0.0
 30
0.0
  0
VERTEX
  5
24D
330
24C
100
AcDbEntity
  8
Capa 1
 62
     7
420
 16777215
370
     9
100
AcDbVertex
100
AcDb2dVertex
 10
74.8980983970741
 20
-140.3185668594516
 30
0.0
  0
VERTEX
  5
24E
330
24C
100
AcDbEntity
  8
Capa 1
 62
     7
420
 16777215
370
     9
100
AcDbVertex
100
AcDb2dVertex
 10
74.8980983970741
 20
-138.7131523633252
 30
0.0
  0
SEQEND
  5
24F
330
24C
100
AcDbEntity
  8
Capa 1
370
     9
  0
POLYLINE
  5
250
330
1F
100
AcDbEntity
  8
Capa 1
 62
     7
420
 16777215
370
     9
100
AcDb2dPolyline
 66
     1
 10
0.0
 20
0.0
 30
0.0
  0
VERTEX
  5
251
330
250
100
AcDbEntity
  8
Capa 1
 62
     7
420
 16777215
370
     9
100
AcDbVertex
100
AcDb2dVertex
 10
70.75847166199789
 20
-141.4242702554425
 30
0.0
  0
VERTEX
  5
252
330
250
100
AcDbEntity
  8
Capa 1
 62
     7
420
 16777215
370
     9
100
AcDbVertex
100
AcDb2dVertex
 10
73.7172919195047
 20
-141.4242702554425
 30
0.0
  0
SEQEND
  5
253
330
250
100
AcDbEntity
  8
Capa 1
370
     9
  0
POLYLINE
  5
254
330
1F
100
AcDbEntity
  8
Capa 1
 62
     7
420
 16777215
370
     9
100
AcDb2dPolyline
 66
     1
 10
0.0
 20
0.0
 30
0.0
  0
VERTEX
  5
255
330
254
100
AcDbEntity
  8
Capa 1
 62
     7
420
 16777215
370
     9
100
AcDbVertex
100
AcDb2dVertex
 10
73.7172919195047
 20
-136.0018622164336
 30
0.0
  0
VERTEX
  5
256
330
254
100
AcDbEntity
  8
Capa 1
 62
     7
420
 16777215
370
     9
100
AcDbVertex
100
AcDb2dVertex
 10
70.75847166199789
 20
-136.0018622164336
 30
0.0
  0
SEQEND
  5
257
330
254
100
AcDbEntity
  8
Capa 1
370
     9
  0
POLYLINE
  5
258
330
1F
100
AcDbEntity
  8
Capa 1
 62
     7
420
 16777215
370
     9
100
AcDb2dPolyline
 66
     1
 10
0.0
 20
0.0
 30
0.0
  0
VERTEX
  5
259
330
258
100
AcDbEntity
  8
Capa 1
 62
     7
420
 16777215
370
     9
100
AcDbVertex
100
AcDb2dVertex
 10
70.75847166199789
 20
-134.9450791763332
 30
0.0
  0
VERTEX
  5
25A
330
258
100
AcDbEntity
  8
Capa 1
 62
     7
420
 16777215
370
     9
100
AcDbVertex
100
AcDb2dVertex
 10
73.7172919195047
 20
-134.9450791763332
 30
0.0
  0
SEQEND
  5
25B
330
258
100
AcDbEntity
  8
Capa 1
370
     9
  0
POLYLINE
  5
25C
330
1F
100
AcDbEntity
  8
Capa 1
 62
     7
420
 16777215
370
     9
100
AcDb2dPolyline
 66
     1
 10
0.0
 20
0.0
 30
0.0
  0
VERTEX
  5
25D
330
25C
100
AcDbEntity
  8
Capa 1
 62
     7
420
 16777215
370
     9
100
AcDbVertex
100
AcDb2dVertex
 10
73.7172919195047
 20
-132.2336167746673
 30
0.0
  0
VERTEX
  5
25E
330
25C
100
AcDbEntity
  8
Capa 1
 62
     7
420
 16777215
370
     9
100
AcDbVertex
100
AcDb2dVertex
 10
70.75847166199789
 20
-132.2336167746673
 30
0.0
  0
SEQEND
  5
25F
330
25C
100
AcDbEntity
  8
Capa 1
370
     9
  0
POLYLINE
  5
260
330
1F
100
AcDbEntity
  8
Capa 1
 62
     7
420
 16777215
370
     9
100
AcDb2dPolyline
 66
     1
 10
0.0
 20
0.0
 30
0.0
  0
VERTEX
  5
261
330
260
100
AcDbEntity
  8
Capa 1
 62
     7
420
 16777215
370
     9
100
AcDbVertex
100
AcDb2dVertex
 10
70.75847166199789
 20
-136.0018622164336
 30
0.0
  0
VERTEX
  5
262
330
260
100
AcDbEntity
  8
Capa 1
 62
     7
420
 16777215
370
     9
100
AcDbVertex
100
AcDb2dVertex
 10
70.75847166199789
 20
-134.9450791763332
 30
0.0
  0
SEQEND
  5
263
330
260
100
AcDbEntity
  8
Capa 1
370
     9
  0
POLYLINE
  5
264
330
1F
100
AcDbEntity
  8
Capa 1
 62
     7
420
 16777215
370
     9
100
AcDb2dPolyline
 66
     1
 10
0.0
 20
0.0
 30
0.0
  0
VERTEX
  5
265
330
264
100
AcDbEntity
  8
Capa 1
 62
     7
420
 16777215
370
     9
100
AcDbVertex
100
AcDb2dVertex
 10
70.75847166199789
 20
-132.2336167746673
 30
0.0
  0
VERTEX
  5
266
330
264
100
AcDbEntity
  8
Capa 1
 62
     7
420
 16777215
370
     9
100
AcDbVertex
100
AcDb2dVertex
 10
70.75847166199789
 20
-132.2070895394309
 30
0.0
  0
SEQEND
  5
267
330
264
100
AcDbEntity
  8
Capa 1
370
     9
  0
POLYLINE
  5
268
330
1F
100
AcDbEntity
  8
Capa 1
 62
     7
420
 16777215
370
     9
100
AcDb2dPolyline
 66
     1
 10
0.0
 20
0.0
 30
0.0
  0
VERTEX
  5
269
330
268
100
AcDbEntity
  8
Capa 1
 62
     7
420
 16777215
370
     9
100
AcDbVertex
100
AcDb2dVertex
 10
70.75847166199789
 20
-145.1882093278523
 30
0.0
  0
VERTEX
  5
26A
330
268
100
AcDbEntity
  8
Capa 1
 62
     7
420
 16777215
370
     9
100
AcDbVertex
100
AcDb2dVertex
 10
70.75847166199789
 20
-145.2190429324452
 30
0.0
  0
SEQEND
  5
26B
330
268
100
AcDbEntity
  8
Capa 1
370
     9
  0
POLYLINE
  5
26C
330
1F
100
AcDbEntity
  8
Capa 1
 62
     7
420
 16777215
370
     9
100
AcDb2dPolyline
 66
     1
 10
0.0
 20
0.0
 30
0.0
  0
VERTEX
  5
26D
330
26C
100
AcDbEntity
  8
Capa 1
 62
     7
420
 16777215
370
     9
100
AcDbVertex
100
AcDb2dVertex
 10
70.75847166199789
 20
-142.4769191809606
 30
0.0
  0
VERTEX
  5
26E
330
26C
100
AcDbEntity
  8
Capa 1
 62
     7
420
 16777215
370
     9
100
AcDbVertex
100
AcDb2dVertex
 10
70.75847166199789
 20
-141.4242702554425
 30
0.0
  0
SEQEND
  5
26F
330
26C
100
AcDbEntity
  8
Capa 1
370
     9
  0
POLYLINE
  5
270
330
1F
100
AcDbEntity
  8
Capa 1
 62
     7
420
 16777215
370
     9
100
AcDb2dPolyline
 66
     1
 10
0.0
 20
0.0
 30
0.0
  0
VERTEX
  5
271
330
270
100
AcDbEntity
  8
Capa 1
 62
     7
420
 16777215
370
     9
100
AcDbVertex
100
AcDb2dVertex
 10
73.7172919195047
 20
-132.2336167746673
 30
0.0
  0
VERTEX
  5
272
330
270
100
AcDbEntity
  8
Capa 1
 62
     7
420
 16777215
370
     9
100
AcDbVertex
100
AcDb2dVertex
 10
73.7172919195047
 20
-132.2070895394309
 30
0.0
  0
SEQEND
  5
273
330
270
100
AcDbEntity
  8
Capa 1
370
     9
  0
POLYLINE
  5
274
330
1F
100
AcDbEntity
  8
Capa 1
 62
     7
420
 16777215
370
     9
100
AcDb2dPolyline
 66
     1
 10
0.0
 20
0.0
 30
0.0
  0
VERTEX
  5
275
330
274
100
AcDbEntity
  8
Capa 1
 62
     7
420
 16777215
370
     9
100
AcDbVertex
100
AcDb2dVertex
 10
73.7172919195047
 20
-134.9450791763332
 30
0.0
  0
VERTEX
  5
276
330
274
100
AcDbEntity
  8
Capa 1
 62
     7
420
 16777215
370
     9
100
AcDbVertex
100
AcDb2dVertex
 10
73.7172919195047
 20
-136.0018622164336
 30
0.0
  0
SEQEND
  5
277
330
274
100
AcDbEntity
  8
Capa 1
370
     9
  0
POLYLINE
  5
278
330
1F
100
AcDbEntity
  8
Capa 1
 62
     7
420
 16777215
370
     9
100
AcDb2dPolyline
 66
     1
 10
0.0
 20
0.0
 30
0.0
  0
VERTEX
  5
279
330
278
100
AcDbEntity
  8
Capa 1
 62
     7
420
 16777215
370
     9
100
AcDbVertex
100
AcDb2dVertex
 10
73.7172919195047
 20
-141.4242702554425
 30
0.0
  0
VERTEX
  5
27A
330
278
100
AcDbEntity
  8
Capa 1
 62
     7
420
 16777215
370
     9
100
AcDbVertex
100
AcDb2dVertex
 10
73.7172919195047
 20
-142.4769191809606
 30
0.0
  0
SEQEND
  5
27B
330
278
100
AcDbEntity
  8
Capa 1
370
     9
  0
POLYLINE
  5
27C
330
1F
100
AcDbEntity
  8
Capa 1
 62
     7
420
 16777215
370
     9
100
AcDb2dPolyline
 66
     1
 10
0.0
 20
0.0
 30
0.0
  0
VERTEX
  5
27D
330
27C
100
AcDbEntity
  8
Capa 1
 62
     7
420
 16777215
370
     9
100
AcDbVertex
100
AcDb2dVertex
 10
73.7172919195047
 20
-145.1882093278523
 30
0.0
  0
VERTEX
  5
27E
330
27C
100
AcDbEntity
  8
Capa 1
 62
     7
420
 16777215
370
     9
100
AcDbVertex
100
AcDb2dVertex
 10
73.7172919195047
 20
-145.2190429324452
 30
0.0
  0
SEQEND
  5
27F
330
27C
100
AcDbEntity
  8
Capa 1
370
     9
  0
POLYLINE
  5
280
330
1F
100
AcDbEntity
  8
Capa 1
 62
     7
420
 16777215
370
     9
100
AcDb2dPolyline
 66
     1
 10
0.0
 20
0.0
 30
0.0
  0
VERTEX
  5
281
330
280
100
AcDbEntity
  8
Capa 1
 62
     7
420
 16777215
370
     9
100
AcDbVertex
100
AcDb2dVertex
 10
74.8980983970741
 20
-138.7131523633252
 30
0.0
  0
VERTEX
  5
282
330
280
100
AcDbEntity
  8
Capa 1
 62
     7
420
 16777215
370
     9
100
AcDbVertex
100
AcDb2dVertex
 10
74.8980983970741
 20
-133.3880682717745
 30
0.0
  0
SEQEND
  5
283
330
280
100
AcDbEntity
  8
Capa 1
370
     9
  0
POLYLINE
  5
284
330
1F
100
AcDbEntity
  8
Capa 1
 62
     7
420
 16777215
370
     9
100
AcDb2dPolyline
 66
     1
 10
0.0
 20
0.0
 30
0.0
  0
VERTEX
  5
285
330
284
100
AcDbEntity
  8
Capa 1
 62
     7
420
 16777215
370
     9
100
AcDbVertex
100
AcDb2dVertex
 10
74.8980983970741
 20
-140.3185668594516
 30
0.0
  0
VERTEX
  5
286
330
284
100
AcDbEntity
  8
Capa 1
 62
     7
420
 16777215
370
     9
100
AcDbVertex
100
AcDb2dVertex
 10
74.8980983970741
 20
-138.7131523633252
 30
0.0
  0
SEQEND
  5
287
330
284
100
AcDbEntity
  8
Capa 1
370
     9
  0
POLYLINE
  5
288
330
1F
100
AcDbEntity
  8
Capa 1
 62
     7
420
 16777215
370
     9
100
AcDb2dPolyline
 66
     1
 10
0.0
 20
0.0
 30
0.0
  0
VERTEX
  5
289
330
288
100
AcDbEntity
  8
Capa 1
 62
     7
420
 16777215
370
     9
100
AcDbVertex
100
AcDb2dVertex
 10
70.75847166199789
 20
-145.1882093278523
 30
0.0
  0
VERTEX
  5
28A
330
288
100
AcDbEntity
  8
Capa 1
 62
     7
420
 16777215
370
     9
100
AcDbVertex
100
AcDb2dVertex
 10
73.7172919195047
 20
-145.1882093278523
 30
0.0
  0
SEQEND
  5
28B
330
288
100
AcDbEntity
  8
Capa 1
370
     9
  0
POLYLINE
  5
28C
330
1F
100
AcDbEntity
  8
Capa 1
 62
     7
420
 16777215
370
     9
100
AcDb2dPolyline
 66
     1
 10
0.0
 20
0.0
 30
0.0
  0
VERTEX
  5
28D
330
28C
100
AcDbEntity
  8
Capa 1
 62
     7
420
 16777215
370
     9
100
AcDbVertex
100
AcDb2dVertex
 10
73.7172919195047
 20
-142.4769191809606
 30
0.0
  0
VERTEX
  5
28E
330
28C
100
AcDbEntity
  8
Capa 1
 62
     7
420
 16777215
370
     9
100
AcDbVertex
100
AcDb2dVertex
 10
70.75847166199789
 20
-142.4769191809606
 30
0.0
  0
SEQEND
  5
28F
330
28C
100
AcDbEntity
  8
Capa 1
370
     9
  0
POLYLINE
  5
290
330
1F
100
AcDbEntity
  8
Capa 1
 62
     7
420
 16777215
370
     9
100
AcDb2dPolyline
 66
     1
 10
0.0
 20
0.0
 30
0.0
  0
VERTEX
  5
291
330
290
100
AcDbEntity
  8
Capa 1
 62
     7
420
 16777215
370
     9
100
AcDbVertex
100
AcDb2dVertex
 10
70.75847166199789
 20
-141.4242702554425
 30
0.0
  0
VERTEX
  5
292
330
290
100
AcDbEntity
  8
Capa 1
 62
     7
420
 16777215
370
     9
100
AcDbVertex
100
AcDb2dVertex
 10
73.7172919195047
 20
-141.4242702554425
 30
0.0
  0
SEQEND
  5
293
330
290
100
AcDbEntity
  8
Capa 1
370
     9
  0
POLYLINE
  5
294
330
1F
100
AcDbEntity
  8
Capa 1
 62
     7
420
 16777215
370
     9
100
AcDb2dPolyline
 66
     1
 10
0.0
 20
0.0
 30
0.0
  0
VERTEX
  5
295
330
294
100
AcDbEntity
  8
Capa 1
 62
     7
420
 16777215
370
     9
100
AcDbVertex
100
AcDb2dVertex
 10
73.7172919195047
 20
-136.0018622164336
 30
0.0
  0
VERTEX
  5
296
330
294
100
AcDbEntity
  8
Capa 1
 62
     7
420
 16777215
370
     9
100
AcDbVertex
100
AcDb2dVertex
 10
70.75847166199789
 20
-136.0018622164336
 30
0.0
  0
SEQEND
  5
297
330
294
100
AcDbEntity
  8
Capa 1
370
     9
  0
POLYLINE
  5
298
330
1F
100
AcDbEntity
  8
Capa 1
 62
     7
420
 16777215
370
     9
100
AcDb2dPolyline
 66
     1
 10
0.0
 20
0.0
 30
0.0
  0
VERTEX
  5
299
330
298
100
AcDbEntity
  8
Capa 1
 62
     7
420
 16777215
370
     9
100
AcDbVertex
100
AcDb2dVertex
 10
70.75847166199789
 20
-134.9450791763332
 30
0.0
  0
VERTEX
  5
29A
330
298
100
AcDbEntity
  8
Capa 1
 62
     7
420
 16777215
370
     9
100
AcDbVertex
100
AcDb2dVertex
 10
73.7172919195047
 20
-134.9450791763332
 30
0.0
  0
SEQEND
  5
29B
330
298
100
AcDbEntity
  8
Capa 1
370
     9
  0
POLYLINE
  5
29C
330
1F
100
AcDbEntity
  8
Capa 1
 62
     7
420
 16777215
370
     9
100
AcDb2dPolyline
 66
     1
 10
0.0
 20
0.0
 30
0.0
  0
VERTEX
  5
29D
330
29C
100
AcDbEntity
  8
Capa 1
 62
     7
420
 16777215
370
     9
100
AcDbVertex
100
AcDb2dVertex
 10
73.7172919195047
 20
-132.2336167746673
 30
0.0
  0
VERTEX
  5
29E
330
29C
100
AcDbEntity
  8
Capa 1
 62
     7
420
 16777215
370
     9
100
AcDbVertex
100
AcDb2dVertex
 10
70.75847166199789
 20
-132.2336167746673
 30
0.0
  0
SEQEND
  5
29F
330
29C
100
AcDbEntity
  8
Capa 1
370
     9
  0
POLYLINE
  5
2A0
330
1F
100
AcDbEntity
  8
Capa 1
 62
     7
420
 16777215
370
     9
100
AcDb2dPolyline
 66
     1
 10
0.0
 20
0.0
 30
0.0
  0
VERTEX
  5
2A1
330
2A0
100
AcDbEntity
  8
Capa 1
 62
     7
420
 16777215
370
     9
100
AcDbVertex
100
AcDb2dVertex
 10
70.75847166199789
 20
-136.0018622164336
 30
0.0
  0
VERTEX
  5
2A2
330
2A0
100
AcDbEntity
  8
Capa 1
 62
     7
420
 16777215
370
     9
100
AcDbVertex
100
AcDb2dVertex
 10
70.75847166199789
 20
-134.9450791763332
 30
0.0
  0
SEQEND
  5
2A3
330
2A0
100
AcDbEntity
  8
Capa 1
370
     9
  0
POLYLINE
  5
2A4
330
1F
100
AcDbEntity
  8
Capa 1
 62
     7
420
 16777215
370
     9
100
AcDb2dPolyline
 66
     1
 10
0.0
 20
0.0
 30
0.0
  0
VERTEX
  5
2A5
330
2A4
100
AcDbEntity
  8
Capa 1
 62
     7
420
 16777215
370
     9
100
AcDbVertex
100
AcDb2dVertex
 10
70.75847166199789
 20
-132.2336167746673
 30
0.0
  0
VERTEX
  5
2A6
330
2A4
100
AcDbEntity
  8
Capa 1
 62
     7
420
 16777215
370
     9
100
AcDbVertex
100
AcDb2dVertex
 10
70.75847166199789
 20
-132.2070895394309
 30
0.0
  0
SEQEND
  5
2A7
330
2A4
100
AcDbEntity
  8
Capa 1
370
     9
  0
POLYLINE
  5
2A8
330
1F
100
AcDbEntity
  8
Capa 1
 62
     7
420
 16777215
370
     9
100
AcDb2dPolyline
 66
     1
 10
0.0
 20
0.0
 30
0.0
  0
VERTEX
  5
2A9
330
2A8
100
AcDbEntity
  8
Capa 1
 62
     7
420
 16777215
370
     9
100
AcDbVertex
100
AcDb2dVertex
 10
70.75847166199789
 20
-145.1882093278523
 30
0.0
  0
VERTEX
  5
2AA
330
2A8
100
AcDbEntity
  8
Capa 1
 62
     7
420
 16777215
370
     9
100
AcDbVertex
100
AcDb2dVertex
 10
70.75847166199789
 20
-145.2190429324452
 30
0.0
  0
SEQEND
  5
2AB
330
2A8
100
AcDbEntity
  8
Capa 1
370
     9
  0
POLYLINE
  5
2AC
330
1F
100
AcDbEntity
  8
Capa 1
 62
     7
420
 16777215
370
     9
100
AcDb2dPolyline
 66
     1
 10
0.0
 20
0.0
 30
0.0
  0
VERTEX
  5
2AD
330
2AC
100
AcDbEntity
  8
Capa 1
 62
     7
420
 16777215
370
     9
100
AcDbVertex
100
AcDb2dVertex
 10
70.75847166199789
 20
-142.4769191809606
 30
0.0
  0
VERTEX
  5
2AE
330
2AC
100
AcDbEntity
  8
Capa 1
 62
     7
420
 16777215
370
     9
100
AcDbVertex
100
AcDb2dVertex
 10
70.75847166199789
 20
-141.4242702554425
 30
0.0
  0
SEQEND
  5
2AF
330
2AC
100
AcDbEntity
  8
Capa 1
370
     9
  0
POLYLINE
  5
2B0
330
1F
100
AcDbEntity
  8
Capa 1
 62
     7
420
 16777215
370
     9
100
AcDb2dPolyline
 66
     1
 10
0.0
 20
0.0
 30
0.0
  0
VERTEX
  5
2B1
330
2B0
100
AcDbEntity
  8
Capa 1
 62
     7
420
 16777215
370
     9
100
AcDbVertex
100
AcDb2dVertex
 10
70.75847166199789
 20
-145.1882093278523
 30
0.0
  0
VERTEX
  5
2B2
330
2B0
100
AcDbEntity
  8
Capa 1
 62
     7
420
 16777215
370
     9
100
AcDbVertex
100
AcDb2dVertex
 10
73.7172919195047
 20
-145.1882093278523
 30
0.0
  0
SEQEND
  5
2B3
330
2B0
100
AcDbEntity
  8
Capa 1
370
     9
  0
POLYLINE
  5
2B4
330
1F
100
AcDbEntity
  8
Capa 1
 62
     7
420
 16777215
370
     9
100
AcDb2dPolyline
 66
     1
 10
0.0
 20
0.0
 30
0.0
  0
VERTEX
  5
2B5
330
2B4
100
AcDbEntity
  8
Capa 1
 62
     7
420
 16777215
370
     9
100
AcDbVertex
100
AcDb2dVertex
 10
73.7172919195047
 20
-142.4769191809606
 30
0.0
  0
VERTEX
  5
2B6
330
2B4
100
AcDbEntity
  8
Capa 1
 62
     7
420
 16777215
370
     9
100
AcDbVertex
100
AcDb2dVertex
 10
70.75847166199789
 20
-142.4769191809606
 30
0.0
  0
SEQEND
  5
2B7
330
2B4
100
AcDbEntity
  8
Capa 1
370
     9
  0
POLYLINE
  5
2B8
330
1F
100
AcDbEntity
  8
Capa 1
 62
     7
420
 16777215
370
     9
100
AcDb2dPolyline
 66
     1
 10
0.0
 20
0.0
 30
0.0
  0
VERTEX
  5
2B9
330
2B8
100
AcDbEntity
  8
Capa 1
 62
     7
420
 16777215
370
     9
100
AcDbVertex
100
AcDb2dVertex
 10
73.7172919195047
 20
-132.2336167746673
 30
0.0
  0
VERTEX
  5
2BA
330
2B8
100
AcDbEntity
  8
Capa 1
 62
     7
420
 16777215
370
     9
100
AcDbVertex
100
AcDb2dVertex
 10
73.7172919195047
 20
-132.2070895394309
 30
0.0
  0
SEQEND
  5
2BB
330
2B8
100
AcDbEntity
  8
Capa 1
370
     9
  0
POLYLINE
  5
2BC
330
1F
100
AcDbEntity
  8
Capa 1
 62
     7
420
 16777215
370
     9
100
AcDb2dPolyline
 66
     1
 10
0.0
 20
0.0
 30
0.0
  0
VERTEX
  5
2BD
330
2BC
100
AcDbEntity
  8
Capa 1
 62
     7
420
 16777215
370
     9
100
AcDbVertex
100
AcDb2dVertex
 10
73.7172919195047
 20
-134.9450791763332
 30
0.0
  0
VERTEX
  5
2BE
330
2BC
100
AcDbEntity
  8
Capa 1
 62
     7
420
 16777215
370
     9
100
AcDbVertex
100
AcDb2dVertex
 10
73.7172919195047
 20
-136.0018622164336
 30
0.0
  0
SEQEND
  5
2BF
330
2BC
100
AcDbEntity
  8
Capa 1
370
     9
  0
POLYLINE
  5
2C0
330
1F
100
AcDbEntity
  8
Capa 1
 62
     7
420
 16777215
370
     9
100
AcDb2dPolyline
 66
     1
 10
0.0
 20
0.0
 30
0.0
  0
VERTEX
  5
2C1
330
2C0
100
AcDbEntity
  8
Capa 1
 62
     7
420
 16777215
370
     9
100
AcDbVertex
100
AcDb2dVertex
 10
73.7172919195047
 20
-141.4242702554425
 30
0.0
  0
VERTEX
  5
2C2
330
2C0
100
AcDbEntity
  8
Capa 1
 62
     7
420
 16777215
370
     9
100
AcDbVertex
100
AcDb2dVertex
 10
73.7172919195047
 20
-142.4769191809606
 30
0.0
  0
SEQEND
  5
2C3
330
2C0
100
AcDbEntity
  8
Capa 1
370
     9
  0
POLYLINE
  5
2C4
330
1F
100
AcDbEntity
  8
Capa 1
 62
     7
420
 16777215
370
     9
100
AcDb2dPolyline
 66
     1
 10
0.0
 20
0.0
 30
0.0
  0
VERTEX
  5
2C5
330
2C4
100
AcDbEntity
  8
Capa 1
 62
     7
420
 16777215
370
     9
100
AcDbVertex
100
AcDb2dVertex
 10
73.7172919195047
 20
-145.1882093278523
 30
0.0
  0
VERTEX
  5
2C6
330
2C4
100
AcDbEntity
  8
Capa 1
 62
     7
420
 16777215
370
     9
100
AcDbVertex
100
AcDb2dVertex
 10
73.7172919195047
 20
-145.2190429324452
 30
0.0
  0
SEQEND
  5
2C7
330
2C4
100
AcDbEntity
  8
Capa 1
370
     9
  0
POLYLINE
  5
2C8
330
1F
100
AcDbEntity
  8
Capa 1
 62
     7
420
 16777215
370
     9
100
AcDb2dPolyline
 66
     1
 10
0.0
 20
0.0
 30
0.0
  0
VERTEX
  5
2C9
330
2C8
100
AcDbEntity
  8
Capa 1
 62
     7
420
 16777215
370
     9
100
AcDbVertex
100
AcDb2dVertex
 10
74.8980983970741
 20
-138.7131523633252
 30
0.0
  0
VERTEX
  5
2CA
330
2C8
100
AcDbEntity
  8
Capa 1
 62
     7
420
 16777215
370
     9
100
AcDbVertex
100
AcDb2dVertex
 10
74.8980983970741
 20
-133.3880682717745
 30
0.0
  0
SEQEND
  5
2CB
330
2C8
100
AcDbEntity
  8
Capa 1
370
     9
  0
POLYLINE
  5
2CC
330
1F
100
AcDbEntity
  8
Capa 1
 62
     7
420
 16777215
370
     9
100
AcDb2dPolyline
 66
     1
 10
0.0
 20
0.0
 30
0.0
  0
VERTEX
  5
2CD
330
2CC
100
AcDbEntity
  8
Capa 1
 62
     7
420
 16777215
370
     9
100
AcDbVertex
100
AcDb2dVertex
 10
74.8980983970741
 20
-140.3185668594516
 30
0.0
  0
VERTEX
  5
2CE
330
2CC
100
AcDbEntity
  8
Capa 1
 62
     7
420
 16777215
370
     9
100
AcDbVertex
100
AcDb2dVertex
 10
74.8980983970741
 20
-138.7131523633252
 30
0.0
  0
SEQEND
  5
2CF
330
2CC
100
AcDbEntity
  8
Capa 1
370
     9
  0
POLYLINE
  5
2D0
330
1F
100
AcDbEntity
  8
Capa 1
 62
     7
420
 16777215
370
     9
100
AcDb2dPolyline
 66
     1
 10
0.0
 20
0.0
 30
0.0
  0
VERTEX
  5
2D1
330
2D0
100
AcDbEntity
  8
Capa 1
 62
     7
420
 16777215
370
     9
100
AcDbVertex
100
AcDb2dVertex
 10
70.75847166199789
 20
-141.4242702554425
 30
0.0
  0
VERTEX
  5
2D2
330
2D0
100
AcDbEntity
  8
Capa 1
 62
     7
420
 16777215
370
     9
100
AcDbVertex
100
AcDb2dVertex
 10
73.7172919195047
 20
-141.4242702554425
 30
0.0
  0
SEQEND
  5
2D3
330
2D0
100
AcDbEntity
  8
Capa 1
370
     9
  0
POLYLINE
  5
2D4
330
1F
100
AcDbEntity
  8
Capa 1
 62
     7
420
 16777215
370
     9
100
AcDb2dPolyline
 66
     1
 10
0.0
 20
0.0
 30
0.0
  0
VERTEX
  5
2D5
330
2D4
100
AcDbEntity
  8
Capa 1
 62
     7
420
 16777215
370
     9
100
AcDbVertex
100
AcDb2dVertex
 10
73.7172919195047
 20
-136.0018622164336
 30
0.0
  0
VERTEX
  5
2D6
330
2D4
100
AcDbEntity
  8
Capa 1
 62
     7
420
 16777215
370
     9
100
AcDbVertex
100
AcDb2dVertex
 10
70.75847166199789
 20
-136.0018622164336
 30
0.0
  0
SEQEND
  5
2D7
330
2D4
100
AcDbEntity
  8
Capa 1
370
     9
  0
POLYLINE
  5
2D8
330
1F
100
AcDbEntity
  8
Capa 1
 62
     7
420
 16777215
370
     9
100
AcDb2dPolyline
 66
     1
 10
0.0
 20
0.0
 30
0.0
  0
VERTEX
  5
2D9
330
2D8
100
AcDbEntity
  8
Capa 1
 62
     7
420
 16777215
370
     9
100
AcDbVertex
100
AcDb2dVertex
 10
70.75847166199789
 20
-134.9450791763332
 30
0.0
  0
VERTEX
  5
2DA
330
2D8
100
AcDbEntity
  8
Capa 1
 62
     7
420
 16777215
370
     9
100
AcDbVertex
100
AcDb2dVertex
 10
73.7172919195047
 20
-134.9450791763332
 30
0.0
  0
SEQEND
  5
2DB
330
2D8
100
AcDbEntity
  8
Capa 1
370
     9
  0
POLYLINE
  5
2DC
330
1F
100
AcDbEntity
  8
Capa 1
 62
     7
420
 16777215
370
     9
100
AcDb2dPolyline
 66
     1
 10
0.0
 20
0.0
 30
0.0
  0
VERTEX
  5
2DD
330
2DC
100
AcDbEntity
  8
Capa 1
 62
     7
420
 16777215
370
     9
100
AcDbVertex
100
AcDb2dVertex
 10
73.7172919195047
 20
-132.2336167746673
 30
0.0
  0
VERTEX
  5
2DE
330
2DC
100
AcDbEntity
  8
Capa 1
 62
     7
420
 16777215
370
     9
100
AcDbVertex
100
AcDb2dVertex
 10
70.75847166199789
 20
-132.2336167746673
 30
0.0
  0
SEQEND
  5
2DF
330
2DC
100
AcDbEntity
  8
Capa 1
370
     9
  0
POLYLINE
  5
2E0
330
1F
100
AcDbEntity
  8
Capa 1
 62
     7
420
 16777215
370
     9
100
AcDb2dPolyline
 66
     1
 10
0.0
 20
0.0
 30
0.0
  0
VERTEX
  5
2E1
330
2E0
100
AcDbEntity
  8
Capa 1
 62
     7
420
 16777215
370
     9
100
AcDbVertex
100
AcDb2dVertex
 10
62.48111299436236
 20
-152.1188801703036
 30
0.0
  0
VERTEX
  5
2E2
330
2E0
100
AcDbEntity
  8
Capa 1
 62
     7
420
 16777215
370
     9
100
AcDbVertex
100
AcDb2dVertex
 10
62.48111299436236
 20
-125.3074245563468
 30
0.0
  0
SEQEND
  5
2E3
330
2E0
100
AcDbEntity
  8
Capa 1
370
     9
  0
POLYLINE
  5
2E4
330
1F
100
AcDbEntity
  8
Capa 1
 62
     7
420
 16777215
370
     9
100
AcDb2dPolyline
 66
     1
 10
0.0
 20
0.0
 30
0.0
  0
VERTEX
  5
2E5
330
2E4
100
AcDbEntity
  8
Capa 1
 62
     7
420
 16777215
370
     9
100
AcDbVertex
100
AcDb2dVertex
 10
69.57732067487999
 20
-144.8033921621499
 30
0.0
  0
VERTEX
  5
2E6
330
2E4
100
AcDbEntity
  8
Capa 1
 62
     7
420
 16777215
370
     9
100
AcDbVertex
100
AcDb2dVertex
 10
69.57732067487999
 20
-132.6230848192748
 30
0.0
  0
SEQEND
  5
2E7
330
2E4
100
AcDbEntity
  8
Capa 1
370
     9
  0
POLYLINE
  5
2E8
330
1F
100
AcDbEntity
  8
Capa 1
 62
     7
420
 16777215
370
     9
100
AcDb2dPolyline
 66
     1
 10
0.0
 20
0.0
 30
0.0
  0
VERTEX
  5
2E9
330
2E8
100
AcDbEntity
  8
Capa 1
 62
     7
420
 16777215
370
     9
100
AcDbVertex
100
AcDb2dVertex
 10
70.75847166199789
 20
-195.3341579372776
 30
0.0
  0
VERTEX
  5
2EA
330
2E8
100
AcDbEntity
  8
Capa 1
 62
     7
420
 16777215
370
     9
100
AcDbVertex
100
AcDb2dVertex
 10
70.75847166199789
 20
-194.2820257760823
 30
0.0
  0
SEQEND
  5
2EB
330
2E8
100
AcDbEntity
  8
Capa 1
370
     9
  0
POLYLINE
  5
2EC
330
1F
100
AcDbEntity
  8
Capa 1
 62
     7
420
 16777215
370
     9
100
AcDb2dPolyline
 66
     1
 10
0.0
 20
0.0
 30
0.0
  0
VERTEX
  5
2ED
330
2EC
100
AcDbEntity
  8
Capa 1
 62
     7
420
 16777215
370
     9
100
AcDbVertex
100
AcDb2dVertex
 10
70.75847166199789
 20
-191.5703911196421
 30
0.0
  0
VERTEX
  5
2EE
330
2EC
100
AcDbEntity
  8
Capa 1
 62
     7
420
 16777215
370
     9
100
AcDbVertex
100
AcDb2dVertex
 10
70.75847166199789
 20
-191.5397297698234
 30
0.0
  0
SEQEND
  5
2EF
330
2EC
100
AcDbEntity
  8
Capa 1
370
     9
  0
POLYLINE
  5
2F0
330
1F
100
AcDbEntity
  8
Capa 1
 62
     7
420
 16777215
370
     9
100
AcDb2dPolyline
 66
     1
 10
0.0
 20
0.0
 30
0.0
  0
VERTEX
  5
2F1
330
2F0
100
AcDbEntity
  8
Capa 1
 62
     7
420
 16777215
370
     9
100
AcDbVertex
100
AcDb2dVertex
 10
73.7172919195047
 20
-191.5703911196421
 30
0.0
  0
VERTEX
  5
2F2
330
2F0
100
AcDbEntity
  8
Capa 1
 62
     7
420
 16777215
370
     9
100
AcDbVertex
100
AcDb2dVertex
 10
73.7172919195047
 20
-191.5397297698234
 30
0.0
  0
SEQEND
  5
2F3
330
2F0
100
AcDbEntity
  8
Capa 1
370
     9
  0
POLYLINE
  5
2F4
330
1F
100
AcDbEntity
  8
Capa 1
 62
     7
420
 16777215
370
     9
100
AcDb2dPolyline
 66
     1
 10
0.0
 20
0.0
 30
0.0
  0
VERTEX
  5
2F5
330
2F4
100
AcDbEntity
  8
Capa 1
 62
     7
420
 16777215
370
     9
100
AcDbVertex
100
AcDb2dVertex
 10
73.7172919195047
 20
-194.2820257760823
 30
0.0
  0
VERTEX
  5
2F6
330
2F4
100
AcDbEntity
  8
Capa 1
 62
     7
420
 16777215
370
     9
100
AcDbVertex
100
AcDb2dVertex
 10
73.7172919195047
 20
-195.3341579372776
 30
0.0
  0
SEQEND
  5
2F7
330
2F4
100
AcDbEntity
  8
Capa 1
370
     9
  0
POLYLINE
  5
2F8
330
1F
100
AcDbEntity
  8
Capa 1
 62
     7
420
 16777215
370
     9
100
AcDb2dPolyline
 66
     1
 10
0.0
 20
0.0
 30
0.0
  0
VERTEX
  5
2F9
330
2F8
100
AcDbEntity
  8
Capa 1
 62
     7
420
 16777215
370
     9
100
AcDbVertex
100
AcDb2dVertex
 10
73.7172919195047
 20
-195.3341579372776
 30
0.0
  0
VERTEX
  5
2FA
330
2F8
100
AcDbEntity
  8
Capa 1
 62
     7
420
 16777215
370
     9
100
AcDbVertex
100
AcDb2dVertex
 10
70.75847166199789
 20
-195.3341579372776
 30
0.0
  0
SEQEND
  5
2FB
330
2F8
100
AcDbEntity
  8
Capa 1
370
     9
  0
POLYLINE
  5
2FC
330
1F
100
AcDbEntity
  8
Capa 1
 62
     7
420
 16777215
370
     9
100
AcDb2dPolyline
 66
     1
 10
0.0
 20
0.0
 30
0.0
  0
VERTEX
  5
2FD
330
2FC
100
AcDbEntity
  8
Capa 1
 62
     7
420
 16777215
370
     9
100
AcDbVertex
100
AcDb2dVertex
 10
70.75847166199789
 20
-194.2820257760823
 30
0.0
  0
VERTEX
  5
2FE
330
2FC
100
AcDbEntity
  8
Capa 1
 62
     7
420
 16777215
370
     9
100
AcDbVertex
100
AcDb2dVertex
 10
73.7172919195047
 20
-194.2820257760823
 30
0.0
  0
SEQEND
  5
2FF
330
2FC
100
AcDbEntity
  8
Capa 1
370
     9
  0
POLYLINE
  5
300
330
1F
100
AcDbEntity
  8
Capa 1
 62
     7
420
 16777215
370
     9
100
AcDb2dPolyline
 66
     1
 10
0.0
 20
0.0
 30
0.0
  0
VERTEX
  5
301
330
300
100
AcDbEntity
  8
Capa 1
 62
     7
420
 16777215
370
     9
100
AcDbVertex
100
AcDb2dVertex
 10
73.7172919195047
 20
-191.5703911196421
 30
0.0
  0
VERTEX
  5
302
330
300
100
AcDbEntity
  8
Capa 1
 62
     7
420
 16777215
370
     9
100
AcDbVertex
100
AcDb2dVertex
 10
70.75847166199789
 20
-191.5703911196421
 30
0.0
  0
SEQEND
  5
303
330
300
100
AcDbEntity
  8
Capa 1
370
     9
  0
POLYLINE
  5
304
330
1F
100
AcDbEntity
  8
Capa 1
 62
     7
420
 16777215
370
     9
100
AcDb2dPolyline
 66
     1
 10
0.0
 20
0.0
 30
0.0
  0
VERTEX
  5
305
330
304
100
AcDbEntity
  8
Capa 1
 62
     7
420
 16777215
370
     9
100
AcDbVertex
100
AcDb2dVertex
 10
74.8980983970741
 20
-140.3185668594516
 30
0.0
  0
VERTEX
  5
306
330
304
100
AcDbEntity
  8
Capa 1
 62
     7
420
 16777215
370
     9
100
AcDbVertex
100
AcDb2dVertex
 10
74.8980983970741
 20
-143.4501586555437
 30
0.0
  0
SEQEND
  5
307
330
304
100
AcDbEntity
  8
Capa 1
370
     9
  0
POLYLINE
  5
308
330
1F
100
AcDbEntity
  8
Capa 1
 62
     7
420
 16777215
370
     9
100
AcDb2dPolyline
 66
     1
 10
0.0
 20
0.0
 30
0.0
  0
VERTEX
  5
309
330
308
100
AcDbEntity
  8
Capa 1
 62
     7
420
 16777215
370
     9
100
AcDbVertex
100
AcDb2dVertex
 10
74.8980983970741
 20
-143.4501586555437
 30
0.0
  0
VERTEX
  5
30A
330
308
100
AcDbEntity
  8
Capa 1
 62
     7
420
 16777215
370
     9
100
AcDbVertex
100
AcDb2dVertex
 10
74.70345050215748
 20
-143.4501586555437
 30
0.0
  0
SEQEND
  5
30B
330
308
100
AcDbEntity
  8
Capa 1
370
     9
  0
POLYLINE
  5
30C
330
1F
100
AcDbEntity
  8
Capa 1
 62
     7
420
 16777215
370
     9
100
AcDb2dPolyline
 66
     1
 10
0.0
 20
0.0
 30
0.0
  0
VERTEX
  5
30D
330
30C
100
AcDbEntity
  8
Capa 1
 62
     7
420
 16777215
370
     9
100
AcDbVertex
100
AcDb2dVertex
 10
74.70345050215748
 20
-143.4501586555437
 30
0.0
  0
VERTEX
  5
30E
330
30C
100
AcDbEntity
  8
Capa 1
 62
     7
420
 16777215
370
     9
100
AcDbVertex
100
AcDb2dVertex
 10
74.70345050215748
 20
-144.8610975115278
 30
0.0
  0
SEQEND
  5
30F
330
30C
100
AcDbEntity
  8
Capa 1
370
     9
  0
POLYLINE
  5
310
330
1F
100
AcDbEntity
  8
Capa 1
 62
     7
420
 16777215
370
     9
100
AcDb2dPolyline
 66
     1
 10
0.0
 20
0.0
 30
0.0
  0
VERTEX
  5
311
330
310
100
AcDbEntity
  8
Capa 1
 62
     7
420
 16777215
370
     9
100
AcDbVertex
100
AcDb2dVertex
 10
74.70345050215748
 20
-191.8976751907409
 30
0.0
  0
VERTEX
  5
312
330
310
100
AcDbEntity
  8
Capa 1
 62
     7
420
 16777215
370
     9
100
AcDbVertex
100
AcDb2dVertex
 10
74.70345050215748
 20
-193.3091308110477
 30
0.0
  0
SEQEND
  5
313
330
310
100
AcDbEntity
  8
Capa 1
370
     9
  0
POLYLINE
  5
314
330
1F
100
AcDbEntity
  8
Capa 1
 62
     7
420
 16777215
370
     9
100
AcDb2dPolyline
 66
     1
 10
0.0
 20
0.0
 30
0.0
  0
VERTEX
  5
315
330
314
100
AcDbEntity
  8
Capa 1
 62
     7
420
 16777215
370
     9
100
AcDbVertex
100
AcDb2dVertex
 10
74.70345050215748
 20
-193.3091308110477
 30
0.0
  0
VERTEX
  5
316
330
314
100
AcDbEntity
  8
Capa 1
 62
     7
420
 16777215
370
     9
100
AcDbVertex
100
AcDb2dVertex
 10
74.8980983970741
 20
-193.3091308110477
 30
0.0
  0
SEQEND
  5
317
330
314
100
AcDbEntity
  8
Capa 1
370
     9
  0
POLYLINE
  5
318
330
1F
100
AcDbEntity
  8
Capa 1
 62
     7
420
 16777215
370
     9
100
AcDb2dPolyline
 66
     1
 10
0.0
 20
0.0
 30
0.0
  0
VERTEX
  5
319
330
318
100
AcDbEntity
  8
Capa 1
 62
     7
420
 16777215
370
     9
100
AcDbVertex
100
AcDb2dVertex
 10
74.8980983970741
 20
-193.3091308110477
 30
0.0
  0
VERTEX
  5
31A
330
318
100
AcDbEntity
  8
Capa 1
 62
     7
420
 16777215
370
     9
100
AcDbVertex
100
AcDb2dVertex
 10
74.8980983970741
 20
-196.4400335880428
 30
0.0
  0
SEQEND
  5
31B
330
318
100
AcDbEntity
  8
Capa 1
370
     9
  0
POLYLINE
  5
31C
330
1F
100
AcDbEntity
  8
Capa 1
 62
     7
420
 16777215
370
     9
100
AcDb2dPolyline
 66
     1
 10
0.0
 20
0.0
 30
0.0
  0
VERTEX
  5
31D
330
31C
100
AcDbEntity
  8
Capa 1
 62
     7
420
 16777215
370
     9
100
AcDbVertex
100
AcDb2dVertex
 10
88.00737573754677
 20
-158.6204643700671
 30
0.0
  0
VERTEX
  5
31E
330
31C
100
AcDbEntity
  8
Capa 1
 62
     7
420
 16777215
370
     9
100
AcDbVertex
100
AcDb2dVertex
 10
88.00737573754677
 20
-158.6204643700671
 30
0.0
  0
SEQEND
  5
31F
330
31C
100
AcDbEntity
  8
Capa 1
370
     9
  0
POLYLINE
  5
320
330
1F
100
AcDbEntity
  8
Capa 1
 62
     7
420
 16777215
370
     9
100
AcDb2dPolyline
 66
     1
 10
0.0
 20
0.0
 30
0.0
  0
VERTEX
  5
321
330
320
100
AcDbEntity
  8
Capa 1
 62
     7
420
 16777215
370
     9
100
AcDbVertex
100
AcDb2dVertex
 10
70.75847166199789
 20
-195.3341579372776
 30
0.0
  0
VERTEX
  5
322
330
320
100
AcDbEntity
  8
Capa 1
 62
     7
420
 16777215
370
     9
100
AcDbVertex
100
AcDb2dVertex
 10
70.75847166199789
 20
-194.2820257760823
 30
0.0
  0
SEQEND
  5
323
330
320
100
AcDbEntity
  8
Capa 1
370
     9
  0
POLYLINE
  5
324
330
1F
100
AcDbEntity
  8
Capa 1
 62
     7
420
 16777215
370
     9
100
AcDb2dPolyline
 66
     1
 10
0.0
 20
0.0
 30
0.0
  0
VERTEX
  5
325
330
324
100
AcDbEntity
  8
Capa 1
 62
     7
420
 16777215
370
     9
100
AcDbVertex
100
AcDb2dVertex
 10
70.75847166199789
 20
-191.5703911196421
 30
0.0
  0
VERTEX
  5
326
330
324
100
AcDbEntity
  8
Capa 1
 62
     7
420
 16777215
370
     9
100
AcDbVertex
100
AcDb2dVertex
 10
70.75847166199789
 20
-191.5397297698234
 30
0.0
  0
SEQEND
  5
327
330
324
100
AcDbEntity
  8
Capa 1
370
     9
  0
POLYLINE
  5
328
330
1F
100
AcDbEntity
  8
Capa 1
 62
     7
420
 16777215
370
     9
100
AcDb2dPolyline
 66
     1
 10
0.0
 20
0.0
 30
0.0
  0
VERTEX
  5
329
330
328
100
AcDbEntity
  8
Capa 1
 62
     7
420
 16777215
370
     9
100
AcDbVertex
100
AcDb2dVertex
 10
73.7172919195047
 20
-191.5703911196421
 30
0.0
  0
VERTEX
  5
32A
330
328
100
AcDbEntity
  8
Capa 1
 62
     7
420
 16777215
370
     9
100
AcDbVertex
100
AcDb2dVertex
 10
73.7172919195047
 20
-191.5397297698234
 30
0.0
  0
SEQEND
  5
32B
330
328
100
AcDbEntity
  8
Capa 1
370
     9
  0
POLYLINE
  5
32C
330
1F
100
AcDbEntity
  8
Capa 1
 62
     7
420
 16777215
370
     9
100
AcDb2dPolyline
 66
     1
 10
0.0
 20
0.0
 30
0.0
  0
VERTEX
  5
32D
330
32C
100
AcDbEntity
  8
Capa 1
 62
     7
420
 16777215
370
     9
100
AcDbVertex
100
AcDb2dVertex
 10
73.7172919195047
 20
-194.2820257760823
 30
0.0
  0
VERTEX
  5
32E
330
32C
100
AcDbEntity
  8
Capa 1
 62
     7
420
 16777215
370
     9
100
AcDbVertex
100
AcDb2dVertex
 10
73.7172919195047
 20
-195.3341579372776
 30
0.0
  0
SEQEND
  5
32F
330
32C
100
AcDbEntity
  8
Capa 1
370
     9
  0
POLYLINE
  5
330
330
1F
100
AcDbEntity
  8
Capa 1
 62
     7
420
 16777215
370
     9
100
AcDb2dPolyline
 66
     1
 10
0.0
 20
0.0
 30
0.0
  0
VERTEX
  5
331
330
330
100
AcDbEntity
  8
Capa 1
 62
     7
420
 16777215
370
     9
100
AcDbVertex
100
AcDb2dVertex
 10
73.7172919195047
 20
-195.3341579372776
 30
0.0
  0
VERTEX
  5
332
330
330
100
AcDbEntity
  8
Capa 1
 62
     7
420
 16777215
370
     9
100
AcDbVertex
100
AcDb2dVertex
 10
70.75847166199789
 20
-195.3341579372776
 30
0.0
  0
SEQEND
  5
333
330
330
100
AcDbEntity
  8
Capa 1
370
     9
  0
POLYLINE
  5
334
330
1F
100
AcDbEntity
  8
Capa 1
 62
     7
420
 16777215
370
     9
100
AcDb2dPolyline
 66
     1
 10
0.0
 20
0.0
 30
0.0
  0
VERTEX
  5
335
330
334
100
AcDbEntity
  8
Capa 1
 62
     7
420
 16777215
370
     9
100
AcDbVertex
100
AcDb2dVertex
 10
70.75847166199789
 20
-194.2820257760823
 30
0.0
  0
VERTEX
  5
336
330
334
100
AcDbEntity
  8
Capa 1
 62
     7
420
 16777215
370
     9
100
AcDbVertex
100
AcDb2dVertex
 10
73.7172919195047
 20
-194.2820257760823
 30
0.0
  0
SEQEND
  5
337
330
334
100
AcDbEntity
  8
Capa 1
370
     9
  0
POLYLINE
  5
338
330
1F
100
AcDbEntity
  8
Capa 1
 62
     7
420
 16777215
370
     9
100
AcDb2dPolyline
 66
     1
 10
0.0
 20
0.0
 30
0.0
  0
VERTEX
  5
339
330
338
100
AcDbEntity
  8
Capa 1
 62
     7
420
 16777215
370
     9
100
AcDbVertex
100
AcDb2dVertex
 10
73.7172919195047
 20
-191.5703911196421
 30
0.0
  0
VERTEX
  5
33A
330
338
100
AcDbEntity
  8
Capa 1
 62
     7
420
 16777215
370
     9
100
AcDbVertex
100
AcDb2dVertex
 10
70.75847166199789
 20
-191.5703911196421
 30
0.0
  0
SEQEND
  5
33B
330
338
100
AcDbEntity
  8
Capa 1
370
     9
  0
POLYLINE
  5
33C
330
1F
100
AcDbEntity
  8
Capa 1
 62
     7
420
 16777215
370
     9
100
AcDb2dPolyline
 66
     1
 10
0.0
 20
0.0
 30
0.0
  0
VERTEX
  5
33D
330
33C
100
AcDbEntity
  8
Capa 1
 62
     7
420
 16777215
370
     9
100
AcDbVertex
100
AcDb2dVertex
 10
73.7172919195047
 20
-191.5703911196421
 30
0.0
  0
VERTEX
  5
33E
330
33C
100
AcDbEntity
  8
Capa 1
 62
     7
420
 16777215
370
     9
100
AcDbVertex
100
AcDb2dVertex
 10
73.7172919195047
 20
-191.5397297698234
 30
0.0
  0
SEQEND
  5
33F
330
33C
100
AcDbEntity
  8
Capa 1
370
     9
  0
POLYLINE
  5
340
330
1F
100
AcDbEntity
  8
Capa 1
 62
     7
420
 16777215
370
     9
100
AcDb2dPolyline
 66
     1
 10
0.0
 20
0.0
 30
0.0
  0
VERTEX
  5
341
330
340
100
AcDbEntity
  8
Capa 1
 62
     7
420
 16777215
370
     9
100
AcDbVertex
100
AcDb2dVertex
 10
73.7172919195047
 20
-194.2820257760823
 30
0.0
  0
VERTEX
  5
342
330
340
100
AcDbEntity
  8
Capa 1
 62
     7
420
 16777215
370
     9
100
AcDbVertex
100
AcDb2dVertex
 10
73.7172919195047
 20
-195.3341579372776
 30
0.0
  0
SEQEND
  5
343
330
340
100
AcDbEntity
  8
Capa 1
370
     9
  0
POLYLINE
  5
344
330
1F
100
AcDbEntity
  8
Capa 1
 62
     7
420
 16777215
370
     9
100
AcDb2dPolyline
 66
     1
 10
0.0
 20
0.0
 30
0.0
  0
VERTEX
  5
345
330
344
100
AcDbEntity
  8
Capa 1
 62
     7
420
 16777215
370
     9
100
AcDbVertex
100
AcDb2dVertex
 10
70.75847166199789
 20
-195.3341579372776
 30
0.0
  0
VERTEX
  5
346
330
344
100
AcDbEntity
  8
Capa 1
 62
     7
420
 16777215
370
     9
100
AcDbVertex
100
AcDb2dVertex
 10
70.75847166199789
 20
-194.2820257760823
 30
0.0
  0
SEQEND
  5
347
330
344
100
AcDbEntity
  8
Capa 1
370
     9
  0
POLYLINE
  5
348
330
1F
100
AcDbEntity
  8
Capa 1
 62
     7
420
 16777215
370
     9
100
AcDb2dPolyline
 66
     1
 10
0.0
 20
0.0
 30
0.0
  0
VERTEX
  5
349
330
348
100
AcDbEntity
  8
Capa 1
 62
     7
420
 16777215
370
     9
100
AcDbVertex
100
AcDb2dVertex
 10
70.75847166199789
 20
-191.5703911196421
 30
0.0
  0
VERTEX
  5
34A
330
348
100
AcDbEntity
  8
Capa 1
 62
     7
420
 16777215
370
     9
100
AcDbVertex
100
AcDb2dVertex
 10
70.75847166199789
 20
-191.5397297698234
 30
0.0
  0
SEQEND
  5
34B
330
348
100
AcDbEntity
  8
Capa 1
370
     9
  0
POLYLINE
  5
34C
330
1F
100
AcDbEntity
  8
Capa 1
 62
     7
420
 16777215
370
     9
100
AcDb2dPolyline
 66
     1
 10
0.0
 20
0.0
 30
0.0
  0
VERTEX
  5
34D
330
34C
100
AcDbEntity
  8
Capa 1
 62
     7
420
 16777215
370
     9
100
AcDbVertex
100
AcDb2dVertex
 10
73.7172919195047
 20
-195.3341579372776
 30
0.0
  0
VERTEX
  5
34E
330
34C
100
AcDbEntity
  8
Capa 1
 62
     7
420
 16777215
370
     9
100
AcDbVertex
100
AcDb2dVertex
 10
70.75847166199789
 20
-195.3341579372776
 30
0.0
  0
SEQEND
  5
34F
330
34C
100
AcDbEntity
  8
Capa 1
370
     9
  0
POLYLINE
  5
350
330
1F
100
AcDbEntity
  8
Capa 1
 62
     7
420
 16777215
370
     9
100
AcDb2dPolyline
 66
     1
 10
0.0
 20
0.0
 30
0.0
  0
VERTEX
  5
351
330
350
100
AcDbEntity
  8
Capa 1
 62
     7
420
 16777215
370
     9
100
AcDbVertex
100
AcDb2dVertex
 10
70.75847166199789
 20
-194.2820257760823
 30
0.0
  0
VERTEX
  5
352
330
350
100
AcDbEntity
  8
Capa 1
 62
     7
420
 16777215
370
     9
100
AcDbVertex
100
AcDb2dVertex
 10
73.7172919195047
 20
-194.2820257760823
 30
0.0
  0
SEQEND
  5
353
330
350
100
AcDbEntity
  8
Capa 1
370
     9
  0
POLYLINE
  5
354
330
1F
100
AcDbEntity
  8
Capa 1
 62
     7
420
 16777215
370
     9
100
AcDb2dPolyline
 66
     1
 10
0.0
 20
0.0
 30
0.0
  0
VERTEX
  5
355
330
354
100
AcDbEntity
  8
Capa 1
 62
     7
420
 16777215
370
     9
100
AcDbVertex
100
AcDb2dVertex
 10
73.7172919195047
 20
-191.5703911196421
 30
0.0
  0
VERTEX
  5
356
330
354
100
AcDbEntity
  8
Capa 1
 62
     7
420
 16777215
370
     9
100
AcDbVertex
100
AcDb2dVertex
 10
70.75847166199789
 20
-191.5703911196421
 30
0.0
  0
SEQEND
  5
357
330
354
100
AcDbEntity
  8
Capa 1
370
     9
  0
POLYLINE
  5
358
330
1F
100
AcDbEntity
  8
Capa 1
 62
     7
420
 16777215
370
     9
100
AcDb2dPolyline
 66
     1
 10
0.0
 20
0.0
 30
0.0
  0
VERTEX
  5
359
330
358
100
AcDbEntity
  8
Capa 1
 62
     7
420
 16777215
370
     9
100
AcDbVertex
100
AcDb2dVertex
 10
88.00737573754677
 20
-178.1383083322015
 30
0.0
  0
VERTEX
  5
35A
330
358
100
AcDbEntity
  8
Capa 1
 62
     7
420
 16777215
370
     9
100
AcDbVertex
100
AcDb2dVertex
 10
88.00737573754677
 20
-178.1383083322015
 30
0.0
  0
SEQEND
  5
35B
330
358
100
AcDbEntity
  8
Capa 1
370
     9
  0
POLYLINE
  5
35C
330
1F
100
AcDbEntity
  8
Capa 1
 62
     7
420
 16777215
370
     9
100
AcDb2dPolyline
 66
     1
 10
0.0
 20
0.0
 30
0.0
  0
VERTEX
  5
35D
330
35C
100
AcDbEntity
  8
Capa 1
 62
     7
420
 16777215
370
     9
100
AcDbVertex
100
AcDb2dVertex
 10
113.3725802667958
 20
-177.0548258020905
 30
0.0
  0
VERTEX
  5
35E
330
35C
100
AcDbEntity
  8
Capa 1
 62
     7
420
 16777215
370
     9
100
AcDbVertex
100
AcDb2dVertex
 10
113.3725802667958
 20
-177.0548258020905
 30
0.0
  0
SEQEND
  5
35F
330
35C
100
AcDbEntity
  8
Capa 1
370
     9
  0
POLYLINE
  5
360
330
1F
100
AcDbEntity
  8
Capa 1
 62
     7
420
 16777215
370
     9
100
AcDb2dPolyline
 66
     1
 10
0.0
 20
0.0
 30
0.0
  0
VERTEX
  5
361
330
360
100
AcDbEntity
  8
Capa 1
 62
     7
420
 16777215
370
     9
100
AcDbVertex
100
AcDb2dVertex
 10
70.75847166199789
 20
-200.7570827406093
 30
0.0
  0
VERTEX
  5
362
330
360
100
AcDbEntity
  8
Capa 1
 62
     7
420
 16777215
370
     9
100
AcDbVertex
100
AcDb2dVertex
 10
73.7172919195047
 20
-200.7570827406093
 30
0.0
  0
SEQEND
  5
363
330
360
100
AcDbEntity
  8
Capa 1
370
     9
  0
POLYLINE
  5
364
330
1F
100
AcDbEntity
  8
Capa 1
 62
     7
420
 16777215
370
     9
100
AcDb2dPolyline
 66
     1
 10
0.0
 20
0.0
 30
0.0
  0
VERTEX
  5
365
330
364
100
AcDbEntity
  8
Capa 1
 62
     7
420
 16777215
370
     9
100
AcDbVertex
100
AcDb2dVertex
 10
70.75847166199789
 20
-201.8143825450325
 30
0.0
  0
VERTEX
  5
366
330
364
100
AcDbEntity
  8
Capa 1
 62
     7
420
 16777215
370
     9
100
AcDbVertex
100
AcDb2dVertex
 10
70.75847166199789
 20
-200.7570827406093
 30
0.0
  0
SEQEND
  5
367
330
364
100
AcDbEntity
  8
Capa 1
370
     9
  0
POLYLINE
  5
368
330
1F
100
AcDbEntity
  8
Capa 1
 62
     7
420
 16777215
370
     9
100
AcDb2dPolyline
 66
     1
 10
0.0
 20
0.0
 30
0.0
  0
VERTEX
  5
369
330
368
100
AcDbEntity
  8
Capa 1
 62
     7
420
 16777215
370
     9
100
AcDbVertex
100
AcDb2dVertex
 10
70.75847166199789
 20
-200.7570827406093
 30
0.0
  0
VERTEX
  5
36A
330
368
100
AcDbEntity
  8
Capa 1
 62
     7
420
 16777215
370
     9
100
AcDbVertex
100
AcDb2dVertex
 10
73.7172919195047
 20
-200.7570827406093
 30
0.0
  0
SEQEND
  5
36B
330
368
100
AcDbEntity
  8
Capa 1
370
     9
  0
POLYLINE
  5
36C
330
1F
100
AcDbEntity
  8
Capa 1
 62
     7
420
 16777215
370
     9
100
AcDb2dPolyline
 66
     1
 10
0.0
 20
0.0
 30
0.0
  0
VERTEX
  5
36D
330
36C
100
AcDbEntity
  8
Capa 1
 62
     7
420
 16777215
370
     9
100
AcDbVertex
100
AcDb2dVertex
 10
74.8980983970741
 20
-198.0461371032663
 30
0.0
  0
VERTEX
  5
36E
330
36C
100
AcDbEntity
  8
Capa 1
 62
     7
420
 16777215
370
     9
100
AcDbVertex
100
AcDb2dVertex
 10
74.8980983970741
 20
-196.4400335880428
 30
0.0
  0
SEQEND
  5
36F
330
36C
100
AcDbEntity
  8
Capa 1
370
     9
  0
POLYLINE
  5
370
330
1F
100
AcDbEntity
  8
Capa 1
 62
     7
420
 16777215
370
     9
100
AcDb2dPolyline
 66
     1
 10
0.0
 20
0.0
 30
0.0
  0
VERTEX
  5
371
330
370
100
AcDbEntity
  8
Capa 1
 62
     7
420
 16777215
370
     9
100
AcDbVertex
100
AcDb2dVertex
 10
74.8980983970741
 20
-203.3712211948169
 30
0.0
  0
VERTEX
  5
372
330
370
100
AcDbEntity
  8
Capa 1
 62
     7
420
 16777215
370
     9
100
AcDbVertex
100
AcDb2dVertex
 10
74.8980983970741
 20
-198.0461371032663
 30
0.0
  0
SEQEND
  5
373
330
370
100
AcDbEntity
  8
Capa 1
370
     9
  0
POLYLINE
  5
374
330
1F
100
AcDbEntity
  8
Capa 1
 62
     7
420
 16777215
370
     9
100
AcDb2dPolyline
 66
     1
 10
0.0
 20
0.0
 30
0.0
  0
VERTEX
  5
375
330
374
100
AcDbEntity
  8
Capa 1
 62
     7
420
 16777215
370
     9
100
AcDbVertex
100
AcDb2dVertex
 10
70.75847166199789
 20
-204.5253281823756
 30
0.0
  0
VERTEX
  5
376
330
374
100
AcDbEntity
  8
Capa 1
 62
     7
420
 16777215
370
     9
100
AcDbVertex
100
AcDb2dVertex
 10
73.7172919195047
 20
-204.5253281823756
 30
0.0
  0
SEQEND
  5
377
330
374
100
AcDbEntity
  8
Capa 1
370
     9
  0
POLYLINE
  5
378
330
1F
100
AcDbEntity
  8
Capa 1
 62
     7
420
 16777215
370
     9
100
AcDb2dPolyline
 66
     1
 10
0.0
 20
0.0
 30
0.0
  0
VERTEX
  5
379
330
378
100
AcDbEntity
  8
Capa 1
 62
     7
420
 16777215
370
     9
100
AcDbVertex
100
AcDb2dVertex
 10
73.7172919195047
 20
-201.8143825450325
 30
0.0
  0
VERTEX
  5
37A
330
378
100
AcDbEntity
  8
Capa 1
 62
     7
420
 16777215
370
     9
100
AcDbVertex
100
AcDb2dVertex
 10
70.75847166199789
 20
-201.8143825450325
 30
0.0
  0
SEQEND
  5
37B
330
378
100
AcDbEntity
  8
Capa 1
370
     9
  0
POLYLINE
  5
37C
330
1F
100
AcDbEntity
  8
Capa 1
 62
     7
420
 16777215
370
     9
100
AcDb2dPolyline
 66
     1
 10
0.0
 20
0.0
 30
0.0
  0
VERTEX
  5
37D
330
37C
100
AcDbEntity
  8
Capa 1
 62
     7
420
 16777215
370
     9
100
AcDbVertex
100
AcDb2dVertex
 10
70.75847166199789
 20
-204.5253281823756
 30
0.0
  0
VERTEX
  5
37E
330
37C
100
AcDbEntity
  8
Capa 1
 62
     7
420
 16777215
370
     9
100
AcDbVertex
100
AcDb2dVertex
 10
70.75847166199789
 20
-204.5521999271606
 30
0.0
  0
SEQEND
  5
37F
330
37C
100
AcDbEntity
  8
Capa 1
370
     9
  0
POLYLINE
  5
380
330
1F
100
AcDbEntity
  8
Capa 1
 62
     7
420
 16777215
370
     9
100
AcDb2dPolyline
 66
     1
 10
0.0
 20
0.0
 30
0.0
  0
VERTEX
  5
381
330
380
100
AcDbEntity
  8
Capa 1
 62
     7
420
 16777215
370
     9
100
AcDbVertex
100
AcDb2dVertex
 10
70.75847166199789
 20
-201.8143825450325
 30
0.0
  0
VERTEX
  5
382
330
380
100
AcDbEntity
  8
Capa 1
 62
     7
420
 16777215
370
     9
100
AcDbVertex
100
AcDb2dVertex
 10
70.75847166199789
 20
-200.7570827406093
 30
0.0
  0
SEQEND
  5
383
330
380
100
AcDbEntity
  8
Capa 1
370
     9
  0
POLYLINE
  5
384
330
1F
100
AcDbEntity
  8
Capa 1
 62
     7
420
 16777215
370
     9
100
AcDb2dPolyline
 66
     1
 10
0.0
 20
0.0
 30
0.0
  0
VERTEX
  5
385
330
384
100
AcDbEntity
  8
Capa 1
 62
     7
420
 16777215
370
     9
100
AcDbVertex
100
AcDb2dVertex
 10
73.7172919195047
 20
-200.7570827406093
 30
0.0
  0
VERTEX
  5
386
330
384
100
AcDbEntity
  8
Capa 1
 62
     7
420
 16777215
370
     9
100
AcDbVertex
100
AcDb2dVertex
 10
73.7172919195047
 20
-201.8143825450325
 30
0.0
  0
SEQEND
  5
387
330
384
100
AcDbEntity
  8
Capa 1
370
     9
  0
POLYLINE
  5
388
330
1F
100
AcDbEntity
  8
Capa 1
 62
     7
420
 16777215
370
     9
100
AcDb2dPolyline
 66
     1
 10
0.0
 20
0.0
 30
0.0
  0
VERTEX
  5
389
330
388
100
AcDbEntity
  8
Capa 1
 62
     7
420
 16777215
370
     9
100
AcDbVertex
100
AcDb2dVertex
 10
73.7172919195047
 20
-204.5253281823756
 30
0.0
  0
VERTEX
  5
38A
330
388
100
AcDbEntity
  8
Capa 1
 62
     7
420
 16777215
370
     9
100
AcDbVertex
100
AcDb2dVertex
 10
73.7172919195047
 20
-204.5521999271606
 30
0.0
  0
SEQEND
  5
38B
330
388
100
AcDbEntity
  8
Capa 1
370
     9
  0
POLYLINE
  5
38C
330
1F
100
AcDbEntity
  8
Capa 1
 62
     7
420
 16777215
370
     9
100
AcDb2dPolyline
 66
     1
 10
0.0
 20
0.0
 30
0.0
  0
VERTEX
  5
38D
330
38C
100
AcDbEntity
  8
Capa 1
 62
     7
420
 16777215
370
     9
100
AcDbVertex
100
AcDb2dVertex
 10
74.8980983970741
 20
-198.0461371032663
 30
0.0
  0
VERTEX
  5
38E
330
38C
100
AcDbEntity
  8
Capa 1
 62
     7
420
 16777215
370
     9
100
AcDbVertex
100
AcDb2dVertex
 10
74.8980983970741
 20
-196.4400335880428
 30
0.0
  0
SEQEND
  5
38F
330
38C
100
AcDbEntity
  8
Capa 1
370
     9
  0
POLYLINE
  5
390
330
1F
100
AcDbEntity
  8
Capa 1
 62
     7
420
 16777215
370
     9
100
AcDb2dPolyline
 66
     1
 10
0.0
 20
0.0
 30
0.0
  0
VERTEX
  5
391
330
390
100
AcDbEntity
  8
Capa 1
 62
     7
420
 16777215
370
     9
100
AcDbVertex
100
AcDb2dVertex
 10
74.8980983970741
 20
-203.3712211948169
 30
0.0
  0
VERTEX
  5
392
330
390
100
AcDbEntity
  8
Capa 1
 62
     7
420
 16777215
370
     9
100
AcDbVertex
100
AcDb2dVertex
 10
74.8980983970741
 20
-198.0461371032663
 30
0.0
  0
SEQEND
  5
393
330
390
100
AcDbEntity
  8
Capa 1
370
     9
  0
POLYLINE
  5
394
330
1F
100
AcDbEntity
  8
Capa 1
 62
     7
420
 16777215
370
     9
100
AcDb2dPolyline
 66
     1
 10
0.0
 20
0.0
 30
0.0
  0
VERTEX
  5
395
330
394
100
AcDbEntity
  8
Capa 1
 62
     7
420
 16777215
370
     9
100
AcDbVertex
100
AcDb2dVertex
 10
70.75847166199789
 20
-200.7570827406093
 30
0.0
  0
VERTEX
  5
396
330
394
100
AcDbEntity
  8
Capa 1
 62
     7
420
 16777215
370
     9
100
AcDbVertex
100
AcDb2dVertex
 10
73.7172919195047
 20
-200.7570827406093
 30
0.0
  0
SEQEND
  5
397
330
394
100
AcDbEntity
  8
Capa 1
370
     9
  0
POLYLINE
  5
398
330
1F
100
AcDbEntity
  8
Capa 1
 62
     7
420
 16777215
370
     9
100
AcDb2dPolyline
 66
     1
 10
0.0
 20
0.0
 30
0.0
  0
VERTEX
  5
399
330
398
100
AcDbEntity
  8
Capa 1
 62
     7
420
 16777215
370
     9
100
AcDbVertex
100
AcDb2dVertex
 10
70.75847166199789
 20
-204.5253281823756
 30
0.0
  0
VERTEX
  5
39A
330
398
100
AcDbEntity
  8
Capa 1
 62
     7
420
 16777215
370
     9
100
AcDbVertex
100
AcDb2dVertex
 10
70.75847166199789
 20
-204.5521999271606
 30
0.0
  0
SEQEND
  5
39B
330
398
100
AcDbEntity
  8
Capa 1
370
     9
  0
POLYLINE
  5
39C
330
1F
100
AcDbEntity
  8
Capa 1
 62
     7
420
 16777215
370
     9
100
AcDb2dPolyline
 66
     1
 10
0.0
 20
0.0
 30
0.0
  0
VERTEX
  5
39D
330
39C
100
AcDbEntity
  8
Capa 1
 62
     7
420
 16777215
370
     9
100
AcDbVertex
100
AcDb2dVertex
 10
74.8980983970741
 20
-198.0461371032663
 30
0.0
  0
VERTEX
  5
39E
330
39C
100
AcDbEntity
  8
Capa 1
 62
     7
420
 16777215
370
     9
100
AcDbVertex
100
AcDb2dVertex
 10
74.8980983970741
 20
-196.4400335880428
 30
0.0
  0
SEQEND
  5
39F
330
39C
100
AcDbEntity
  8
Capa 1
370
     9
  0
POLYLINE
  5
3A0
330
1F
100
AcDbEntity
  8
Capa 1
 62
     7
420
 16777215
370
     9
100
AcDb2dPolyline
 66
     1
 10
0.0
 20
0.0
 30
0.0
  0
VERTEX
  5
3A1
330
3A0
100
AcDbEntity
  8
Capa 1
 62
     7
420
 16777215
370
     9
100
AcDbVertex
100
AcDb2dVertex
 10
74.8980983970741
 20
-203.3712211948169
 30
0.0
  0
VERTEX
  5
3A2
330
3A0
100
AcDbEntity
  8
Capa 1
 62
     7
420
 16777215
370
     9
100
AcDbVertex
100
AcDb2dVertex
 10
74.8980983970741
 20
-198.0461371032663
 30
0.0
  0
SEQEND
  5
3A3
330
3A0
100
AcDbEntity
  8
Capa 1
370
     9
  0
POLYLINE
  5
3A4
330
1F
100
AcDbEntity
  8
Capa 1
 62
     7
420
 16777215
370
     9
100
AcDb2dPolyline
 66
     1
 10
0.0
 20
0.0
 30
0.0
  0
VERTEX
  5
3A5
330
3A4
100
AcDbEntity
  8
Capa 1
 62
     7
420
 16777215
370
     9
100
AcDbVertex
100
AcDb2dVertex
 10
73.7172919195047
 20
-201.8143825450325
 30
0.0
  0
VERTEX
  5
3A6
330
3A4
100
AcDbEntity
  8
Capa 1
 62
     7
420
 16777215
370
     9
100
AcDbVertex
100
AcDb2dVertex
 10
70.75847166199789
 20
-201.8143825450325
 30
0.0
  0
SEQEND
  5
3A7
330
3A4
100
AcDbEntity
  8
Capa 1
370
     9
  0
POLYLINE
  5
3A8
330
1F
100
AcDbEntity
  8
Capa 1
 62
     7
420
 16777215
370
     9
100
AcDb2dPolyline
 66
     1
 10
0.0
 20
0.0
 30
0.0
  0
VERTEX
  5
3A9
330
3A8
100
AcDbEntity
  8
Capa 1
 62
     7
420
 16777215
370
     9
100
AcDbVertex
100
AcDb2dVertex
 10
70.75847166199789
 20
-204.5253281823756
 30
0.0
  0
VERTEX
  5
3AA
330
3A8
100
AcDbEntity
  8
Capa 1
 62
     7
420
 16777215
370
     9
100
AcDbVertex
100
AcDb2dVertex
 10
73.7172919195047
 20
-204.5253281823756
 30
0.0
  0
SEQEND
  5
3AB
330
3A8
100
AcDbEntity
  8
Capa 1
370
     9
  0
POLYLINE
  5
3AC
330
1F
100
AcDbEntity
  8
Capa 1
 62
     7
420
 16777215
370
     9
100
AcDb2dPolyline
 66
     1
 10
0.0
 20
0.0
 30
0.0
  0
VERTEX
  5
3AD
330
3AC
100
AcDbEntity
  8
Capa 1
 62
     7
420
 16777215
370
     9
100
AcDbVertex
100
AcDb2dVertex
 10
74.99766165659781
 20
-188.169737366152
 30
0.0
  0
VERTEX
  5
3AE
330
3AC
100
AcDbEntity
  8
Capa 1
 62
     7
420
 16777215
370
     9
100
AcDbVertex
100
AcDb2dVertex
 10
74.99766165659781
 20
-148.5893798456651
 30
0.0
  0
SEQEND
  5
3AF
330
3AC
100
AcDbEntity
  8
Capa 1
370
     9
  0
POLYLINE
  5
3B0
330
1F
100
AcDbEntity
  8
Capa 1
 62
     7
420
 16777215
370
     9
100
AcDb2dPolyline
 66
     1
 10
0.0
 20
0.0
 30
0.0
  0
VERTEX
  5
3B1
330
3B0
100
AcDbEntity
  8
Capa 1
 62
     7
420
 16777215
370
     9
100
AcDbVertex
100
AcDb2dVertex
 10
73.7172919195047
 20
-204.5253281823756
 30
0.0
  0
VERTEX
  5
3B2
330
3B0
100
AcDbEntity
  8
Capa 1
 62
     7
420
 16777215
370
     9
100
AcDbVertex
100
AcDb2dVertex
 10
73.7172919195047
 20
-204.5521999271606
 30
0.0
  0
SEQEND
  5
3B3
330
3B0
100
AcDbEntity
  8
Capa 1
370
     9
  0
POLYLINE
  5
3B4
330
1F
100
AcDbEntity
  8
Capa 1
 62
     7
420
 16777215
370
     9
100
AcDb2dPolyline
 66
     1
 10
0.0
 20
0.0
 30
0.0
  0
VERTEX
  5
3B5
330
3B4
100
AcDbEntity
  8
Capa 1
 62
     7
420
 16777215
370
     9
100
AcDbVertex
100
AcDb2dVertex
 10
73.7172919195047
 20
-200.7570827406093
 30
0.0
  0
VERTEX
  5
3B6
330
3B4
100
AcDbEntity
  8
Capa 1
 62
     7
420
 16777215
370
     9
100
AcDbVertex
100
AcDb2dVertex
 10
73.7172919195047
 20
-201.8143825450325
 30
0.0
  0
SEQEND
  5
3B7
330
3B4
100
AcDbEntity
  8
Capa 1
370
     9
  0
POLYLINE
  5
3B8
330
1F
100
AcDbEntity
  8
Capa 1
 62
     7
420
 16777215
370
     9
100
AcDb2dPolyline
 66
     1
 10
0.0
 20
0.0
 30
0.0
  0
VERTEX
  5
3B9
330
3B8
100
AcDbEntity
  8
Capa 1
 62
     7
420
 16777215
370
     9
100
AcDbVertex
100
AcDb2dVertex
 10
95.32958168189677
 20
-158.9256998300602
 30
0.0
  0
VERTEX
  5
3BA
330
3B8
100
AcDbEntity
  8
Capa 1
 62
     7
420
 16777215
370
     9
100
AcDbVertex
100
AcDb2dVertex
 10
95.32734236983136
 20
-163.618264390519
 30
0.0
  0
SEQEND
  5
3BB
330
3B8
100
AcDbEntity
  8
Capa 1
370
     9
  0
POLYLINE
  5
3BC
330
1F
100
AcDbEntity
  8
Capa 1
 62
     7
420
 16777215
370
     9
100
AcDb2dPolyline
 66
     1
 10
0.0
 20
0.0
 30
0.0
  0
VERTEX
  5
3BD
330
3BC
100
AcDbEntity
  8
Capa 1
 62
     7
420
 16777215
370
     9
100
AcDbVertex
100
AcDb2dVertex
 10
95.32286374570054
 20
-173.1405083117496
 30
0.0
  0
VERTEX
  5
3BE
330
3BC
100
AcDbEntity
  8
Capa 1
 62
     7
420
 16777215
370
     9
100
AcDbVertex
100
AcDb2dVertex
 10
95.32286374570054
 20
-177.8423746300186
 30
0.0
  0
SEQEND
  5
3BF
330
3BC
100
AcDbEntity
  8
Capa 1
370
     9
  0
POLYLINE
  5
3C0
330
1F
100
AcDbEntity
  8
Capa 1
 62
     7
420
 16777215
370
     9
100
AcDb2dPolyline
 66
     1
 10
0.0
 20
0.0
 30
0.0
  0
VERTEX
  5
3C1
330
3C0
100
AcDbEntity
  8
Capa 1
 62
     7
420
 16777215
370
     9
100
AcDbVertex
100
AcDb2dVertex
 10
62.48111299436236
 20
-211.4513481459219
 30
0.0
  0
VERTEX
  5
3C2
330
3C0
100
AcDbEntity
  8
Capa 1
 62
     7
420
 16777215
370
     9
100
AcDbVertex
100
AcDb2dVertex
 10
62.48111299436236
 20
-184.639892531965
 30
0.0
  0
SEQEND
  5
3C3
330
3C0
100
AcDbEntity
  8
Capa 1
370
     9
  0
POLYLINE
  5
3C4
330
1F
100
AcDbEntity
  8
Capa 1
 62
     7
420
 16777215
370
     9
100
AcDb2dPolyline
 66
     1
 10
0.0
 20
0.0
 30
0.0
  0
VERTEX
  5
3C5
330
3C4
100
AcDbEntity
  8
Capa 1
 62
     7
420
 16777215
370
     9
100
AcDbVertex
100
AcDb2dVertex
 10
69.57732067487999
 20
-204.1360323925424
 30
0.0
  0
VERTEX
  5
3C6
330
3C4
100
AcDbEntity
  8
Capa 1
 62
     7
420
 16777215
370
     9
100
AcDbVertex
100
AcDb2dVertex
 10
69.57732067487999
 20
-191.9558973044416
 30
0.0
  0
SEQEND
  5
3C7
330
3C4
100
AcDbEntity
  8
Capa 1
370
     9
  0
POLYLINE
  5
3C8
330
1F
100
AcDbEntity
  8
Capa 1
 62
     7
420
 16777215
370
     9
100
AcDb2dPolyline
 66
     1
 10
0.0
 20
0.0
 30
0.0
  0
VERTEX
  5
3C9
330
3C8
100
AcDbEntity
  8
Capa 1
 62
     7
420
 16777215
370
     9
100
AcDbVertex
100
AcDb2dVertex
 10
70.75847166199789
 20
-204.5253281823756
 30
0.0
  0
VERTEX
  5
3CA
330
3C8
100
AcDbEntity
  8
Capa 1
 62
     7
420
 16777215
370
     9
100
AcDbVertex
100
AcDb2dVertex
 10
73.7172919195047
 20
-204.5253281823756
 30
0.0
  0
SEQEND
  5
3CB
330
3C8
100
AcDbEntity
  8
Capa 1
370
     9
  0
POLYLINE
  5
3CC
330
1F
100
AcDbEntity
  8
Capa 1
 62
     7
420
 16777215
370
     9
100
AcDb2dPolyline
 66
     1
 10
0.0
 20
0.0
 30
0.0
  0
VERTEX
  5
3CD
330
3CC
100
AcDbEntity
  8
Capa 1
 62
     7
420
 16777215
370
     9
100
AcDbVertex
100
AcDb2dVertex
 10
73.7172919195047
 20
-201.8143825450325
 30
0.0
  0
VERTEX
  5
3CE
330
3CC
100
AcDbEntity
  8
Capa 1
 62
     7
420
 16777215
370
     9
100
AcDbVertex
100
AcDb2dVertex
 10
70.75847166199789
 20
-201.8143825450325
 30
0.0
  0
SEQEND
  5
3CF
330
3CC
100
AcDbEntity
  8
Capa 1
370
     9
  0
POLYLINE
  5
3D0
330
1F
100
AcDbEntity
  8
Capa 1
 62
     7
420
 16777215
370
     9
100
AcDb2dPolyline
 66
     1
 10
0.0
 20
0.0
 30
0.0
  0
VERTEX
  5
3D1
330
3D0
100
AcDbEntity
  8
Capa 1
 62
     7
420
 16777215
370
     9
100
AcDbVertex
100
AcDb2dVertex
 10
70.75847166199789
 20
-204.5253281823756
 30
0.0
  0
VERTEX
  5
3D2
330
3D0
100
AcDbEntity
  8
Capa 1
 62
     7
420
 16777215
370
     9
100
AcDbVertex
100
AcDb2dVertex
 10
70.75847166199789
 20
-204.5521999271606
 30
0.0
  0
SEQEND
  5
3D3
330
3D0
100
AcDbEntity
  8
Capa 1
370
     9
  0
POLYLINE
  5
3D4
330
1F
100
AcDbEntity
  8
Capa 1
 62
     7
420
 16777215
370
     9
100
AcDb2dPolyline
 66
     1
 10
0.0
 20
0.0
 30
0.0
  0
VERTEX
  5
3D5
330
3D4
100
AcDbEntity
  8
Capa 1
 62
     7
420
 16777215
370
     9
100
AcDbVertex
100
AcDb2dVertex
 10
70.75847166199789
 20
-201.8143825450325
 30
0.0
  0
VERTEX
  5
3D6
330
3D4
100
AcDbEntity
  8
Capa 1
 62
     7
420
 16777215
370
     9
100
AcDbVertex
100
AcDb2dVertex
 10
70.75847166199789
 20
-200.7570827406093
 30
0.0
  0
SEQEND
  5
3D7
330
3D4
100
AcDbEntity
  8
Capa 1
370
     9
  0
POLYLINE
  5
3D8
330
1F
100
AcDbEntity
  8
Capa 1
 62
     7
420
 16777215
370
     9
100
AcDb2dPolyline
 66
     1
 10
0.0
 20
0.0
 30
0.0
  0
VERTEX
  5
3D9
330
3D8
100
AcDbEntity
  8
Capa 1
 62
     7
420
 16777215
370
     9
100
AcDbVertex
100
AcDb2dVertex
 10
73.7172919195047
 20
-200.7570827406093
 30
0.0
  0
VERTEX
  5
3DA
330
3D8
100
AcDbEntity
  8
Capa 1
 62
     7
420
 16777215
370
     9
100
AcDbVertex
100
AcDb2dVertex
 10
73.7172919195047
 20
-201.8143825450325
 30
0.0
  0
SEQEND
  5
3DB
330
3D8
100
AcDbEntity
  8
Capa 1
370
     9
  0
POLYLINE
  5
3DC
330
1F
100
AcDbEntity
  8
Capa 1
 62
     7
420
 16777215
370
     9
100
AcDb2dPolyline
 66
     1
 10
0.0
 20
0.0
 30
0.0
  0
VERTEX
  5
3DD
330
3DC
100
AcDbEntity
  8
Capa 1
 62
     7
420
 16777215
370
     9
100
AcDbVertex
100
AcDb2dVertex
 10
73.7172919195047
 20
-204.5253281823756
 30
0.0
  0
VERTEX
  5
3DE
330
3DC
100
AcDbEntity
  8
Capa 1
 62
     7
420
 16777215
370
     9
100
AcDbVertex
100
AcDb2dVertex
 10
73.7172919195047
 20
-204.5521999271606
 30
0.0
  0
SEQEND
  5
3DF
330
3DC
100
AcDbEntity
  8
Capa 1
370
     9
  0
SPLINE
  5
3E0
330
1F
100
AcDbEntity
  8
Capa 1
 62
     7
420
 16777215
370
     9
100
AcDbSpline
210
0.0
220
0.0
230
1.0
 70
     8
 71
     3
 72
     8
 73
     4
 74
     0
 42
0.0000000001
 43
0.0000000001
 40
0.0
 40
0.0
 40
0.0
 40
0.0
 40
1.0
 40
1.0
 40
1.0
 40
1.0
 10
95.44034150174755
 20
-76.90366073381229
 30
0.0
 10
95.37609047094764
 20
-76.90366073381229
 30
0.0
 10
95.32286374570054
 20
-76.95688745905939
 30
0.0
 10
95.32286374570054
 20
-77.02320554715045
 30
0.0
  0
SPLINE
  5
3E1
330
1F
100
AcDbEntity
  8
Capa 1
 62
     7
420
 16777215
370
     9
100
AcDbSpline
210
0.0
220
0.0
230
1.0
 70
     8
 71
     3
 72
     8
 73
     4
 74
     0
 42
0.0000000001
 43
0.0000000001
 40
0.0
 40
0.0
 40
0.0
 40
0.0
 40
1.0
 40
1.0
 40
1.0
 40
1.0
 10
95.32286374570054
 20
-95.70974796869409
 30
0.0
 10
95.32286374570054
 20
-95.77606605678515
 30
0.0
 10
95.37609047094764
 20
-95.829120527258
 30
0.0
 10
95.44034150174755
 20
-95.829120527258
 30
0.0
  0
SPLINE
  5
3E2
330
1F
100
AcDbEntity
  8
Capa 1
 62
     7
420
 16777215
370
     9
100
AcDbSpline
210
0.0
220
0.0
230
1.0
 70
     8
 71
     3
 72
     8
 73
     4
 74
     0
 42
0.0000000001
 43
0.0000000001
 40
0.0
 40
0.0
 40
0.0
 40
0.0
 40
1.0
 40
1.0
 40
1.0
 40
1.0
 10
95.44034150174755
 20
-95.829120527258
 30
0.0
 10
97.556319148788
 20
-95.82481415790144
 30
0.0
 10
99.63508976458776
 20
-95.25844046012637
 30
0.0
 10
101.4663302697723
 20
-94.19270017176433
 30
0.0
  0
SPLINE
  5
3E3
330
1F
100
AcDbEntity
  8
Capa 1
 62
     7
420
 16777215
370
     9
100
AcDbSpline
210
0.0
220
0.0
230
1.0
 70
     8
 71
     3
 72
     8
 73
     4
 74
     0
 42
0.0000000001
 43
0.0000000001
 40
0.0
 40
0.0
 40
0.0
 40
0.0
 40
1.0
 40
1.0
 40
1.0
 40
1.0
 10
99.33019881414315
 20
-77.56287975491485
 30
0.0
 10
98.08049042686878
 20
-77.12914223332189
 30
0.0
 10
96.76480846105186
 20
-76.90366073381229
 30
0.0
 10
95.44034150174755
 20
-76.90366073381229
 30
0.0
  0
SPLINE
  5
3E4
330
1F
100
AcDbEntity
  8
Capa 1
 62
     7
420
 16777215
370
     9
100
AcDbSpline
210
0.0
220
0.0
230
1.0
 70
     8
 71
     3
 72
     8
 73
     4
 74
     0
 42
0.0000000001
 43
0.0000000001
 40
0.0
 40
0.0
 40
0.0
 40
0.0
 40
1.0
 40
1.0
 40
1.0
 40
1.0
 10
68.0075629170259
 20
-99.2923027638054
 30
0.0
 10
68.9957885569698
 20
-98.54919566763701
 30
0.0
 10
69.57732067487999
 20
-97.38165280768584
 30
0.0
 10
69.57732067487999
 20
-96.14314098073852
 30
0.0
  0
SPLINE
  5
3E5
330
1F
100
AcDbEntity
  8
Capa 1
 62
     7
420
 16777215
370
     9
100
AcDbSpline
210
0.0
220
0.0
230
1.0
 70
     8
 71
     3
 72
     8
 73
     4
 74
     0
 42
0.0000000001
 43
0.0000000001
 40
0.0
 40
0.0
 40
0.0
 40
0.0
 40
1.0
 40
1.0
 40
1.0
 40
1.0
 10
69.57732067487999
 20
-83.96248912831494
 30
0.0
 10
69.57732067487999
 20
-82.72432181091615
 30
0.0
 10
68.9957885569698
 20
-81.55660669619071
 30
0.0
 10
68.0075629170259
 20
-80.81349960002233
 30
0.0
  0
SPLINE
  5
3E6
330
1F
100
AcDbEntity
  8
Capa 1
 62
     7
420
 16777215
370
     9
100
AcDbSpline
210
0.0
220
0.0
230
1.0
 70
     8
 71
     3
 72
     8
 73
     4
 74
     0
 42
0.0000000001
 43
0.0000000001
 40
0.0
 40
0.0
 40
0.0
 40
0.0
 40
1.0
 40
1.0
 40
1.0
 40
1.0
 10
68.0075629170259
 20
-147.9525539452167
 30
0.0
 10
68.9957885569698
 20
-147.2049682249175
 30
0.0
 10
69.57732067487999
 20
-146.0419039890972
 30
0.0
 10
69.57732067487999
 20
-144.8033921621499
 30
0.0
  0
SPLINE
  5
3E7
330
1F
100
AcDbEntity
  8
Capa 1
 62
     7
420
 16777215
370
     9
100
AcDbSpline
210
0.0
220
0.0
230
1.0
 70
     8
 71
     3
 72
     8
 73
     4
 74
     0
 42
0.0000000001
 43
0.0000000001
 40
0.0
 40
0.0
 40
0.0
 40
0.0
 40
1.0
 40
1.0
 40
1.0
 40
1.0
 10
99.6927951139657
 20
-159.708425524309
 30
0.0
 10
98.3347384736802
 20
-159.1864935582936
 30
0.0
 10
96.89313826787742
 20
-158.9167425817986
 30
0.0
 10
95.44034150174755
 20
-158.9167425817986
 30
0.0
  0
SPLINE
  5
3E8
330
1F
100
AcDbEntity
  8
Capa 1
 62
     7
420
 16777215
370
     9
100
AcDbSpline
210
0.0
220
0.0
230
1.0
 70
     8
 71
     3
 72
     8
 73
     4
 74
     0
 42
0.0000000001
 43
0.0000000001
 40
0.0
 40
0.0
 40
0.0
 40
0.0
 40
1.0
 40
1.0
 40
1.0
 40
1.0
 10
95.44034150174755
 20
-177.8423746300186
 30
0.0
 10
96.88865964374659
 20
-177.8423746300186
 30
0.0
 10
98.32612573496708
 20
-177.5767577681058
 30
0.0
 10
99.67953149634748
 20
-177.0548258020905
 30
0.0
  0
SPLINE
  5
3E9
330
1F
100
AcDbEntity
  8
Capa 1
 62
     7
420
 16777215
370
     9
100
AcDbSpline
210
0.0
220
0.0
230
1.0
 70
     8
 71
     3
 72
     8
 73
     4
 74
     0
 42
0.0000000001
 43
0.0000000001
 40
0.0
 40
0.0
 40
0.0
 40
0.0
 40
1.0
 40
1.0
 40
1.0
 40
1.0
 10
69.57732067487999
 20
-132.6230848192748
 30
0.0
 10
69.57732067487999
 20
-131.3845729923275
 30
0.0
 10
68.9957885569698
 20
-130.2168578776021
 30
0.0
 10
68.0075629170259
 20
-129.4739230362079
 30
0.0
  0
SPLINE
  5
3EA
330
1F
100
AcDbEntity
  8
Capa 1
 62
     7
420
 16777215
370
     9
100
AcDbSpline
210
0.0
220
0.0
230
1.0
 70
     8
 71
     3
 72
     8
 73
     4
 74
     0
 42
0.0000000001
 43
0.0000000001
 40
0.0
 40
0.0
 40
0.0
 40
0.0
 40
1.0
 40
1.0
 40
1.0
 40
1.0
 10
95.32286374570054
 20
-177.7228298166804
 30
0.0
 10
95.32062443363513
 20
-177.7893201595457
 30
0.0
 10
95.37178410159109
 20
-177.8423746300186
 30
0.0
 10
95.43810218968214
 20
-177.8423746300186
 30
0.0
  0
SPLINE
  5
3EB
330
1F
100
AcDbEntity
  8
Capa 1
 62
     7
420
 16777215
370
     9
100
AcDbSpline
210
0.0
220
0.0
230
1.0
 70
     8
 71
     3
 72
     8
 73
     4
 74
     0
 42
0.0000000001
 43
0.0000000001
 40
0.0
 40
0.0
 40
0.0
 40
0.0
 40
1.0
 40
1.0
 40
1.0
 40
1.0
 10
95.44034150174755
 20
-158.9167425817986
 30
0.0
 10
95.3891818337916
 20
-158.9167425817986
 30
0.0
 10
95.34491235680613
 20
-158.9477484411659
 30
0.0
 10
95.32734236983136
 20
-158.991845663377
 30
0.0
  0
SPLINE
  5
3EC
330
1F
100
AcDbEntity
  8
Capa 1
 62
     7
420
 16777215
370
     9
100
AcDbSpline
210
0.0
220
0.0
230
1.0
 70
     8
 71
     3
 72
     8
 73
     4
 74
     0
 42
0.0000000001
 43
0.0000000001
 40
0.0
 40
0.0
 40
0.0
 40
0.0
 40
1.0
 40
1.0
 40
1.0
 40
1.0
 10
69.57732067487999
 20
-191.9558973044416
 30
0.0
 10
69.57732067487999
 20
-190.7173854774943
 30
0.0
 10
68.9957885569698
 20
-189.5543212416739
 30
0.0
 10
68.0075629170259
 20
-188.8063910118262
 30
0.0
  0
SPLINE
  5
3ED
330
1F
100
AcDbEntity
  8
Capa 1
 62
     7
420
 16777215
370
     9
100
AcDbSpline
210
0.0
220
0.0
230
1.0
 70
     8
 71
     3
 72
     8
 73
     4
 74
     0
 42
0.0000000001
 43
0.0000000001
 40
0.0
 40
0.0
 40
0.0
 40
0.0
 40
1.0
 40
1.0
 40
1.0
 40
1.0
 10
68.0075629170259
 20
-207.2848496660608
 30
0.0
 10
68.9957885569698
 20
-206.5420870794409
 30
0.0
 10
69.57732067487999
 20
-205.3745442194897
 30
0.0
 10
69.57732067487999
 20
-204.1360323925424
 30
0.0
  0
SPLINE
  5
3EE
330
1F
100
AcDbEntity
  8
Capa 1
 62
     7
420
 16777215
370
     9
100
AcDbSpline
210
0.0
220
0.0
230
1.0
 70
     8
 71
     3
 72
     8
 73
     4
 74
     0
 42
0.0000000001
 43
0.0000000001
 40
0.0
 40
0.0
 40
0.0
 40
0.0
 40
1.0
 40
1.0
 40
1.0
 40
1.0
 10
99.33019881414315
 20
-86.02351750236565
 30
0.0
 10
100.0376491720392
 20
-89.12393118431625
 30
0.0
 10
100.8537922924949
 20
-92.19798988580467
 30
0.0
 10
101.7801784684786
 20
-95.23656410379503
 30
0.0
  0
SPLINE
  5
3EF
330
1F
100
AcDbEntity
  8
Capa 1
 62
     7
420
 16777215
370
     9
100
AcDbSpline
210
0.0
220
0.0
230
1.0
 70
     8
 71
     3
 72
     8
 73
     4
 74
     0
 42
0.0000000001
 43
0.0000000001
 40
0.0
 40
0.0
 40
0.0
 40
0.0
 40
1.0
 40
1.0
 40
1.0
 40
1.0
 10
99.34983585840908
 20
-159.708425524309
 30
0.0
 10
100.41350908948
 20
-159.708425524309
 30
0.0
 10
101.4000121816812
 20
-161.1767252201225
 30
0.0
 10
101.979304987526
 20
-163.618264390519
 30
0.0
  0
SPLINE
  5
3F0
330
1F
100
AcDbEntity
  8
Capa 1
 62
     7
420
 16777215
370
     9
100
AcDbSpline
210
0.0
220
0.0
230
1.0
 70
     8
 71
     3
 72
     8
 73
     4
 74
     0
 42
0.0000000001
 43
0.0000000001
 40
0.0
 40
0.0
 40
0.0
 40
0.0
 40
1.0
 40
1.0
 40
1.0
 40
1.0
 10
101.9617350005512
 20
-173.1405083117496
 30
0.0
 10
101.3757242585102
 20
-175.5689561193022
 30
0.0
 10
100.3869818542435
 20
-177.0369113055672
 30
0.0
 10
99.33019881414315
 20
-177.0548258020905
 30
0.0
  0
SPLINE
  5
3F1
330
1F
100
AcDbEntity
  8
Capa 1
 62
     7
420
 16777215
370
     9
100
AcDbSpline
210
0.0
220
0.0
230
1.0
 70
     8
 71
     3
 72
    41
 73
    37
 74
     0
 42
0.0000000001
 43
0.0000000001
 40
0.0
 40
0.0
 40
0.0
 40
0.0
 40
1.0
 40
1.0
 40
1.0
 40
2.0
 40
2.0
 40
2.0
 40
3.0
 40
3.0
 40
3.0
 40
4.0
 40
4.0
 40
4.0
 40
5.0
 40
5.0
 40
5.0
 40
6.0
 40
6.0
 40
6.0
 40
7.0
 40
7.0
 40
7.0
 40
8.0
 40
8.0
 40
8.0
 40
9.0
 40
9.0
 40
9.0
 40
10.0
 40
10.0
 40
10.0
 40
11.0
 40
11.0
 40
11.0
 40
12.0
 40
12.0
 40
12.0
 40
12.0
 10
85.83162568383723
 20
-76.60755477685505
 30
0.0
 10
85.77839895859013
 20
-76.60755477685505
 30
0.0
 10
85.7298231122481
 20
-76.60755477685505
 30
0.0
 10
85.67883569906641
 20
-76.59859752859342
 30
0.0
 10
85.61923554717158
 20
-76.59411890446259
 30
0.0
 10
85.5594631405025
 20
-76.58085528684437
 30
0.0
 10
85.49986298860767
 20
-76.56759166922616
 30
0.0
 10
85.44026283671286
 20
-76.54984942747713
 30
0.0
 10
85.38014592049525
 20
-76.5321071857281
 30
0.0
 10
85.32278508066584
 20
-76.51023082939675
 30
0.0
 10
85.2609456167056
 20
-76.48353133938606
 30
0.0
 10
85.20341252210193
 20
-76.45700410414965
 30
0.0
 10
85.14605168227251
 20
-76.42169187542584
 30
0.0
 10
85.09058564496
 20
-76.39068601605858
 30
0.0
 10
85.03529186242173
 20
-76.35089516320394
 30
0.0
 10
84.98464895878857
 20
-76.31110431034931
 30
0.0
 10
84.9334892908326
 20
-76.27114120272041
 30
0.0
 10
84.88284638719944
 20
-76.22704398050921
 30
0.0
 10
84.83633759814856
 20
-76.17846813416719
 30
0.0
 10
84.79224037593735
 20
-76.1297200330509
 30
0.0
 10
84.7479708989519
 20
-76.07666556257806
 30
0.0
 10
84.71248641545382
 20
-76.02361109210521
 30
0.0
 10
84.6680446836941
 20
-75.96159937337072
 30
0.0
 10
84.6327324549703
 20
-75.89975990941048
 30
0.0
 10
84.60172659560304
 20
-75.83792044545025
 30
0.0
 10
84.57089299101006
 20
-75.77590872671576
 30
0.0
 10
84.54436575577364
 20
-75.70959063862469
 30
0.0
 10
84.52455645673345
 20
-75.64327255053362
 30
0.0
 10
84.50440264814473
 20
-75.58126083179913
 30
0.0
 10
84.48924422800964
 20
-75.5194213678389
 30
0.0
 10
84.47804766768257
 20
-75.45310327974784
 30
0.0
 10
84.46719561690404
 20
-75.39109156101334
 30
0.0
 10
84.4604776807078
 20
-75.32907984227884
 30
0.0
 10
84.4604776807078
 20
-75.26276175418778
 30
0.0
 10
84.4604776807078
 20
-75.2539767607004
 30
0.0
 10
84.4604776807078
 20
-75.24071314308219
 30
0.0
 10
84.4604776807078
 20
-74.63919947135757
 30
0.0
  0
SPLINE
  5
3F2
330
1F
100
AcDbEntity
  8
Capa 1
 62
     7
420
 16777215
370
     9
100
AcDbSpline
210
0.0
220
0.0
230
1.0
 70
    24
 71
     3
 72
     8
 73
     4
 74
     0
 42
0.0000000001
 43
0.0000000001
 40
0.0
 40
0.0
 40
0.0
 40
0.0
 40
1.0
 40
1.0
 40
1.0
 40
1.0
 10
70.75847166199789
 20
-84.13956703625678
 30
0.0
 10
70.40689966772814
 20
-84.13956703625678
 30
0.0
 10
70.17022160789148
 20
-84.13956703625678
 30
0.0
 10
70.16798229582606
 20
-84.13956703625678
 30
0.0
  0
SPLINE
  5
3F3
330
1F
100
AcDbEntity
  8
Capa 1
 62
     7
420
 16777215
370
     9
100
AcDbSpline
210
0.0
220
0.0
230
1.0
 70
     8
 71
     3
 72
    11
 73
     7
 74
     0
 42
0.0000000001
 43
0.0000000001
 40
0.0
 40
0.0
 40
0.0
 40
0.0
 40
1.0
 40
1.0
 40
1.0
 40
2.0
 40
2.0
 40
2.0
 40
2.0
 10
70.75847166199789
 20
-95.35576440758467
 30
0.0
 10
70.4001817315319
 20
-94.60852319683399
 30
0.0
 10
70.17022160789148
 20
-93.82114662368014
 30
0.0
 10
70.16798229582606
 20
-93.01172143942068
 30
0.0
 10
70.16798229582606
 20
-92.19798988580467
 30
0.0
 10
70.4001817315319
 20
-91.41509193678165
 30
0.0
 10
70.75847166199789
 20
-90.66337210190014
 30
0.0
  0
SPLINE
  5
3F4
330
1F
100
AcDbEntity
  8
Capa 1
 62
     7
420
 16777215
370
     9
100
AcDbSpline
210
0.0
220
0.0
230
1.0
 70
     8
 71
     3
 72
    11
 73
     7
 74
     0
 42
0.0000000001
 43
0.0000000001
 40
0.0
 40
0.0
 40
0.0
 40
0.0
 40
1.0
 40
1.0
 40
1.0
 40
2.0
 40
2.0
 40
2.0
 40
2.0
 10
73.7172919195047
 20
-90.66337210190014
 30
0.0
 10
74.07558184997069
 20
-91.41078556742508
 30
0.0
 10
74.30760903090227
 20
-92.19798988580467
 30
0.0
 10
74.30760903090227
 20
-93.00724281528986
 30
0.0
 10
74.30760903090227
 20
-93.82114662368014
 30
0.0
 10
74.0778211620361
 20
-94.60852319683399
 30
0.0
 10
73.7172919195047
 20
-95.35576440758467
 30
0.0
  0
SPLINE
  5
3F5
330
1F
100
AcDbEntity
  8
Capa 1
 62
     7
420
 16777215
370
     9
100
AcDbSpline
210
0.0
220
0.0
230
1.0
 70
     8
 71
     3
 72
    11
 73
     7
 74
     0
 42
0.0000000001
 43
0.0000000001
 40
0.0
 40
0.0
 40
0.0
 40
0.0
 40
1.0
 40
1.0
 40
1.0
 40
2.0
 40
2.0
 40
2.0
 40
2.0
 10
70.75847166199789
 20
-89.44260251670185
 30
0.0
 10
70.4001817315319
 20
-88.6951890511769
 30
0.0
 10
70.17022160789148
 20
-87.90781247802305
 30
0.0
 10
70.16798229582606
 20
-87.09838729376361
 30
0.0
 10
70.16798229582606
 20
-86.28448348537333
 30
0.0
 10
70.4001817315319
 20
-85.497451421768
 30
0.0
 10
70.75847166199789
 20
-84.74986570146879
 30
0.0
  0
SPLINE
  5
3F6
330
1F
100
AcDbEntity
  8
Capa 1
 62
     7
420
 16777215
370
     9
100
AcDbSpline
210
0.0
220
0.0
230
1.0
 70
     8
 71
     3
 72
    11
 73
     7
 74
     0
 42
0.0000000001
 43
0.0000000001
 40
0.0
 40
0.0
 40
0.0
 40
0.0
 40
1.0
 40
1.0
 40
1.0
 40
2.0
 40
2.0
 40
2.0
 40
2.0
 10
73.7172919195047
 20
-84.74986570146879
 30
0.0
 10
74.07558184997069
 20
-85.497451421768
 30
0.0
 10
74.30760903090227
 20
-86.28448348537333
 30
0.0
 10
74.30760903090227
 20
-87.09408092440704
 30
0.0
 10
74.30760903090227
 20
-87.90781247802305
 30
0.0
 10
74.0778211620361
 20
-88.69071042704607
 30
0.0
 10
73.7172919195047
 20
-89.44260251670185
 30
0.0
  0
SPLINE
  5
3F7
330
1F
100
AcDbEntity
  8
Capa 1
 62
     7
420
 16777215
370
     9
100
AcDbSpline
210
0.0
220
0.0
230
1.0
 70
    24
 71
     3
 72
     8
 73
     4
 74
     0
 42
0.0000000001
 43
0.0000000001
 40
0.0
 40
0.0
 40
0.0
 40
0.0
 40
1.0
 40
1.0
 40
1.0
 40
1.0
 10
70.16798229582606
 20
-95.96623532757094
 30
0.0
 10
70.17022160789148
 20
-95.96623532757094
 30
0.0
 10
70.40689966772814
 20
-95.96623532757094
 30
0.0
 10
70.75847166199789
 20
-95.96623532757094
 30
0.0
  0
SPLINE
  5
3F8
330
1F
100
AcDbEntity
  8
Capa 1
 62
     7
420
 16777215
370
     9
100
AcDbSpline
210
0.0
220
0.0
230
1.0
 70
    24
 71
     3
 72
     8
 73
     4
 74
     0
 42
0.0000000001
 43
0.0000000001
 40
0.0
 40
0.0
 40
0.0
 40
0.0
 40
1.0
 40
1.0
 40
1.0
 40
1.0
 10
70.75847166199789
 20
-84.13956703625678
 30
0.0
 10
70.40689966772814
 20
-84.13956703625678
 30
0.0
 10
70.17022160789148
 20
-84.13956703625678
 30
0.0
 10
70.16798229582606
 20
-84.13956703625678
 30
0.0
  0
SPLINE
  5
3F9
330
1F
100
AcDbEntity
  8
Capa 1
 62
     7
420
 16777215
370
     9
100
AcDbSpline
210
0.0
220
0.0
230
1.0
 70
    24
 71
     3
 72
     8
 73
     4
 74
     0
 42
0.0000000001
 43
0.0000000001
 40
0.0
 40
0.0
 40
0.0
 40
0.0
 40
1.0
 40
1.0
 40
1.0
 40
1.0
 10
74.30760903090227
 20
-84.13956703625678
 30
0.0
 10
74.30760903090227
 20
-84.13956703625678
 30
0.0
 10
74.06886391377445
 20
-84.13956703625678
 30
0.0
 10
73.7172919195047
 20
-84.13956703625678
 30
0.0
  0
SPLINE
  5
3FA
330
1F
100
AcDbEntity
  8
Capa 1
 62
     7
420
 16777215
370
     9
100
AcDbSpline
210
0.0
220
0.0
230
1.0
 70
    24
 71
     3
 72
     8
 73
     4
 74
     0
 42
0.0000000001
 43
0.0000000001
 40
0.0
 40
0.0
 40
0.0
 40
0.0
 40
1.0
 40
1.0
 40
1.0
 40
1.0
 10
73.7172919195047
 20
-95.96623532757094
 30
0.0
 10
74.06886391377445
 20
-95.96623532757094
 30
0.0
 10
74.30760903090227
 20
-95.96623532757094
 30
0.0
 10
74.30760903090227
 20
-95.96623532757094
 30
0.0
  0
SPLINE
  5
3FB
330
1F
100
AcDbEntity
  8
Capa 1
 62
     7
420
 16777215
370
     9
100
AcDbSpline
210
0.0
220
0.0
230
1.0
 70
    24
 71
     3
 72
     8
 73
     4
 74
     0
 42
0.0000000001
 43
0.0000000001
 40
0.0
 40
0.0
 40
0.0
 40
0.0
 40
1.0
 40
1.0
 40
1.0
 40
1.0
 10
70.16798229582606
 20
-95.96623532757094
 30
0.0
 10
70.17022160789148
 20
-95.96623532757094
 30
0.0
 10
70.40689966772814
 20
-95.96623532757094
 30
0.0
 10
70.75847166199789
 20
-95.96623532757094
 30
0.0
  0
SPLINE
  5
3FC
330
1F
100
AcDbEntity
  8
Capa 1
 62
     7
420
 16777215
370
     9
100
AcDbSpline
210
0.0
220
0.0
230
1.0
 70
     8
 71
     3
 72
     8
 73
     4
 74
     0
 42
0.0000000001
 43
0.0000000001
 40
0.0
 40
0.0
 40
0.0
 40
0.0
 40
1.0
 40
1.0
 40
1.0
 40
1.0
 10
74.99766165659781
 20
-83.51152612929573
 30
0.0
 10
74.99766165659781
 20
-83.66190454722688
 30
0.0
 10
74.8980983970741
 20
-83.82554658277625
 30
0.0
 10
74.70345050215748
 20
-84.00245223594384
 30
0.0
  0
SPLINE
  5
3FD
330
1F
100
AcDbEntity
  8
Capa 1
 62
     7
420
 16777215
370
     9
100
AcDbSpline
210
0.0
220
0.0
230
1.0
 70
     8
 71
     3
 72
    11
 73
     7
 74
     0
 42
0.0000000001
 43
0.0000000001
 40
0.0
 40
0.0
 40
0.0
 40
0.0
 40
1.0
 40
1.0
 40
1.0
 40
2.0
 40
2.0
 40
2.0
 40
2.0
 10
70.75847166199789
 20
-95.35576440758467
 30
0.0
 10
70.4001817315319
 20
-94.60852319683399
 30
0.0
 10
70.17022160789148
 20
-93.82114662368014
 30
0.0
 10
70.16798229582606
 20
-93.01172143942068
 30
0.0
 10
70.16798229582606
 20
-92.19798988580467
 30
0.0
 10
70.4001817315319
 20
-91.41509193678165
 30
0.0
 10
70.75847166199789
 20
-90.66337210190014
 30
0.0
  0
SPLINE
  5
3FE
330
1F
100
AcDbEntity
  8
Capa 1
 62
     7
420
 16777215
370
     9
100
AcDbSpline
210
0.0
220
0.0
230
1.0
 70
     8
 71
     3
 72
     8
 73
     4
 74
     0
 42
0.0000000001
 43
0.0000000001
 40
0.0
 40
0.0
 40
0.0
 40
0.0
 40
1.0
 40
1.0
 40
1.0
 40
1.0
 10
74.80973169787744
 20
-95.46652422743546
 30
0.0
 10
74.9334106257979
 20
-95.52388506726487
 30
0.0
 10
74.99766165659781
 20
-95.57711179251197
 30
0.0
 10
74.99766165659781
 20
-95.63016626298483
 30
0.0
  0
SPLINE
  5
3FF
330
1F
100
AcDbEntity
  8
Capa 1
 62
     7
420
 16777215
370
     9
100
AcDbSpline
210
0.0
220
0.0
230
1.0
 70
     8
 71
     3
 72
    11
 73
     7
 74
     0
 42
0.0000000001
 43
0.0000000001
 40
0.0
 40
0.0
 40
0.0
 40
0.0
 40
1.0
 40
1.0
 40
1.0
 40
2.0
 40
2.0
 40
2.0
 40
2.0
 10
70.75847166199789
 20
-89.44260251670185
 30
0.0
 10
70.4001817315319
 20
-88.6951890511769
 30
0.0
 10
70.17022160789148
 20
-87.90781247802305
 30
0.0
 10
70.16798229582606
 20
-87.09838729376361
 30
0.0
 10
70.16798229582606
 20
-86.28448348537333
 30
0.0
 10
70.4001817315319
 20
-85.497451421768
 30
0.0
 10
70.75847166199789
 20
-84.74986570146879
 30
0.0
  0
SPLINE
  5
400
330
1F
100
AcDbEntity
  8
Capa 1
 62
     7
420
 16777215
370
     9
100
AcDbSpline
210
0.0
220
0.0
230
1.0
 70
    24
 71
     3
 72
     8
 73
     4
 74
     0
 42
0.0000000001
 43
0.0000000001
 40
0.0
 40
0.0
 40
0.0
 40
0.0
 40
1.0
 40
1.0
 40
1.0
 40
1.0
 10
73.7172919195047
 20
-95.96623532757094
 30
0.0
 10
74.06886391377445
 20
-95.96623532757094
 30
0.0
 10
74.30760903090227
 20
-95.96623532757094
 30
0.0
 10
74.30760903090227
 20
-95.96623532757094
 30
0.0
  0
SPLINE
  5
401
330
1F
100
AcDbEntity
  8
Capa 1
 62
     7
420
 16777215
370
     9
100
AcDbSpline
210
0.0
220
0.0
230
1.0
 70
     8
 71
     3
 72
    11
 73
     7
 74
     0
 42
0.0000000001
 43
0.0000000001
 40
0.0
 40
0.0
 40
0.0
 40
0.0
 40
1.0
 40
1.0
 40
1.0
 40
2.0
 40
2.0
 40
2.0
 40
2.0
 10
73.7172919195047
 20
-90.66337210190014
 30
0.0
 10
74.07558184997069
 20
-91.41078556742508
 30
0.0
 10
74.30760903090227
 20
-92.19798988580467
 30
0.0
 10
74.30760903090227
 20
-93.00724281528986
 30
0.0
 10
74.30760903090227
 20
-93.82114662368014
 30
0.0
 10
74.0778211620361
 20
-94.60852319683399
 30
0.0
 10
73.7172919195047
 20
-95.35576440758467
 30
0.0
  0
SPLINE
  5
402
330
1F
100
AcDbEntity
  8
Capa 1
 62
     7
420
 16777215
370
     9
100
AcDbSpline
210
0.0
220
0.0
230
1.0
 70
    24
 71
     3
 72
     8
 73
     4
 74
     0
 42
0.0000000001
 43
0.0000000001
 40
0.0
 40
0.0
 40
0.0
 40
0.0
 40
1.0
 40
1.0
 40
1.0
 40
1.0
 10
74.30760903090227
 20
-84.13956703625678
 30
0.0
 10
74.30760903090227
 20
-84.13956703625678
 30
0.0
 10
74.06886391377445
 20
-84.13956703625678
 30
0.0
 10
73.7172919195047
 20
-84.13956703625678
 30
0.0
  0
POLYLINE
  5
403
330
1F
100
AcDbEntity
  8
Capa 1
 62
     7
420
 16777215
370
     9
100
AcDb2dPolyline
 66
     1
 10
0.0
 20
0.0
 30
0.0
  0
VERTEX
  5
404
330
403
100
AcDbEntity
  8
Capa 1
 62
     7
420
 16777215
370
     9
100
AcDbVertex
100
AcDb2dVertex
 10
95.32286374570054
 20
-94.05110674732056
 30
0.0
  0
VERTEX
  5
405
330
403
100
AcDbEntity
  8
Capa 1
 62
     7
420
 16777215
370
     9
100
AcDbVertex
100
AcDb2dVertex
 10
95.32286374570054
 20
-94.31207273032824
 30
0.0
  0
SEQEND
  5
406
330
403
100
AcDbEntity
  8
Capa 1
370
     9
  0
SPLINE
  5
407
330
1F
100
AcDbEntity
  8
Capa 1
 62
     7
420
 16777215
370
     9
100
AcDbSpline
210
0.0
220
0.0
230
1.0
 70
    24
 71
     3
 72
     8
 73
     4
 74
     0
 42
0.0000000001
 43
0.0000000001
 40
0.0
 40
0.0
 40
0.0
 40
0.0
 40
1.0
 40
1.0
 40
1.0
 40
1.0
 10
95.32286374570054
 20
-94.31207273032824
 30
0.0
 10
95.32286374570054
 20
-94.85605330744919
 30
0.0
 10
95.32286374570054
 20
-95.32062443363513
 30
0.0
 10
95.32286374570054
 20
-95.70974796869409
 30
0.0
  0
SPLINE
  5
408
330
1F
100
AcDbEntity
  8
Capa 1
 62
     7
420
 16777215
370
     9
100
AcDbSpline
210
0.0
220
0.0
230
1.0
 70
     8
 71
     3
 72
    11
 73
     7
 74
     0
 42
0.0000000001
 43
0.0000000001
 40
0.0
 40
0.0
 40
0.0
 40
0.0
 40
1.0
 40
1.0
 40
1.0
 40
2.0
 40
2.0
 40
2.0
 40
2.0
 10
73.7172919195047
 20
-84.74986570146879
 30
0.0
 10
74.07558184997069
 20
-85.497451421768
 30
0.0
 10
74.30760903090227
 20
-86.28448348537333
 30
0.0
 10
74.30760903090227
 20
-87.09408092440704
 30
0.0
 10
74.30760903090227
 20
-87.90781247802305
 30
0.0
 10
74.0778211620361
 20
-88.69071042704607
 30
0.0
 10
73.7172919195047
 20
-89.44260251670185
 30
0.0
  0
SPLINE
  5
409
330
1F
100
AcDbEntity
  8
Capa 1
 62
     7
420
 16777215
370
     9
100
AcDbSpline
210
0.0
220
0.0
230
1.0
 70
     8
 71
     3
 72
    11
 73
     7
 74
     0
 42
0.0000000001
 43
0.0000000001
 40
0.0
 40
0.0
 40
0.0
 40
0.0
 40
1.0
 40
1.0
 40
1.0
 40
2.0
 40
2.0
 40
2.0
 40
2.0
 10
70.75847166199789
 20
-95.35576440758467
 30
0.0
 10
70.4001817315319
 20
-94.60852319683399
 30
0.0
 10
70.17022160789148
 20
-93.82114662368014
 30
0.0
 10
70.16798229582606
 20
-93.01172143942068
 30
0.0
 10
70.16798229582606
 20
-92.19798988580467
 30
0.0
 10
70.4001817315319
 20
-91.41509193678165
 30
0.0
 10
70.75847166199789
 20
-90.66337210190014
 30
0.0
  0
SPLINE
  5
40A
330
1F
100
AcDbEntity
  8
Capa 1
 62
     7
420
 16777215
370
     9
100
AcDbSpline
210
0.0
220
0.0
230
1.0
 70
     8
 71
     3
 72
    11
 73
     7
 74
     0
 42
0.0000000001
 43
0.0000000001
 40
0.0
 40
0.0
 40
0.0
 40
0.0
 40
1.0
 40
1.0
 40
1.0
 40
2.0
 40
2.0
 40
2.0
 40
2.0
 10
73.7172919195047
 20
-90.66337210190014
 30
0.0
 10
74.07558184997069
 20
-91.41078556742508
 30
0.0
 10
74.30760903090227
 20
-92.19798988580467
 30
0.0
 10
74.30760903090227
 20
-93.00724281528986
 30
0.0
 10
74.30760903090227
 20
-93.82114662368014
 30
0.0
 10
74.0778211620361
 20
-94.60852319683399
 30
0.0
 10
73.7172919195047
 20
-95.35576440758467
 30
0.0
  0
SPLINE
  5
40B
330
1F
100
AcDbEntity
  8
Capa 1
 62
     7
420
 16777215
370
     9
100
AcDbSpline
210
0.0
220
0.0
230
1.0
 70
     8
 71
     3
 72
    11
 73
     7
 74
     0
 42
0.0000000001
 43
0.0000000001
 40
0.0
 40
0.0
 40
0.0
 40
0.0
 40
1.0
 40
1.0
 40
1.0
 40
2.0
 40
2.0
 40
2.0
 40
2.0
 10
70.75847166199789
 20
-89.44260251670185
 30
0.0
 10
70.4001817315319
 20
-88.6951890511769
 30
0.0
 10
70.17022160789148
 20
-87.90781247802305
 30
0.0
 10
70.16798229582606
 20
-87.09838729376361
 30
0.0
 10
70.16798229582606
 20
-86.28448348537333
 30
0.0
 10
70.4001817315319
 20
-85.497451421768
 30
0.0
 10
70.75847166199789
 20
-84.74986570146879
 30
0.0
  0
SPLINE
  5
40C
330
1F
100
AcDbEntity
  8
Capa 1
 62
     7
420
 16777215
370
     9
100
AcDbSpline
210
0.0
220
0.0
230
1.0
 70
     8
 71
     3
 72
    11
 73
     7
 74
     0
 42
0.0000000001
 43
0.0000000001
 40
0.0
 40
0.0
 40
0.0
 40
0.0
 40
1.0
 40
1.0
 40
1.0
 40
2.0
 40
2.0
 40
2.0
 40
2.0
 10
73.7172919195047
 20
-84.74986570146879
 30
0.0
 10
74.07558184997069
 20
-85.497451421768
 30
0.0
 10
74.30760903090227
 20
-86.28448348537333
 30
0.0
 10
74.30760903090227
 20
-87.09408092440704
 30
0.0
 10
74.30760903090227
 20
-87.90781247802305
 30
0.0
 10
74.0778211620361
 20
-88.69071042704607
 30
0.0
 10
73.7172919195047
 20
-89.44260251670185
 30
0.0
  0
SPLINE
  5
40D
330
1F
100
AcDbEntity
  8
Capa 1
 62
     7
420
 16777215
370
     9
100
AcDbSpline
210
0.0
220
0.0
230
1.0
 70
    24
 71
     3
 72
     8
 73
     4
 74
     0
 42
0.0000000001
 43
0.0000000001
 40
0.0
 40
0.0
 40
0.0
 40
0.0
 40
1.0
 40
1.0
 40
1.0
 40
1.0
 10
70.16798229582606
 20
-95.96623532757094
 30
0.0
 10
70.17022160789148
 20
-95.96623532757094
 30
0.0
 10
70.40689966772814
 20
-95.96623532757094
 30
0.0
 10
70.75847166199789
 20
-95.96623532757094
 30
0.0
  0
SPLINE
  5
40E
330
1F
100
AcDbEntity
  8
Capa 1
 62
     7
420
 16777215
370
     9
100
AcDbSpline
210
0.0
220
0.0
230
1.0
 70
    24
 71
     3
 72
     8
 73
     4
 74
     0
 42
0.0000000001
 43
0.0000000001
 40
0.0
 40
0.0
 40
0.0
 40
0.0
 40
1.0
 40
1.0
 40
1.0
 40
1.0
 10
70.75847166199789
 20
-84.13956703625678
 30
0.0
 10
70.40689966772814
 20
-84.13956703625678
 30
0.0
 10
70.17022160789148
 20
-84.13956703625678
 30
0.0
 10
70.16798229582606
 20
-84.13956703625678
 30
0.0
  0
SPLINE
  5
40F
330
1F
100
AcDbEntity
  8
Capa 1
 62
     7
420
 16777215
370
     9
100
AcDbSpline
210
0.0
220
0.0
230
1.0
 70
    24
 71
     3
 72
     8
 73
     4
 74
     0
 42
0.0000000001
 43
0.0000000001
 40
0.0
 40
0.0
 40
0.0
 40
0.0
 40
1.0
 40
1.0
 40
1.0
 40
1.0
 10
74.30760903090227
 20
-84.13956703625678
 30
0.0
 10
74.30760903090227
 20
-84.13956703625678
 30
0.0
 10
74.06886391377445
 20
-84.13956703625678
 30
0.0
 10
73.7172919195047
 20
-84.13956703625678
 30
0.0
  0
SPLINE
  5
410
330
1F
100
AcDbEntity
  8
Capa 1
 62
     7
420
 16777215
370
     9
100
AcDbSpline
210
0.0
220
0.0
230
1.0
 70
    24
 71
     3
 72
     8
 73
     4
 74
     0
 42
0.0000000001
 43
0.0000000001
 40
0.0
 40
0.0
 40
0.0
 40
0.0
 40
1.0
 40
1.0
 40
1.0
 40
1.0
 10
73.7172919195047
 20
-95.96623532757094
 30
0.0
 10
74.06886391377445
 20
-95.96623532757094
 30
0.0
 10
74.30760903090227
 20
-95.96623532757094
 30
0.0
 10
74.30760903090227
 20
-95.96623532757094
 30
0.0
  0
SPLINE
  5
411
330
1F
100
AcDbEntity
  8
Capa 1
 62
     7
420
 16777215
370
     9
100
AcDbSpline
210
0.0
220
0.0
230
1.0
 70
     8
 71
     3
 72
    44
 73
    40
 74
     0
 42
0.0000000001
 43
0.0000000001
 40
0.0
 40
0.0
 40
0.0
 40
0.0
 40
1.0
 40
1.0
 40
1.0
 40
2.0
 40
2.0
 40
2.0
 40
3.0
 40
3.0
 40
3.0
 40
4.0
 40
4.0
 40
4.0
 40
5.0
 40
5.0
 40
5.0
 40
6.0
 40
6.0
 40
6.0
 40
7.0
 40
7.0
 40
7.0
 40
8.0
 40
8.0
 40
8.0
 40
9.0
 40
9.0
 40
9.0
 40
10.0
 40
10.0
 40
10.0
 40
11.0
 40
11.0
 40
11.0
 40
12.0
 40
12.0
 40
12.0
 40
13.0
 40
13.0
 40
13.0
 40
13.0
 10
88.00737573754677
 20
-178.1383083322015
 30
0.0
 10
87.99876299883364
 20
-178.1383083322015
 30
0.0
 10
87.989805750572
 20
-178.1338297080707
 30
0.0
 10
87.98084850231035
 20
-178.1338297080707
 30
0.0
 10
87.90143905137533
 20
-178.1338297080707
 30
0.0
 10
87.8216850908918
 20
-178.1427869563324
 30
0.0
 10
87.74003632789139
 20
-178.151744204594
 30
0.0
 10
87.66252167947326
 20
-178.1651800769865
 30
0.0
 10
87.58535154060367
 20
-178.1830945735098
 30
0.0
 10
87.51007620425095
 20
-178.200320050936
 30
0.0
 10
87.4368679251894
 20
-178.2182345474593
 30
0.0
 10
87.36607121296751
 20
-178.2447617826958
 30
0.0
 10
87.29527450074563
 20
-178.2709445083836
 30
0.0
 10
87.22895641265457
 20
-178.2978162531686
 30
0.0
 10
87.16470538185466
 20
-178.3284776029873
 30
0.0
 10
87.10286591789442
 20
-178.3598279719031
 30
0.0
 10
87.0432657659996
 20
-178.3946234363041
 30
0.0
 10
86.98590492617019
 20
-178.4259738052199
 30
0.0
 10
86.93285045569735
 20
-178.4655924033003
 30
0.0
 10
86.87962373045023
 20
-178.5014213963469
 30
0.0
 10
86.83122013888247
 20
-178.5365613702964
 30
0.0
 10
86.78677840712275
 20
-178.5768689874739
 30
0.0
 10
86.74233667536303
 20
-178.6116644518749
 30
0.0
 10
86.70289033205692
 20
-178.6474934449215
 30
0.0
 10
86.66516653649343
 20
-178.6871120430018
 30
0.0
 10
86.62985430776962
 20
-178.7222520169514
 30
0.0
 10
86.59660913633697
 20
-178.7577365004495
 30
0.0
 10
86.57008190110054
 20
-178.7883978502682
 30
0.0
 10
86.53924829650755
 20
-178.8242268433148
 30
0.0
 10
86.51685517585342
 20
-178.8548881931335
 30
0.0
 10
86.49480656474783
 20
-178.8862385620493
 30
0.0
 10
86.4729302084165
 20
-178.9165554023195
 30
0.0
 10
86.45053708776237
 20
-178.9434271471044
 30
0.0
 10
86.43744572491842
 20
-178.9702988918894
 30
0.0
 10
86.41953122839512
 20
-178.9920029934464
 30
0.0
 10
86.40643986555118
 20
-179.0143961141006
 30
0.0
 10
86.39748261728953
 20
-179.0367892347547
 30
0.0
 10
86.38645831173672
 20
-179.0495360880501
 30
0.0
 10
86.380084885089
 20
-179.0674505845734
 30
0.0
 10
86.37112763682737
 20
-179.0764078328351
 30
0.0
  0
SPLINE
  5
412
330
1F
100
AcDbEntity
  8
Capa 1
 62
     7
420
 16777215
370
     9
100
AcDbSpline
210
0.0
220
0.0
230
1.0
 70
     8
 71
     3
 72
    41
 73
    37
 74
     0
 42
0.0000000001
 43
0.0000000001
 40
0.0
 40
0.0
 40
0.0
 40
0.0
 40
1.0
 40
1.0
 40
1.0
 40
2.0
 40
2.0
 40
2.0
 40
3.0
 40
3.0
 40
3.0
 40
4.0
 40
4.0
 40
4.0
 40
5.0
 40
5.0
 40
5.0
 40
6.0
 40
6.0
 40
6.0
 40
7.0
 40
7.0
 40
7.0
 40
8.0
 40
8.0
 40
8.0
 40
9.0
 40
9.0
 40
9.0
 40
10.0
 40
10.0
 40
10.0
 40
11.0
 40
11.0
 40
11.0
 40
12.0
 40
12.0
 40
12.0
 40
12.0
 10
86.37112763682737
 20
-157.6785752643998
 30
0.0
 10
86.38645831173672
 20
-157.7092366142185
 30
0.0
 10
86.39748261728953
 20
-157.7271511107418
 30
0.0
 10
86.41091848968199
 20
-157.7536783459782
 30
0.0
 10
86.42400985252594
 20
-157.7757269570839
 30
0.0
 10
86.44192434904924
 20
-157.7977755681895
 30
0.0
 10
86.45949433602402
 20
-157.8287814275567
 30
0.0
 10
86.47964814461272
 20
-157.8553086627931
 30
0.0
 10
86.50152450094407
 20
-157.8863145221604
 30
0.0
 10
86.52581242411507
 20
-157.9173203815276
 30
0.0
 10
86.5523396593515
 20
-157.9479817313463
 30
0.0
 10
86.58317326394449
 20
-157.9834662148444
 30
0.0
 10
86.61417912331174
 20
-158.0189506983425
 30
0.0
 10
86.64966360680981
 20
-158.0585692964229
 30
0.0
 10
86.68497583553362
 20
-158.0940537799209
 30
0.0
 10
86.72493894316251
 20
-158.1340168875498
 30
0.0
 10
86.76920842014798
 20
-158.1695013710479
 30
0.0
 10
86.81330564235918
 20
-158.2091199691283
 30
0.0
 10
86.86429305554087
 20
-158.2446044526264
 30
0.0
 10
86.91493595917404
 20
-158.2845675602553
 30
0.0
 10
86.9702297417123
 20
-158.3197075342048
 30
0.0
 10
87.03017440315566
 20
-158.3551920177029
 30
0.0
 10
87.08753524298507
 20
-158.3903319916524
 30
0.0
 10
87.15178627378498
 20
-158.4258164751505
 30
0.0
 10
87.21810436187603
 20
-158.4523437103869
 30
0.0
 10
87.28666176203251
 20
-158.4833495697542
 30
0.0
 10
87.35521916218897
 20
-158.5098768049906
 30
0.0
 10
87.42791067692775
 20
-158.536404040227
 30
0.0
 10
87.4988796439239
 20
-158.5584526513326
 30
0.0
 10
87.5741549802766
 20
-158.5763671478559
 30
0.0
 10
87.6494303166293
 20
-158.5894585106999
 30
0.0
 10
87.72883976756432
 20
-158.6073730072232
 30
0.0
 10
87.80411510391703
 20
-158.6159857459363
 30
0.0
 10
87.88352455485204
 20
-158.6204643700671
 30
0.0
 10
87.92348766248094
 20
-158.6204643700671
 30
0.0
 10
87.9677571394664
 20
-158.6204643700671
 30
0.0
 10
88.00737573754677
 20
-158.6204643700671
 30
0.0
  0
SPLINE
  5
413
330
1F
100
AcDbEntity
  8
Capa 1
 62
     7
420
 16777215
370
     9
100
AcDbSpline
210
0.0
220
0.0
230
1.0
 70
     8
 71
     3
 72
    83
 73
    79
 74
     0
 42
0.0000000001
 43
0.0000000001
 40
0.0
 40
0.0
 40
0.0
 40
0.0
 40
1.0
 40
1.0
 40
1.0
 40
2.0
 40
2.0
 40
2.0
 40
3.0
 40
3.0
 40
3.0
 40
4.0
 40
4.0
 40
4.0
 40
5.0
 40
5.0
 40
5.0
 40
6.0
 40
6.0
 40
6.0
 40
7.0
 40
7.0
 40
7.0
 40
8.0
 40
8.0
 40
8.0
 40
9.0
 40
9.0
 40
9.0
 40
10.0
 40
10.0
 40
10.0
 40
11.0
 40
11.0
 40
11.0
 40
12.0
 40
12.0
 40
12.0
 40
13.0
 40
13.0
 40
13.0
 40
14.0
 40
14.0
 40
14.0
 40
15.0
 40
15.0
 40
15.0
 40
16.0
 40
16.0
 40
16.0
 40
17.0
 40
17.0
 40
17.0
 40
18.0
 40
18.0
 40
18.0
 40
19.0
 40
19.0
 40
19.0
 40
20.0
 40
20.0
 40
20.0
 40
21.0
 40
21.0
 40
21.0
 40
22.0
 40
22.0
 40
22.0
 40
23.0
 40
23.0
 40
23.0
 40
24.0
 40
24.0
 40
24.0
 40
25.0
 40
25.0
 40
25.0
 40
26.0
 40
26.0
 40
26.0
 40
26.0
 10
78.46721731979292
 20
-134.1311753679429
 30
0.0
 10
78.47617456805457
 20
-134.1399603614303
 30
0.0
 10
78.48513181631623
 20
-134.1487453549177
 30
0.0
 10
78.49632837664328
 20
-134.1577026031793
 30
0.0
 10
78.74161917519307
 20
-134.3921413509506
 30
0.0
 10
78.97399086567317
 20
-134.6396714615658
 30
0.0
 10
79.19723305311736
 20
-134.8961588204426
 30
0.0
 10
79.41375730436532
 20
-135.1438611858321
 30
0.0
 10
79.619601759609
 20
-135.3960421753524
 30
0.0
 10
79.81648896659102
 20
-135.6570081583601
 30
0.0
 10
80.00665823737681
 20
-135.9090168931061
 30
0.0
 10
80.18373614531865
 20
-136.1655042519829
 30
0.0
 10
80.35581866480688
 20
-136.4309488591214
 30
0.0
 10
80.51963295513052
 20
-136.6829575938675
 30
0.0
 10
80.67431774241822
 20
-136.9439235768751
 30
0.0
 10
80.81815047892741
 20
-137.2048895598828
 30
0.0
 10
80.98403182654219
 20
-137.5101250198759
 30
0.0
 10
81.13871661382991
 20
-137.8153604798691
 30
0.0
 10
81.28048229304794
 20
-138.1293809333496
 30
0.0
 10
81.41535778129547
 20
-138.4256591450811
 30
0.0
 10
81.5392089639902
 20
-138.7308946050742
 30
0.0
 10
81.6494520195182
 20
-139.0359578102931
 30
0.0
 10
81.75349390317274
 20
-139.3236232833115
 30
0.0
 10
81.84633922650022
 20
-139.6154228709121
 30
0.0
 10
81.93057181111459
 20
-139.9118733374179
 30
0.0
 10
82.00998126204959
 20
-140.1904093074003
 30
0.0
 10
82.08077797427147
 20
-140.4689452773828
 30
0.0
 10
82.15174694126762
 20
-140.7476535021395
 30
0.0
 10
82.21806502935868
 20
-141.0086194851472
 30
0.0
 10
82.27990449331891
 20
-141.265106844024
 30
0.0
 10
82.34622258140998
 20
-141.5260728270317
 30
0.0
 10
82.40599498807906
 20
-141.7692965682903
 30
0.0
 10
82.46559513997389
 20
-142.0126925643232
 30
0.0
 10
82.52743460393411
 20
-142.251437681451
 30
0.0
 10
82.5808335839555
 20
-142.4769191809606
 30
0.0
 10
82.6381944237849
 20
-142.7027451900188
 30
0.0
 10
82.6933159515489
 20
-142.9237480653975
 30
0.0
 10
82.74860973408715
 20
-143.153708189038
 30
0.0
 10
82.8063150834651
 20
-143.3793619433218
 30
0.0
 10
82.86367592329451
 20
-143.6048434428314
 30
0.0
 10
82.91225176963653
 20
-143.8082763312354
 30
0.0
 10
82.96547849488364
 20
-144.0118814744137
 30
0.0
 10
83.01405434122566
 20
-144.2196207321743
 30
0.0
 10
83.06056313027653
 20
-144.4010050094727
 30
0.0
 10
83.10689966455314
 20
-144.5823892867711
 30
0.0
 10
83.1511691415386
 20
-144.768079933426
 30
0.0
 10
83.19561087329832
 20
-144.9362005931062
 30
0.0
 10
83.23540172615296
 20
-145.1043212527864
 30
0.0
 10
83.27949894836415
 20
-145.2722696576924
 30
0.0
 10
83.32376842534961
 20
-145.4581325591216
 30
0.0
 10
83.37234427169165
 20
-145.6438232057766
 30
0.0
 10
83.4166137486771
 20
-145.8295138524315
 30
0.0
 10
83.49188908502981
 20
-146.1302706882938
 30
0.0
 10
83.56681991183399
 20
-146.4265489000253
 30
0.0
 10
83.6420952481867
 20
-146.7274779906619
 30
0.0
 10
83.72598332325254
 20
-147.0680256793788
 30
0.0
 10
83.8124552199323
 20
-147.4085733680958
 30
0.0
 10
83.89858260706356
 20
-147.7491210568127
 30
0.0
 10
83.99142793039104
 20
-148.1339382225151
 30
0.0
 10
84.08875187784935
 20
-148.5185831334433
 30
0.0
 10
84.18607582530765
 20
-148.90357255392
 30
0.0
 10
84.29235702102761
 20
-149.3280083177027
 30
0.0
 10
84.39863821674757
 20
-149.7524440814855
 30
0.0
 10
84.50440264814473
 20
-150.1817029789476
 30
0.0
 10
84.61964109212634
 20
-150.6461018503593
 30
0.0
 10
84.73677433862484
 20
-151.1149793459018
 30
0.0
 10
84.8540798398976
 20
-151.5835123318958
 30
0.0
 10
84.98240964672316
 20
-152.096831559198
 30
0.0
 10
85.10832788670903
 20
-152.6053276528209
 30
0.0
 10
85.23441838146918
 20
-153.1183023705746
 30
0.0
 10
85.3670545576513
 20
-153.6357557124591
 30
0.0
 10
85.49538436447685
 20
-154.1576876784745
 30
0.0
 10
85.62354191652814
 20
-154.6796196444898
 30
0.0
 10
85.76530759574618
 20
-155.2370360940033
 30
0.0
 10
85.9020778865106
 20
-155.7941080339681
 30
0.0
 10
86.04384356572862
 20
-156.3515244834816
 30
0.0
 10
86.15856524538745
 20
-156.8204019790241
 30
0.0
 10
86.27380368936905
 20
-157.2848008504357
 30
0.0
 10
86.39093693586754
 20
-157.7536783459782
 30
0.0
  0
SPLINE
  5
414
330
1F
100
AcDbEntity
  8
Capa 1
 62
     7
420
 16777215
370
     9
100
AcDbSpline
210
0.0
220
0.0
230
1.0
 70
     8
 71
     3
 72
    83
 73
    79
 74
     0
 42
0.0000000001
 43
0.0000000001
 40
0.0
 40
0.0
 40
0.0
 40
0.0
 40
1.0
 40
1.0
 40
1.0
 40
2.0
 40
2.0
 40
2.0
 40
3.0
 40
3.0
 40
3.0
 40
4.0
 40
4.0
 40
4.0
 40
5.0
 40
5.0
 40
5.0
 40
6.0
 40
6.0
 40
6.0
 40
7.0
 40
7.0
 40
7.0
 40
8.0
 40
8.0
 40
8.0
 40
9.0
 40
9.0
 40
9.0
 40
10.0
 40
10.0
 40
10.0
 40
11.0
 40
11.0
 40
11.0
 40
12.0
 40
12.0
 40
12.0
 40
13.0
 40
13.0
 40
13.0
 40
14.0
 40
14.0
 40
14.0
 40
15.0
 40
15.0
 40
15.0
 40
16.0
 40
16.0
 40
16.0
 40
17.0
 40
17.0
 40
17.0
 40
18.0
 40
18.0
 40
18.0
 40
19.0
 40
19.0
 40
19.0
 40
20.0
 40
20.0
 40
20.0
 40
21.0
 40
21.0
 40
21.0
 40
22.0
 40
22.0
 40
22.0
 40
23.0
 40
23.0
 40
23.0
 40
24.0
 40
24.0
 40
24.0
 40
25.0
 40
25.0
 40
25.0
 40
26.0
 40
26.0
 40
26.0
 40
26.0
 10
86.39093693586754
 20
-179.0054388658389
 30
0.0
 10
86.31807316635451
 20
-179.2931043388573
 30
0.0
 10
86.24727645413263
 20
-179.5849039264579
 30
0.0
 10
86.17647974191074
 20
-179.8725693994763
 30
0.0
 10
86.05280081399027
 20
-180.3631509965759
 30
0.0
 10
85.93084443381242
 20
-180.8544216127725
 30
0.0
 10
85.80923256318312
 20
-181.3450032098721
 30
0.0
 10
85.6967501955897
 20
-181.791832094309
 30
0.0
 10
85.58375106367352
 20
-182.2427950933282
 30
0.0
 10
85.47333575337126
 20
-182.6896239777651
 30
0.0
 10
85.37153318178213
 20
-183.0964897545731
 30
0.0
 10
85.26990286496725
 20
-183.5037000409296
 30
0.0
 10
85.16810029337812
 20
-183.9102213081891
 30
0.0
 10
85.09730358115624
 20
-184.2023654053383
 30
0.0
 10
85.02409530209468
 20
-184.4900308783567
 30
0.0
 10
84.9514037873559
 20
-184.7818304659573
 30
0.0
 10
84.88508569926485
 20
-185.0471028183216
 30
0.0
 10
84.81876761117378
 20
-185.307896546555
 30
0.0
 10
84.75468883514814
 20
-185.5735134084677
 30
0.0
 10
84.69491642847905
 20
-185.811914016047
 30
0.0
 10
84.63497176703571
 20
-186.0506591331748
 30
0.0
 10
84.57537161514088
 20
-186.2900932693997
 30
0.0
 10
84.52231714466804
 20
-186.5026556608396
 30
0.0
 10
84.46943492896945
 20
-186.714184523634
 30
0.0
 10
84.41603594894808
 20
-186.9267469150739
 30
0.0
 10
84.36987166944573
 20
-187.1169161858597
 30
0.0
 10
84.32336288039485
 20
-187.3026068325146
 30
0.0
 10
84.27444252450431
 20
-187.4927761033004
 30
0.0
 10
84.22603893293655
 20
-187.6963812464787
 30
0.0
 10
84.17522377452912
 20
-187.8951632559776
 30
0.0
 10
84.12423636134741
 20
-188.0987683991559
 30
0.0
 10
84.05791827325636
 20
-188.3643852610686
 30
0.0
 10
83.99142793039104
 20
-188.625178989302
 30
0.0
 10
83.92734915436539
 20
-188.886317227084
 30
0.0
 10
83.8543131300781
 20
-189.182250929267
 30
0.0
 10
83.7793823032739
 20
-189.4788736505469
 30
0.0
 10
83.7041069669212
 20
-189.7751518622784
 30
0.0
 10
83.62245820392077
 20
-190.106914557508
 30
0.0
 10
83.54046493137183
 20
-190.4386772527376
 30
0.0
 10
83.456576856306
 20
-190.7704399479671
 30
0.0
 10
83.3656263354954
 20
-191.1373426171462
 30
0.0
 10
83.27502032423334
 20
-191.5004556812916
 30
0.0
 10
83.18217500090584
 20
-191.8670138409221
 30
0.0
 10
83.08485105344754
 20
-192.2697455031478
 30
0.0
 10
82.9830484818584
 20
-192.6679985412427
 30
0.0
 10
82.88348522233468
 20
-193.065218050692
 30
0.0
 10
82.77530922409784
 20
-193.5037787059644
 30
0.0
 10
82.66696097108674
 20
-193.9368272084602
 30
0.0
 10
82.55844046330137
 20
-194.3702202205047
 30
0.0
 10
82.4921223752103
 20
-194.6489284452614
 30
0.0
 10
82.42167017253695
 20
-194.9279811795666
 30
0.0
 10
82.35294051760621
 20
-195.2022107801925
 30
0.0
 10
82.27990449331891
 20
-195.4936658582446
 30
0.0
 10
82.20910778109703
 20
-195.7861544649424
 30
0.0
 10
82.13383244474433
 20
-196.0731309188637
 30
0.0
 10
82.05890161794014
 20
-196.3780218693083
 30
0.0
 10
81.98138696952202
 20
-196.6794677242677
 30
0.0
 10
81.89302027032537
 20
-196.9798800505814
 30
0.0
 10
81.80017494699787
 20
-197.2937282492877
 30
0.0
 10
81.69613306334332
 20
-197.6037868429602
 30
0.0
 10
81.58089461936173
 20
-197.9131564175356
 30
0.0
 10
81.45721569144125
 20
-198.2318277499212
 30
0.0
 10
81.32440726048488
 20
-198.5411973244967
 30
0.0
 10
81.1786797214588
 20
-198.8505668990721
 30
0.0
 10
81.05034991463324
 20
-199.1158392514363
 30
0.0
 10
80.91771373845113
 20
-199.3769774892183
 30
0.0
 10
80.77388100194194
 20
-199.6332925933208
 30
0.0
 10
80.6257418960762
 20
-199.8944308311028
 30
0.0
 10
80.46881779672307
 20
-200.1552245593362
 30
0.0
 10
80.3029364491083
 20
-200.4074055488565
 30
0.0
 10
80.13257647736269
 20
-200.6681992770899
 30
0.0
 10
79.95360376690397
 20
-200.9203802666102
 30
0.0
 10
79.76308998656965
 20
-201.1687716510967
 30
0.0
 10
79.5686143464273
 20
-201.4250867551993
 30
0.0
 10
79.36535371279756
 20
-201.6727891205888
 30
0.0
 10
79.15279132135764
 20
-201.911189728168
 30
0.0
 10
79.00258515820074
 20
-202.0841335215276
 30
0.0
 10
78.84790037091302
 20
-202.2474310475284
 30
0.0
 10
78.6909762715599
 20
-202.4107285735293
 30
0.0
  0
SPLINE
  5
415
330
1F
100
AcDbEntity
  8
Capa 1
 62
     7
420
 16777215
370
     9
100
AcDbSpline
210
0.0
220
0.0
230
1.0
 70
     8
 71
     3
 72
    11
 73
     7
 74
     0
 42
0.0000000001
 43
0.0000000001
 40
0.0
 40
0.0
 40
0.0
 40
0.0
 40
1.0
 40
1.0
 40
1.0
 40
2.0
 40
2.0
 40
2.0
 40
2.0
 10
70.75847166199789
 20
-142.4769191809606
 30
0.0
 10
70.4001817315319
 20
-142.9104844477793
 30
0.0
 10
70.17022160789148
 20
-143.3660983257036
 30
0.0
 10
70.16798229582606
 20
-143.8349758212461
 30
0.0
 10
70.16798229582606
 20
-144.3036810620144
 30
0.0
 10
70.4001817315319
 20
-144.7548163158078
 30
0.0
 10
70.75847166199789
 20
-145.1882093278523
 30
0.0
  0
SPLINE
  5
416
330
1F
100
AcDbEntity
  8
Capa 1
 62
     7
420
 16777215
370
     9
100
AcDbSpline
210
0.0
220
0.0
230
1.0
 70
     8
 71
     3
 72
    11
 73
     7
 74
     0
 42
0.0000000001
 43
0.0000000001
 40
0.0
 40
0.0
 40
0.0
 40
0.0
 40
1.0
 40
1.0
 40
1.0
 40
2.0
 40
2.0
 40
2.0
 40
2.0
 10
70.75847166199789
 20
-136.0018622164336
 30
0.0
 10
70.40242104359731
 20
-136.8600355018093
 30
0.0
 10
70.16798229582606
 20
-137.7800482511453
 30
0.0
 10
70.16798229582606
 20
-138.717630987456
 30
0.0
 10
70.17022160789148
 20
-139.6509073544102
 30
0.0
 10
70.40689966772814
 20
-140.5752264731027
 30
0.0
 10
70.75847166199789
 20
-141.4242702554425
 30
0.0
  0
SPLINE
  5
417
330
1F
100
AcDbEntity
  8
Capa 1
 62
     7
420
 16777215
370
     9
100
AcDbSpline
210
0.0
220
0.0
230
1.0
 70
     8
 71
     3
 72
    11
 73
     7
 74
     0
 42
0.0000000001
 43
0.0000000001
 40
0.0
 40
0.0
 40
0.0
 40
0.0
 40
1.0
 40
1.0
 40
1.0
 40
2.0
 40
2.0
 40
2.0
 40
2.0
 10
70.75847166199789
 20
-132.2336167746673
 30
0.0
 10
70.4001817315319
 20
-132.667182041486
 30
0.0
 10
70.17022160789148
 20
-133.1227959194103
 30
0.0
 10
70.16798229582606
 20
-133.5915011601785
 30
0.0
 10
70.16798229582606
 20
-134.060378655721
 30
0.0
 10
70.4001817315319
 20
-134.5115139095145
 30
0.0
 10
70.75847166199789
 20
-134.9450791763332
 30
0.0
  0
SPLINE
  5
418
330
1F
100
AcDbEntity
  8
Capa 1
 62
     7
420
 16777215
370
     9
100
AcDbSpline
210
0.0
220
0.0
230
1.0
 70
     8
 71
     3
 72
    11
 73
     7
 74
     0
 42
0.0000000001
 43
0.0000000001
 40
0.0
 40
0.0
 40
0.0
 40
0.0
 40
1.0
 40
1.0
 40
1.0
 40
2.0
 40
2.0
 40
2.0
 40
2.0
 10
73.7172919195047
 20
-134.9450791763332
 30
0.0
 10
74.07558184997069
 20
-134.5115139095145
 30
0.0
 10
74.30760903090227
 20
-134.060378655721
 30
0.0
 10
74.30760903090227
 20
-133.5915011601785
 30
0.0
 10
74.30760903090227
 20
-133.1227959194103
 30
0.0
 10
74.0778211620361
 20
-132.667182041486
 30
0.0
 10
73.7172919195047
 20
-132.2336167746673
 30
0.0
  0
SPLINE
  5
419
330
1F
100
AcDbEntity
  8
Capa 1
 62
     7
420
 16777215
370
     9
100
AcDbSpline
210
0.0
220
0.0
230
1.0
 70
     8
 71
     3
 72
    11
 73
     7
 74
     0
 42
0.0000000001
 43
0.0000000001
 40
0.0
 40
0.0
 40
0.0
 40
0.0
 40
1.0
 40
1.0
 40
1.0
 40
2.0
 40
2.0
 40
2.0
 40
2.0
 10
73.7172919195047
 20
-141.4242702554425
 30
0.0
 10
74.06886391377445
 20
-140.5752264731027
 30
0.0
 10
74.30760903090227
 20
-139.6509073544102
 30
0.0
 10
74.30760903090227
 20
-138.717630987456
 30
0.0
 10
74.30967608819341
 20
-137.7800482511453
 30
0.0
 10
74.07558184997069
 20
-136.8600355018093
 30
0.0
 10
73.7172919195047
 20
-136.0018622164336
 30
0.0
  0
SPLINE
  5
41A
330
1F
100
AcDbEntity
  8
Capa 1
 62
     7
420
 16777215
370
     9
100
AcDbSpline
210
0.0
220
0.0
230
1.0
 70
     8
 71
     3
 72
    11
 73
     7
 74
     0
 42
0.0000000001
 43
0.0000000001
 40
0.0
 40
0.0
 40
0.0
 40
0.0
 40
1.0
 40
1.0
 40
1.0
 40
2.0
 40
2.0
 40
2.0
 40
2.0
 10
73.7172919195047
 20
-145.1882093278523
 30
0.0
 10
74.07558184997069
 20
-144.7548163158078
 30
0.0
 10
74.30760903090227
 20
-144.3036810620144
 30
0.0
 10
74.30760903090227
 20
-143.8349758212461
 30
0.0
 10
74.30760903090227
 20
-143.3660983257036
 30
0.0
 10
74.0778211620361
 20
-142.9104844477793
 30
0.0
 10
73.7172919195047
 20
-142.4769191809606
 30
0.0
  0
SPLINE
  5
41B
330
1F
100
AcDbEntity
  8
Capa 1
 62
     7
420
 16777215
370
     9
100
AcDbSpline
210
0.0
220
0.0
230
1.0
 70
     8
 71
     3
 72
    11
 73
     7
 74
     0
 42
0.0000000001
 43
0.0000000001
 40
0.0
 40
0.0
 40
0.0
 40
0.0
 40
1.0
 40
1.0
 40
1.0
 40
2.0
 40
2.0
 40
2.0
 40
2.0
 10
70.75847166199789
 20
-136.0018622164336
 30
0.0
 10
70.40242104359731
 20
-136.8600355018093
 30
0.0
 10
70.16798229582606
 20
-137.7800482511453
 30
0.0
 10
70.16798229582606
 20
-138.717630987456
 30
0.0
 10
70.17022160789148
 20
-139.6509073544102
 30
0.0
 10
70.40689966772814
 20
-140.5752264731027
 30
0.0
 10
70.75847166199789
 20
-141.4242702554425
 30
0.0
  0
SPLINE
  5
41C
330
1F
100
AcDbEntity
  8
Capa 1
 62
     7
420
 16777215
370
     9
100
AcDbSpline
210
0.0
220
0.0
230
1.0
 70
     8
 71
     3
 72
    11
 73
     7
 74
     0
 42
0.0000000001
 43
0.0000000001
 40
0.0
 40
0.0
 40
0.0
 40
0.0
 40
1.0
 40
1.0
 40
1.0
 40
2.0
 40
2.0
 40
2.0
 40
2.0
 10
70.75847166199789
 20
-132.2336167746673
 30
0.0
 10
70.4001817315319
 20
-132.667182041486
 30
0.0
 10
70.17022160789148
 20
-133.1227959194103
 30
0.0
 10
70.16798229582606
 20
-133.5915011601785
 30
0.0
 10
70.16798229582606
 20
-134.060378655721
 30
0.0
 10
70.4001817315319
 20
-134.5115139095145
 30
0.0
 10
70.75847166199789
 20
-134.9450791763332
 30
0.0
  0
SPLINE
  5
41D
330
1F
100
AcDbEntity
  8
Capa 1
 62
     7
420
 16777215
370
     9
100
AcDbSpline
210
0.0
220
0.0
230
1.0
 70
     8
 71
     3
 72
    11
 73
     7
 74
     0
 42
0.0000000001
 43
0.0000000001
 40
0.0
 40
0.0
 40
0.0
 40
0.0
 40
1.0
 40
1.0
 40
1.0
 40
2.0
 40
2.0
 40
2.0
 40
2.0
 10
73.7172919195047
 20
-134.9450791763332
 30
0.0
 10
74.07558184997069
 20
-134.5115139095145
 30
0.0
 10
74.30760903090227
 20
-134.060378655721
 30
0.0
 10
74.30760903090227
 20
-133.5915011601785
 30
0.0
 10
74.30760903090227
 20
-133.1227959194103
 30
0.0
 10
74.0778211620361
 20
-132.667182041486
 30
0.0
 10
73.7172919195047
 20
-132.2336167746673
 30
0.0
  0
SPLINE
  5
41E
330
1F
100
AcDbEntity
  8
Capa 1
 62
     7
420
 16777215
370
     9
100
AcDbSpline
210
0.0
220
0.0
230
1.0
 70
     8
 71
     3
 72
    11
 73
     7
 74
     0
 42
0.0000000001
 43
0.0000000001
 40
0.0
 40
0.0
 40
0.0
 40
0.0
 40
1.0
 40
1.0
 40
1.0
 40
2.0
 40
2.0
 40
2.0
 40
2.0
 10
73.7172919195047
 20
-141.4242702554425
 30
0.0
 10
74.06886391377445
 20
-140.5752264731027
 30
0.0
 10
74.30760903090227
 20
-139.6509073544102
 30
0.0
 10
74.30760903090227
 20
-138.717630987456
 30
0.0
 10
74.30967608819341
 20
-137.7800482511453
 30
0.0
 10
74.07558184997069
 20
-136.8600355018093
 30
0.0
 10
73.7172919195047
 20
-136.0018622164336
 30
0.0
  0
SPLINE
  5
41F
330
1F
100
AcDbEntity
  8
Capa 1
 62
     7
420
 16777215
370
     9
100
AcDbSpline
210
0.0
220
0.0
230
1.0
 70
     8
 71
     3
 72
    11
 73
     7
 74
     0
 42
0.0000000001
 43
0.0000000001
 40
0.0
 40
0.0
 40
0.0
 40
0.0
 40
1.0
 40
1.0
 40
1.0
 40
2.0
 40
2.0
 40
2.0
 40
2.0
 10
70.75847166199789
 20
-142.4769191809606
 30
0.0
 10
70.4001817315319
 20
-142.9104844477793
 30
0.0
 10
70.17022160789148
 20
-143.3660983257036
 30
0.0
 10
70.16798229582606
 20
-143.8349758212461
 30
0.0
 10
70.16798229582606
 20
-144.3036810620144
 30
0.0
 10
70.4001817315319
 20
-144.7548163158078
 30
0.0
 10
70.75847166199789
 20
-145.1882093278523
 30
0.0
  0
SPLINE
  5
420
330
1F
100
AcDbEntity
  8
Capa 1
 62
     7
420
 16777215
370
     9
100
AcDbSpline
210
0.0
220
0.0
230
1.0
 70
     8
 71
     3
 72
    11
 73
     7
 74
     0
 42
0.0000000001
 43
0.0000000001
 40
0.0
 40
0.0
 40
0.0
 40
0.0
 40
1.0
 40
1.0
 40
1.0
 40
2.0
 40
2.0
 40
2.0
 40
2.0
 10
73.7172919195047
 20
-145.1882093278523
 30
0.0
 10
74.07558184997069
 20
-144.7548163158078
 30
0.0
 10
74.30760903090227
 20
-144.3036810620144
 30
0.0
 10
74.30760903090227
 20
-143.8349758212461
 30
0.0
 10
74.30760903090227
 20
-143.3660983257036
 30
0.0
 10
74.0778211620361
 20
-142.9104844477793
 30
0.0
 10
73.7172919195047
 20
-142.4769191809606
 30
0.0
  0
SPLINE
  5
421
330
1F
100
AcDbEntity
  8
Capa 1
 62
     7
420
 16777215
370
     9
100
AcDbSpline
210
0.0
220
0.0
230
1.0
 70
     8
 71
     3
 72
    11
 73
     7
 74
     0
 42
0.0000000001
 43
0.0000000001
 40
0.0
 40
0.0
 40
0.0
 40
0.0
 40
1.0
 40
1.0
 40
1.0
 40
2.0
 40
2.0
 40
2.0
 40
2.0
 10
70.75847166199789
 20
-136.0018622164336
 30
0.0
 10
70.40242104359731
 20
-136.8600355018093
 30
0.0
 10
70.16798229582606
 20
-137.7800482511453
 30
0.0
 10
70.16798229582606
 20
-138.717630987456
 30
0.0
 10
70.17022160789148
 20
-139.6509073544102
 30
0.0
 10
70.40689966772814
 20
-140.5752264731027
 30
0.0
 10
70.75847166199789
 20
-141.4242702554425
 30
0.0
  0
SPLINE
  5
422
330
1F
100
AcDbEntity
  8
Capa 1
 62
     7
420
 16777215
370
     9
100
AcDbSpline
210
0.0
220
0.0
230
1.0
 70
     8
 71
     3
 72
    11
 73
     7
 74
     0
 42
0.0000000001
 43
0.0000000001
 40
0.0
 40
0.0
 40
0.0
 40
0.0
 40
1.0
 40
1.0
 40
1.0
 40
2.0
 40
2.0
 40
2.0
 40
2.0
 10
70.75847166199789
 20
-132.2336167746673
 30
0.0
 10
70.4001817315319
 20
-132.667182041486
 30
0.0
 10
70.17022160789148
 20
-133.1227959194103
 30
0.0
 10
70.16798229582606
 20
-133.5915011601785
 30
0.0
 10
70.16798229582606
 20
-134.060378655721
 30
0.0
 10
70.4001817315319
 20
-134.5115139095145
 30
0.0
 10
70.75847166199789
 20
-134.9450791763332
 30
0.0
  0
SPLINE
  5
423
330
1F
100
AcDbEntity
  8
Capa 1
 62
     7
420
 16777215
370
     9
100
AcDbSpline
210
0.0
220
0.0
230
1.0
 70
     8
 71
     3
 72
    11
 73
     7
 74
     0
 42
0.0000000001
 43
0.0000000001
 40
0.0
 40
0.0
 40
0.0
 40
0.0
 40
1.0
 40
1.0
 40
1.0
 40
2.0
 40
2.0
 40
2.0
 40
2.0
 10
70.75847166199789
 20
-142.4769191809606
 30
0.0
 10
70.4001817315319
 20
-142.9104844477793
 30
0.0
 10
70.17022160789148
 20
-143.3660983257036
 30
0.0
 10
70.16798229582606
 20
-143.8349758212461
 30
0.0
 10
70.16798229582606
 20
-144.3036810620144
 30
0.0
 10
70.4001817315319
 20
-144.7548163158078
 30
0.0
 10
70.75847166199789
 20
-145.1882093278523
 30
0.0
  0
SPLINE
  5
424
330
1F
100
AcDbEntity
  8
Capa 1
 62
     7
420
 16777215
370
     9
100
AcDbSpline
210
0.0
220
0.0
230
1.0
 70
     8
 71
     3
 72
    11
 73
     7
 74
     0
 42
0.0000000001
 43
0.0000000001
 40
0.0
 40
0.0
 40
0.0
 40
0.0
 40
1.0
 40
1.0
 40
1.0
 40
2.0
 40
2.0
 40
2.0
 40
2.0
 10
73.7172919195047
 20
-145.1882093278523
 30
0.0
 10
74.07558184997069
 20
-144.7548163158078
 30
0.0
 10
74.30760903090227
 20
-144.3036810620144
 30
0.0
 10
74.30760903090227
 20
-143.8349758212461
 30
0.0
 10
74.30760903090227
 20
-143.3660983257036
 30
0.0
 10
74.0778211620361
 20
-142.9104844477793
 30
0.0
 10
73.7172919195047
 20
-142.4769191809606
 30
0.0
  0
SPLINE
  5
425
330
1F
100
AcDbEntity
  8
Capa 1
 62
     7
420
 16777215
370
     9
100
AcDbSpline
210
0.0
220
0.0
230
1.0
 70
     8
 71
     3
 72
    11
 73
     7
 74
     0
 42
0.0000000001
 43
0.0000000001
 40
0.0
 40
0.0
 40
0.0
 40
0.0
 40
1.0
 40
1.0
 40
1.0
 40
2.0
 40
2.0
 40
2.0
 40
2.0
 10
73.7172919195047
 20
-134.9450791763332
 30
0.0
 10
74.07558184997069
 20
-134.5115139095145
 30
0.0
 10
74.30760903090227
 20
-134.060378655721
 30
0.0
 10
74.30760903090227
 20
-133.5915011601785
 30
0.0
 10
74.30760903090227
 20
-133.1227959194103
 30
0.0
 10
74.0778211620361
 20
-132.667182041486
 30
0.0
 10
73.7172919195047
 20
-132.2336167746673
 30
0.0
  0
SPLINE
  5
426
330
1F
100
AcDbEntity
  8
Capa 1
 62
     7
420
 16777215
370
     9
100
AcDbSpline
210
0.0
220
0.0
230
1.0
 70
     8
 71
     3
 72
    11
 73
     7
 74
     0
 42
0.0000000001
 43
0.0000000001
 40
0.0
 40
0.0
 40
0.0
 40
0.0
 40
1.0
 40
1.0
 40
1.0
 40
2.0
 40
2.0
 40
2.0
 40
2.0
 10
73.7172919195047
 20
-141.4242702554425
 30
0.0
 10
74.06886391377445
 20
-140.5752264731027
 30
0.0
 10
74.30760903090227
 20
-139.6509073544102
 30
0.0
 10
74.30760903090227
 20
-138.717630987456
 30
0.0
 10
74.30967608819341
 20
-137.7800482511453
 30
0.0
 10
74.07558184997069
 20
-136.8600355018093
 30
0.0
 10
73.7172919195047
 20
-136.0018622164336
 30
0.0
  0
SPLINE
  5
427
330
1F
100
AcDbEntity
  8
Capa 1
 62
     7
420
 16777215
370
     9
100
AcDbSpline
210
0.0
220
0.0
230
1.0
 70
     8
 71
     3
 72
    11
 73
     7
 74
     0
 42
0.0000000001
 43
0.0000000001
 40
0.0
 40
0.0
 40
0.0
 40
0.0
 40
1.0
 40
1.0
 40
1.0
 40
2.0
 40
2.0
 40
2.0
 40
2.0
 10
70.75847166199789
 20
-191.5703911196421
 30
0.0
 10
70.4001817315319
 20
-192.0044731507836
 30
0.0
 10
70.17022160789148
 20
-192.4554361498028
 30
0.0
 10
70.16798229582606
 20
-192.9243136453453
 30
0.0
 10
70.16798229582606
 20
-193.3928466313393
 30
0.0
 10
70.4001817315319
 20
-193.8482882544893
 30
0.0
 10
70.75847166199789
 20
-194.2820257760823
 30
0.0
  0
SPLINE
  5
428
330
1F
100
AcDbEntity
  8
Capa 1
 62
     7
420
 16777215
370
     9
100
AcDbSpline
210
0.0
220
0.0
230
1.0
 70
     8
 71
     3
 72
    11
 73
     7
 74
     0
 42
0.0000000001
 43
0.0000000001
 40
0.0
 40
0.0
 40
0.0
 40
0.0
 40
1.0
 40
1.0
 40
1.0
 40
2.0
 40
2.0
 40
2.0
 40
2.0
 10
73.7172919195047
 20
-194.2820257760823
 30
0.0
 10
74.07558184997069
 20
-193.8482882544893
 30
0.0
 10
74.30760903090227
 20
-193.3928466313393
 30
0.0
 10
74.30760903090227
 20
-192.9243136453453
 30
0.0
 10
74.30760903090227
 20
-192.4554361498028
 30
0.0
 10
74.0778211620361
 20
-192.0044731507836
 30
0.0
 10
73.7172919195047
 20
-191.5703911196421
 30
0.0
  0
SPLINE
  5
429
330
1F
100
AcDbEntity
  8
Capa 1
 62
     7
420
 16777215
370
     9
100
AcDbSpline
210
0.0
220
0.0
230
1.0
 70
     8
 71
     3
 72
     8
 73
     4
 74
     0
 42
0.0000000001
 43
0.0000000001
 40
0.0
 40
0.0
 40
0.0
 40
0.0
 40
1.0
 40
1.0
 40
1.0
 40
1.0
 10
74.99766165659781
 20
-148.5893798456651
 30
0.0
 10
74.99766165659781
 20
-147.3377766558739
 30
0.0
 10
74.8980983970741
 20
-146.09495845957
 30
0.0
 10
74.70345050215748
 20
-144.8610975115278
 30
0.0
  0
SPLINE
  5
42A
330
1F
100
AcDbEntity
  8
Capa 1
 62
     7
420
 16777215
370
     9
100
AcDbSpline
210
0.0
220
0.0
230
1.0
 70
     8
 71
     3
 72
    17
 73
    13
 74
     0
 42
0.0000000001
 43
0.0000000001
 40
0.0
 40
0.0
 40
0.0
 40
0.0
 40
1.0
 40
1.0
 40
1.0
 40
2.0
 40
2.0
 40
2.0
 40
3.0
 40
3.0
 40
3.0
 40
4.0
 40
4.0
 40
4.0
 40
4.0
 10
81.19177108430276
 20
-138.1383381816113
 30
0.0
 10
80.65226913131264
 20
-136.9439235768751
 30
0.0
 10
79.97117375387874
 20
-135.8914469061313
 30
0.0
 10
79.31643335690701
 20
-135.0820217218719
 30
0.0
 10
78.98914928580827
 20
-134.6751559450639
 30
0.0
 10
78.6730617750366
 20
-134.3346082563469
 30
0.0
 10
78.40985647996351
 20
-134.0736422733392
 30
0.0
 10
78.14889049695584
 20
-133.8126762903316
 30
0.0
 10
77.94976397790839
 20
-133.6402492612948
 30
0.0
 10
77.89240313807899
 20
-133.5959797843093
 30
0.0
 10
77.88344588981734
 20
-133.5915011601785
 30
0.0
 10
77.87896726568651
 20
-133.5870225360477
 30
0.0
 10
77.87483315110421
 20
-133.5870225360477
 30
0.0
  0
SPLINE
  5
42B
330
1F
100
AcDbEntity
  8
Capa 1
 62
     7
420
 16777215
370
     9
100
AcDbSpline
210
0.0
220
0.0
230
1.0
 70
     8
 71
     3
 72
    11
 73
     7
 74
     0
 42
0.0000000001
 43
0.0000000001
 40
0.0
 40
0.0
 40
0.0
 40
0.0
 40
1.0
 40
1.0
 40
1.0
 40
2.0
 40
2.0
 40
2.0
 40
2.0
 10
70.75847166199789
 20
-191.5703911196421
 30
0.0
 10
70.4001817315319
 20
-192.0044731507836
 30
0.0
 10
70.17022160789148
 20
-192.4554361498028
 30
0.0
 10
70.16798229582606
 20
-192.9243136453453
 30
0.0
 10
70.16798229582606
 20
-193.3928466313393
 30
0.0
 10
70.4001817315319
 20
-193.8482882544893
 30
0.0
 10
70.75847166199789
 20
-194.2820257760823
 30
0.0
  0
SPLINE
  5
42C
330
1F
100
AcDbEntity
  8
Capa 1
 62
     7
420
 16777215
370
     9
100
AcDbSpline
210
0.0
220
0.0
230
1.0
 70
     8
 71
     3
 72
    11
 73
     7
 74
     0
 42
0.0000000001
 43
0.0000000001
 40
0.0
 40
0.0
 40
0.0
 40
0.0
 40
1.0
 40
1.0
 40
1.0
 40
2.0
 40
2.0
 40
2.0
 40
2.0
 10
73.7172919195047
 20
-194.2820257760823
 30
0.0
 10
74.07558184997069
 20
-193.8482882544893
 30
0.0
 10
74.30760903090227
 20
-193.3928466313393
 30
0.0
 10
74.30760903090227
 20
-192.9243136453453
 30
0.0
 10
74.30760903090227
 20
-192.4554361498028
 30
0.0
 10
74.0778211620361
 20
-192.0044731507836
 30
0.0
 10
73.7172919195047
 20
-191.5703911196421
 30
0.0
  0
SPLINE
  5
42D
330
1F
100
AcDbEntity
  8
Capa 1
 62
     7
420
 16777215
370
     9
100
AcDbSpline
210
0.0
220
0.0
230
1.0
 70
     8
 71
     3
 72
    11
 73
     7
 74
     0
 42
0.0000000001
 43
0.0000000001
 40
0.0
 40
0.0
 40
0.0
 40
0.0
 40
1.0
 40
1.0
 40
1.0
 40
2.0
 40
2.0
 40
2.0
 40
2.0
 10
73.7172919195047
 20
-194.2820257760823
 30
0.0
 10
74.07558184997069
 20
-193.8482882544893
 30
0.0
 10
74.30760903090227
 20
-193.3928466313393
 30
0.0
 10
74.30760903090227
 20
-192.9243136453453
 30
0.0
 10
74.30760903090227
 20
-192.4554361498028
 30
0.0
 10
74.0778211620361
 20
-192.0044731507836
 30
0.0
 10
73.7172919195047
 20
-191.5703911196421
 30
0.0
  0
SPLINE
  5
42E
330
1F
100
AcDbEntity
  8
Capa 1
 62
     7
420
 16777215
370
     9
100
AcDbSpline
210
0.0
220
0.0
230
1.0
 70
     8
 71
     3
 72
    11
 73
     7
 74
     0
 42
0.0000000001
 43
0.0000000001
 40
0.0
 40
0.0
 40
0.0
 40
0.0
 40
1.0
 40
1.0
 40
1.0
 40
2.0
 40
2.0
 40
2.0
 40
2.0
 10
70.75847166199789
 20
-191.5703911196421
 30
0.0
 10
70.4001817315319
 20
-192.0044731507836
 30
0.0
 10
70.17022160789148
 20
-192.4554361498028
 30
0.0
 10
70.16798229582606
 20
-192.9243136453453
 30
0.0
 10
70.16798229582606
 20
-193.3928466313393
 30
0.0
 10
70.4001817315319
 20
-193.8482882544893
 30
0.0
 10
70.75847166199789
 20
-194.2820257760823
 30
0.0
  0
SPLINE
  5
42F
330
1F
100
AcDbEntity
  8
Capa 1
 62
     7
420
 16777215
370
     9
100
AcDbSpline
210
0.0
220
0.0
230
1.0
 70
     8
 71
     3
 72
    11
 73
     7
 74
     0
 42
0.0000000001
 43
0.0000000001
 40
0.0
 40
0.0
 40
0.0
 40
0.0
 40
1.0
 40
1.0
 40
1.0
 40
2.0
 40
2.0
 40
2.0
 40
2.0
 10
70.75847166199789
 20
-201.8143825450325
 30
0.0
 10
70.4001817315319
 20
-202.2474310475284
 30
0.0
 10
70.17022160789148
 20
-202.6987385560961
 30
0.0
 10
70.16798229582606
 20
-203.1676160516387
 30
0.0
 10
70.16798229582606
 20
-203.6364935471812
 30
0.0
 10
70.4001817315319
 20
-204.0922796798797
 30
0.0
 10
70.75847166199789
 20
-204.5253281823756
 30
0.0
  0
SPLINE
  5
430
330
1F
100
AcDbEntity
  8
Capa 1
 62
     7
420
 16777215
370
     9
100
AcDbSpline
210
0.0
220
0.0
230
1.0
 70
     8
 71
     3
 72
    11
 73
     7
 74
     0
 42
0.0000000001
 43
0.0000000001
 40
0.0
 40
0.0
 40
0.0
 40
0.0
 40
1.0
 40
1.0
 40
1.0
 40
2.0
 40
2.0
 40
2.0
 40
2.0
 10
73.7172919195047
 20
-204.5253281823756
 30
0.0
 10
74.07558184997069
 20
-204.0922796798797
 30
0.0
 10
74.30760903090227
 20
-203.6364935471812
 30
0.0
 10
74.30760903090227
 20
-203.1676160516387
 30
0.0
 10
74.30760903090227
 20
-202.6987385560961
 30
0.0
 10
74.0778211620361
 20
-202.2474310475284
 30
0.0
 10
73.7172919195047
 20
-201.8143825450325
 30
0.0
  0
SPLINE
  5
431
330
1F
100
AcDbEntity
  8
Capa 1
 62
     7
420
 16777215
370
     9
100
AcDbSpline
210
0.0
220
0.0
230
1.0
 70
     8
 71
     3
 72
    11
 73
     7
 74
     0
 42
0.0000000001
 43
0.0000000001
 40
0.0
 40
0.0
 40
0.0
 40
0.0
 40
1.0
 40
1.0
 40
1.0
 40
2.0
 40
2.0
 40
2.0
 40
2.0
 10
70.75847166199789
 20
-195.3341579372776
 30
0.0
 10
70.40242104359731
 20
-196.1968098467841
 30
0.0
 10
70.16798229582606
 20
-197.1169948508944
 30
0.0
 10
70.16798229582606
 20
-198.0506157273971
 30
0.0
 10
70.17022160789148
 20
-198.987681699385
 30
0.0
 10
70.40689966772814
 20
-199.9123453276261
 30
0.0
 10
70.75847166199789
 20
-200.7570827406093
 30
0.0
  0
SPLINE
  5
432
330
1F
100
AcDbEntity
  8
Capa 1
 62
     7
420
 16777215
370
     9
100
AcDbSpline
210
0.0
220
0.0
230
1.0
 70
     8
 71
     3
 72
    11
 73
     7
 74
     0
 42
0.0000000001
 43
0.0000000001
 40
0.0
 40
0.0
 40
0.0
 40
0.0
 40
1.0
 40
1.0
 40
1.0
 40
2.0
 40
2.0
 40
2.0
 40
2.0
 10
73.7172919195047
 20
-200.7570827406093
 30
0.0
 10
74.06886391377445
 20
-199.9123453276261
 30
0.0
 10
74.30760903090227
 20
-198.987681699385
 30
0.0
 10
74.30760903090227
 20
-198.0506157273971
 30
0.0
 10
74.30967608819341
 20
-197.1169948508944
 30
0.0
 10
74.07558184997069
 20
-196.1968098467841
 30
0.0
 10
73.7172919195047
 20
-195.3341579372776
 30
0.0
  0
SPLINE
  5
433
330
1F
100
AcDbEntity
  8
Capa 1
 62
     7
420
 16777215
370
     9
100
AcDbSpline
210
0.0
220
0.0
230
1.0
 70
     8
 71
     3
 72
    17
 73
    13
 74
     0
 42
0.0000000001
 43
0.0000000001
 40
0.0
 40
0.0
 40
0.0
 40
0.0
 40
1.0
 40
1.0
 40
1.0
 40
2.0
 40
2.0
 40
2.0
 40
3.0
 40
3.0
 40
3.0
 40
4.0
 40
4.0
 40
4.0
 40
4.0
 10
77.8725938390388
 20
-203.1720946757695
 30
0.0
 10
77.87483315110421
 20
-203.1720946757695
 30
0.0
 10
77.87896726568651
 20
-203.1676160516387
 30
0.0
 10
77.89016382601358
 20
-203.1631374275078
 30
0.0
 10
77.94976397790839
 20
-203.1190402052966
 30
0.0
 10
78.14889049695584
 20
-202.9460964119371
 30
0.0
 10
78.40985647996351
 20
-202.6853026837037
 30
0.0
 10
78.67082246297119
 20
-202.4286430700526
 30
0.0
 10
78.98914928580827
 20
-202.0841335215276
 30
0.0
 10
79.31436629961586
 20
-201.6817463688504
 30
0.0
 10
79.96893444181333
 20
-200.8718044202682
 30
0.0
 10
80.65226913131264
 20
-199.814504615845
 30
0.0
 10
81.19177108430276
 20
-198.6207790302059
 30
0.0
  0
SPLINE
  5
434
330
1F
100
AcDbEntity
  8
Capa 1
 62
     7
420
 16777215
370
     9
100
AcDbSpline
210
0.0
220
0.0
230
1.0
 70
     8
 71
     3
 72
    11
 73
     7
 74
     0
 42
0.0000000001
 43
0.0000000001
 40
0.0
 40
0.0
 40
0.0
 40
0.0
 40
1.0
 40
1.0
 40
1.0
 40
2.0
 40
2.0
 40
2.0
 40
2.0
 10
70.75847166199789
 20
-195.3341579372776
 30
0.0
 10
70.40242104359731
 20
-196.1968098467841
 30
0.0
 10
70.16798229582606
 20
-197.1169948508944
 30
0.0
 10
70.16798229582606
 20
-198.0506157273971
 30
0.0
 10
70.17022160789148
 20
-198.987681699385
 30
0.0
 10
70.40689966772814
 20
-199.9123453276261
 30
0.0
 10
70.75847166199789
 20
-200.7570827406093
 30
0.0
  0
SPLINE
  5
435
330
1F
100
AcDbEntity
  8
Capa 1
 62
     7
420
 16777215
370
     9
100
AcDbSpline
210
0.0
220
0.0
230
1.0
 70
     8
 71
     3
 72
    11
 73
     7
 74
     0
 42
0.0000000001
 43
0.0000000001
 40
0.0
 40
0.0
 40
0.0
 40
0.0
 40
1.0
 40
1.0
 40
1.0
 40
2.0
 40
2.0
 40
2.0
 40
2.0
 10
70.75847166199789
 20
-201.8143825450325
 30
0.0
 10
70.4001817315319
 20
-202.2474310475284
 30
0.0
 10
70.17022160789148
 20
-202.6987385560961
 30
0.0
 10
70.16798229582606
 20
-203.1676160516387
 30
0.0
 10
70.16798229582606
 20
-203.6364935471812
 30
0.0
 10
70.4001817315319
 20
-204.0922796798797
 30
0.0
 10
70.75847166199789
 20
-204.5253281823756
 30
0.0
  0
SPLINE
  5
436
330
1F
100
AcDbEntity
  8
Capa 1
 62
     7
420
 16777215
370
     9
100
AcDbSpline
210
0.0
220
0.0
230
1.0
 70
     8
 71
     3
 72
     8
 73
     4
 74
     0
 42
0.0000000001
 43
0.0000000001
 40
0.0
 40
0.0
 40
0.0
 40
0.0
 40
1.0
 40
1.0
 40
1.0
 40
1.0
 10
74.70345050215748
 20
-191.8976751907409
 30
0.0
 10
74.8980983970741
 20
-190.6636419879244
 30
0.0
 10
74.99766165659781
 20
-189.4216850654918
 30
0.0
 10
74.99766165659781
 20
-188.169737366152
 30
0.0
  0
SPLINE
  5
437
330
1F
100
AcDbEntity
  8
Capa 1
 62
     7
420
 16777215
370
     9
100
AcDbSpline
210
0.0
220
0.0
230
1.0
 70
     8
 71
     3
 72
    11
 73
     7
 74
     0
 42
0.0000000001
 43
0.0000000001
 40
0.0
 40
0.0
 40
0.0
 40
0.0
 40
1.0
 40
1.0
 40
1.0
 40
2.0
 40
2.0
 40
2.0
 40
2.0
 10
73.7172919195047
 20
-200.7570827406093
 30
0.0
 10
74.06886391377445
 20
-199.9123453276261
 30
0.0
 10
74.30760903090227
 20
-198.987681699385
 30
0.0
 10
74.30760903090227
 20
-198.0506157273971
 30
0.0
 10
74.30967608819341
 20
-197.1169948508944
 30
0.0
 10
74.07558184997069
 20
-196.1968098467841
 30
0.0
 10
73.7172919195047
 20
-195.3341579372776
 30
0.0
  0
SPLINE
  5
438
330
1F
100
AcDbEntity
  8
Capa 1
 62
     7
420
 16777215
370
     9
100
AcDbSpline
210
0.0
220
0.0
230
1.0
 70
     8
 71
     3
 72
    11
 73
     7
 74
     0
 42
0.0000000001
 43
0.0000000001
 40
0.0
 40
0.0
 40
0.0
 40
0.0
 40
1.0
 40
1.0
 40
1.0
 40
2.0
 40
2.0
 40
2.0
 40
2.0
 10
73.7172919195047
 20
-204.5253281823756
 30
0.0
 10
74.07558184997069
 20
-204.0922796798797
 30
0.0
 10
74.30760903090227
 20
-203.6364935471812
 30
0.0
 10
74.30760903090227
 20
-203.1676160516387
 30
0.0
 10
74.30760903090227
 20
-202.6987385560961
 30
0.0
 10
74.0778211620361
 20
-202.2474310475284
 30
0.0
 10
73.7172919195047
 20
-201.8143825450325
 30
0.0
  0
SPLINE
  5
439
330
1F
100
AcDbEntity
  8
Capa 1
 62
     7
420
 16777215
370
     9
100
AcDbSpline
210
0.0
220
0.0
230
1.0
 70
     8
 71
     3
 72
    11
 73
     7
 74
     0
 42
0.0000000001
 43
0.0000000001
 40
0.0
 40
0.0
 40
0.0
 40
0.0
 40
1.0
 40
1.0
 40
1.0
 40
2.0
 40
2.0
 40
2.0
 40
2.0
 10
70.75847166199789
 20
-201.8143825450325
 30
0.0
 10
70.4001817315319
 20
-202.2474310475284
 30
0.0
 10
70.17022160789148
 20
-202.6987385560961
 30
0.0
 10
70.16798229582606
 20
-203.1676160516387
 30
0.0
 10
70.16798229582606
 20
-203.6364935471812
 30
0.0
 10
70.4001817315319
 20
-204.0922796798797
 30
0.0
 10
70.75847166199789
 20
-204.5253281823756
 30
0.0
  0
SPLINE
  5
43A
330
1F
100
AcDbEntity
  8
Capa 1
 62
     7
420
 16777215
370
     9
100
AcDbSpline
210
0.0
220
0.0
230
1.0
 70
     8
 71
     3
 72
    11
 73
     7
 74
     0
 42
0.0000000001
 43
0.0000000001
 40
0.0
 40
0.0
 40
0.0
 40
0.0
 40
1.0
 40
1.0
 40
1.0
 40
2.0
 40
2.0
 40
2.0
 40
2.0
 10
73.7172919195047
 20
-204.5253281823756
 30
0.0
 10
74.07558184997069
 20
-204.0922796798797
 30
0.0
 10
74.30760903090227
 20
-203.6364935471812
 30
0.0
 10
74.30760903090227
 20
-203.1676160516387
 30
0.0
 10
74.30760903090227
 20
-202.6987385560961
 30
0.0
 10
74.0778211620361
 20
-202.2474310475284
 30
0.0
 10
73.7172919195047
 20
-201.8143825450325
 30
0.0
  0
SPLINE
  5
43B
330
1F
100
AcDbEntity
  8
Capa 1
 62
     7
420
 16777215
370
     9
100
AcDbSpline
210
0.0
220
0.0
230
1.0
 70
     8
 71
     3
 72
    11
 73
     7
 74
     0
 42
0.0000000001
 43
0.0000000001
 40
0.0
 40
0.0
 40
0.0
 40
0.0
 40
1.0
 40
1.0
 40
1.0
 40
2.0
 40
2.0
 40
2.0
 40
2.0
 10
70.75847166199789
 20
-195.3341579372776
 30
0.0
 10
70.40242104359731
 20
-196.1968098467841
 30
0.0
 10
70.16798229582606
 20
-197.1169948508944
 30
0.0
 10
70.16798229582606
 20
-198.0506157273971
 30
0.0
 10
70.17022160789148
 20
-198.987681699385
 30
0.0
 10
70.40689966772814
 20
-199.9123453276261
 30
0.0
 10
70.75847166199789
 20
-200.7570827406093
 30
0.0
  0
SPLINE
  5
43C
330
1F
100
AcDbEntity
  8
Capa 1
 62
     7
420
 16777215
370
     9
100
AcDbSpline
210
0.0
220
0.0
230
1.0
 70
     8
 71
     3
 72
    11
 73
     7
 74
     0
 42
0.0000000001
 43
0.0000000001
 40
0.0
 40
0.0
 40
0.0
 40
0.0
 40
1.0
 40
1.0
 40
1.0
 40
2.0
 40
2.0
 40
2.0
 40
2.0
 10
73.7172919195047
 20
-200.7570827406093
 30
0.0
 10
74.06886391377445
 20
-199.9123453276261
 30
0.0
 10
74.30760903090227
 20
-198.987681699385
 30
0.0
 10
74.30760903090227
 20
-198.0506157273971
 30
0.0
 10
74.30967608819341
 20
-197.1169948508944
 30
0.0
 10
74.07558184997069
 20
-196.1968098467841
 30
0.0
 10
73.7172919195047
 20
-195.3341579372776
 30
0.0
  0
POLYLINE
  5
43D
330
1F
100
AcDbEntity
  8
Capa 1
 62
     7
420
 16777215
370
     9
100
AcDb2dPolyline
 66
     1
 10
0.0
 20
0.0
 30
0.0
  0
VERTEX
  5
43E
330
43D
100
AcDbEntity
  8
Capa 1
 62
     7
420
 16777215
370
     9
100
AcDbVertex
100
AcDb2dVertex
 10
62.48111299436236
 20
-85.84247773461577
 30
0.0
  0
VERTEX
  5
43F
330
43D
100
AcDbEntity
  8
Capa 1
 62
     7
420
 16777215
370
     9
100
AcDbVertex
100
AcDb2dVertex
 10
53.8067070720518
 20
-85.84247773461577
 30
0.0
  0
SEQEND
  5
440
330
43D
100
AcDbEntity
  8
Capa 1
370
     9
  0
POLYLINE
  5
441
330
1F
100
AcDbEntity
  8
Capa 1
 62
     7
420
 16777215
370
     9
100
AcDb2dPolyline
 66
     1
 10
0.0
 20
0.0
 30
0.0
  0
VERTEX
  5
442
330
441
100
AcDbEntity
  8
Capa 1
 62
     7
420
 16777215
370
     9
100
AcDbVertex
100
AcDb2dVertex
 10
53.01812471547811
 20
-86.6295097982211
 30
0.0
  0
VERTEX
  5
443
330
441
100
AcDbEntity
  8
Capa 1
 62
     7
420
 16777215
370
     9
100
AcDbVertex
100
AcDb2dVertex
 10
53.01812471547811
 20
-92.93661835784224
 30
0.0
  0
SEQEND
  5
444
330
441
100
AcDbEntity
  8
Capa 1
370
     9
  0
POLYLINE
  5
445
330
1F
100
AcDbEntity
  8
Capa 1
 62
     7
420
 16777215
370
     9
100
AcDb2dPolyline
 66
     1
 10
0.0
 20
0.0
 30
0.0
  0
VERTEX
  5
446
330
445
100
AcDbEntity
  8
Capa 1
 62
     7
420
 16777215
370
     9
100
AcDbVertex
100
AcDb2dVertex
 10
53.8067070720518
 20
-93.72830130035265
 30
0.0
  0
VERTEX
  5
447
330
445
100
AcDbEntity
  8
Capa 1
 62
     7
420
 16777215
370
     9
100
AcDbVertex
100
AcDb2dVertex
 10
62.48111299436236
 20
-93.72830130035265
 30
0.0
  0
SEQEND
  5
448
330
445
100
AcDbEntity
  8
Capa 1
370
     9
  0
POLYLINE
  5
449
330
1F
100
AcDbEntity
  8
Capa 1
 62
     7
420
 16777215
370
     9
100
AcDb2dPolyline
 66
     1
 10
0.0
 20
0.0
 30
0.0
  0
VERTEX
  5
44A
330
449
100
AcDbEntity
  8
Capa 1
 62
     7
420
 16777215
370
     9
100
AcDbVertex
100
AcDb2dVertex
 10
53.8067070720518
 20
-93.72830130035265
 30
0.0
  0
VERTEX
  5
44B
330
449
100
AcDbEntity
  8
Capa 1
 62
     7
420
 16777215
370
     9
100
AcDbVertex
100
AcDb2dVertex
 10
53.01812471547811
 20
-92.93661835784224
 30
0.0
  0
SEQEND
  5
44C
330
449
100
AcDbEntity
  8
Capa 1
370
     9
  0
POLYLINE
  5
44D
330
1F
100
AcDbEntity
  8
Capa 1
 62
     7
420
 16777215
370
     9
100
AcDb2dPolyline
 66
     1
 10
0.0
 20
0.0
 30
0.0
  0
VERTEX
  5
44E
330
44D
100
AcDbEntity
  8
Capa 1
 62
     7
420
 16777215
370
     9
100
AcDbVertex
100
AcDb2dVertex
 10
53.8067070720518
 20
-85.84247773461577
 30
0.0
  0
VERTEX
  5
44F
330
44D
100
AcDbEntity
  8
Capa 1
 62
     7
420
 16777215
370
     9
100
AcDbVertex
100
AcDb2dVertex
 10
53.01812471547811
 20
-86.6295097982211
 30
0.0
  0
SEQEND
  5
450
330
44D
100
AcDbEntity
  8
Capa 1
370
     9
  0
POLYLINE
  5
451
330
1F
100
AcDbEntity
  8
Capa 1
 62
     7
420
 16777215
370
     9
100
AcDb2dPolyline
 66
     1
 10
0.0
 20
0.0
 30
0.0
  0
VERTEX
  5
452
330
451
100
AcDbEntity
  8
Capa 1
 62
     7
420
 16777215
370
     9
100
AcDbVertex
100
AcDb2dVertex
 10
53.8067070720518
 20
-93.72830130035265
 30
0.0
  0
VERTEX
  5
453
330
451
100
AcDbEntity
  8
Capa 1
 62
     7
420
 16777215
370
     9
100
AcDbVertex
100
AcDb2dVertex
 10
53.8067070720518
 20
-85.84247773461577
 30
0.0
  0
SEQEND
  5
454
330
451
100
AcDbEntity
  8
Capa 1
370
     9
  0
POLYLINE
  5
455
330
1F
100
AcDbEntity
  8
Capa 1
 62
     7
420
 16777215
370
     9
100
AcDb2dPolyline
 66
     1
 10
0.0
 20
0.0
 30
0.0
  0
VERTEX
  5
456
330
455
100
AcDbEntity
  8
Capa 1
 62
     7
420
 16777215
370
     9
100
AcDbVertex
100
AcDb2dVertex
 10
62.48111299436236
 20
-142.9237480653975
 30
0.0
  0
VERTEX
  5
457
330
455
100
AcDbEntity
  8
Capa 1
 62
     7
420
 16777215
370
     9
100
AcDbVertex
100
AcDb2dVertex
 10
53.8067070720518
 20
-142.9237480653975
 30
0.0
  0
SEQEND
  5
458
330
455
100
AcDbEntity
  8
Capa 1
370
     9
  0
POLYLINE
  5
459
330
1F
100
AcDbEntity
  8
Capa 1
 62
     7
420
 16777215
370
     9
100
AcDb2dPolyline
 66
     1
 10
0.0
 20
0.0
 30
0.0
  0
VERTEX
  5
45A
330
459
100
AcDbEntity
  8
Capa 1
 62
     7
420
 16777215
370
     9
100
AcDbVertex
100
AcDb2dVertex
 10
53.01812471547811
 20
-142.1363714922437
 30
0.0
  0
VERTEX
  5
45B
330
459
100
AcDbEntity
  8
Capa 1
 62
     7
420
 16777215
370
     9
100
AcDbVertex
100
AcDb2dVertex
 10
53.01812471547811
 20
-135.824956563266
 30
0.0
  0
SEQEND
  5
45C
330
459
100
AcDbEntity
  8
Capa 1
370
     9
  0
POLYLINE
  5
45D
330
1F
100
AcDbEntity
  8
Capa 1
 62
     7
420
 16777215
370
     9
100
AcDb2dPolyline
 66
     1
 10
0.0
 20
0.0
 30
0.0
  0
VERTEX
  5
45E
330
45D
100
AcDbEntity
  8
Capa 1
 62
     7
420
 16777215
370
     9
100
AcDbVertex
100
AcDb2dVertex
 10
53.8067070720518
 20
-135.0377522448864
 30
0.0
  0
VERTEX
  5
45F
330
45D
100
AcDbEntity
  8
Capa 1
 62
     7
420
 16777215
370
     9
100
AcDbVertex
100
AcDb2dVertex
 10
62.48111299436236
 20
-135.0377522448864
 30
0.0
  0
SEQEND
  5
460
330
45D
100
AcDbEntity
  8
Capa 1
370
     9
  0
POLYLINE
  5
461
330
1F
100
AcDbEntity
  8
Capa 1
 62
     7
420
 16777215
370
     9
100
AcDb2dPolyline
 66
     1
 10
0.0
 20
0.0
 30
0.0
  0
VERTEX
  5
462
330
461
100
AcDbEntity
  8
Capa 1
 62
     7
420
 16777215
370
     9
100
AcDbVertex
100
AcDb2dVertex
 10
53.8067070720518
 20
-135.0377522448864
 30
0.0
  0
VERTEX
  5
463
330
461
100
AcDbEntity
  8
Capa 1
 62
     7
420
 16777215
370
     9
100
AcDbVertex
100
AcDb2dVertex
 10
53.01812471547811
 20
-135.824956563266
 30
0.0
  0
SEQEND
  5
464
330
461
100
AcDbEntity
  8
Capa 1
370
     9
  0
POLYLINE
  5
465
330
1F
100
AcDbEntity
  8
Capa 1
 62
     7
420
 16777215
370
     9
100
AcDb2dPolyline
 66
     1
 10
0.0
 20
0.0
 30
0.0
  0
VERTEX
  5
466
330
465
100
AcDbEntity
  8
Capa 1
 62
     7
420
 16777215
370
     9
100
AcDbVertex
100
AcDb2dVertex
 10
53.8067070720518
 20
-142.9237480653975
 30
0.0
  0
VERTEX
  5
467
330
465
100
AcDbEntity
  8
Capa 1
 62
     7
420
 16777215
370
     9
100
AcDbVertex
100
AcDb2dVertex
 10
53.01812471547811
 20
-142.1363714922437
 30
0.0
  0
SEQEND
  5
468
330
465
100
AcDbEntity
  8
Capa 1
370
     9
  0
POLYLINE
  5
469
330
1F
100
AcDbEntity
  8
Capa 1
 62
     7
420
 16777215
370
     9
100
AcDb2dPolyline
 66
     1
 10
0.0
 20
0.0
 30
0.0
  0
VERTEX
  5
46A
330
469
100
AcDbEntity
  8
Capa 1
 62
     7
420
 16777215
370
     9
100
AcDbVertex
100
AcDb2dVertex
 10
53.8067070720518
 20
-135.0377522448864
 30
0.0
  0
VERTEX
  5
46B
330
469
100
AcDbEntity
  8
Capa 1
 62
     7
420
 16777215
370
     9
100
AcDbVertex
100
AcDb2dVertex
 10
53.8067070720518
 20
-142.9237480653975
 30
0.0
  0
SEQEND
  5
46C
330
469
100
AcDbEntity
  8
Capa 1
370
     9
  0
POLYLINE
  5
46D
330
1F
100
AcDbEntity
  8
Capa 1
 62
     7
420
 16777215
370
     9
100
AcDb2dPolyline
 66
     1
 10
0.0
 20
0.0
 30
0.0
  0
VERTEX
  5
46E
330
46D
100
AcDbEntity
  8
Capa 1
 62
     7
420
 16777215
370
     9
100
AcDbVertex
100
AcDb2dVertex
 10
62.48111299436236
 20
-202.2563882957901
 30
0.0
  0
VERTEX
  5
46F
330
46D
100
AcDbEntity
  8
Capa 1
 62
     7
420
 16777215
370
     9
100
AcDbVertex
100
AcDb2dVertex
 10
53.8067070720518
 20
-202.2563882957901
 30
0.0
  0
SEQEND
  5
470
330
46D
100
AcDbEntity
  8
Capa 1
370
     9
  0
POLYLINE
  5
471
330
1F
100
AcDbEntity
  8
Capa 1
 62
     7
420
 16777215
370
     9
100
AcDb2dPolyline
 66
     1
 10
0.0
 20
0.0
 30
0.0
  0
VERTEX
  5
472
330
471
100
AcDbEntity
  8
Capa 1
 62
     7
420
 16777215
370
     9
100
AcDbVertex
100
AcDb2dVertex
 10
53.01812471547811
 20
-201.4691839774105
 30
0.0
  0
VERTEX
  5
473
330
471
100
AcDbEntity
  8
Capa 1
 62
     7
420
 16777215
370
     9
100
AcDbVertex
100
AcDb2dVertex
 10
53.01812471547811
 20
-195.1619031630151
 30
0.0
  0
SEQEND
  5
474
330
471
100
AcDbEntity
  8
Capa 1
370
     9
  0
POLYLINE
  5
475
330
1F
100
AcDbEntity
  8
Capa 1
 62
     7
420
 16777215
370
     9
100
AcDb2dPolyline
 66
     1
 10
0.0
 20
0.0
 30
0.0
  0
VERTEX
  5
476
330
475
100
AcDbEntity
  8
Capa 1
 62
     7
420
 16777215
370
     9
100
AcDbVertex
100
AcDb2dVertex
 10
53.8067070720518
 20
-194.3702202205047
 30
0.0
  0
VERTEX
  5
477
330
475
100
AcDbEntity
  8
Capa 1
 62
     7
420
 16777215
370
     9
100
AcDbVertex
100
AcDb2dVertex
 10
62.48111299436236
 20
-194.3702202205047
 30
0.0
  0
SEQEND
  5
478
330
475
100
AcDbEntity
  8
Capa 1
370
     9
  0
POLYLINE
  5
479
330
1F
100
AcDbEntity
  8
Capa 1
 62
     7
420
 16777215
370
     9
100
AcDb2dPolyline
 66
     1
 10
0.0
 20
0.0
 30
0.0
  0
VERTEX
  5
47A
330
479
100
AcDbEntity
  8
Capa 1
 62
     7
420
 16777215
370
     9
100
AcDbVertex
100
AcDb2dVertex
 10
53.8067070720518
 20
-194.3702202205047
 30
0.0
  0
VERTEX
  5
47B
330
479
100
AcDbEntity
  8
Capa 1
 62
     7
420
 16777215
370
     9
100
AcDbVertex
100
AcDb2dVertex
 10
53.01812471547811
 20
-195.1619031630151
 30
0.0
  0
SEQEND
  5
47C
330
479
100
AcDbEntity
  8
Capa 1
370
     9
  0
POLYLINE
  5
47D
330
1F
100
AcDbEntity
  8
Capa 1
 62
     7
420
 16777215
370
     9
100
AcDb2dPolyline
 66
     1
 10
0.0
 20
0.0
 30
0.0
  0
VERTEX
  5
47E
330
47D
100
AcDbEntity
  8
Capa 1
 62
     7
420
 16777215
370
     9
100
AcDbVertex
100
AcDb2dVertex
 10
53.8067070720518
 20
-202.2563882957901
 30
0.0
  0
VERTEX
  5
47F
330
47D
100
AcDbEntity
  8
Capa 1
 62
     7
420
 16777215
370
     9
100
AcDbVertex
100
AcDb2dVertex
 10
53.01812471547811
 20
-201.4691839774105
 30
0.0
  0
SEQEND
  5
480
330
47D
100
AcDbEntity
  8
Capa 1
370
     9
  0
POLYLINE
  5
481
330
1F
100
AcDbEntity
  8
Capa 1
 62
     7
420
 16777215
370
     9
100
AcDb2dPolyline
 66
     1
 10
0.0
 20
0.0
 30
0.0
  0
VERTEX
  5
482
330
481
100
AcDbEntity
  8
Capa 1
 62
     7
420
 16777215
370
     9
100
AcDbVertex
100
AcDb2dVertex
 10
53.8067070720518
 20
-194.3702202205047
 30
0.0
  0
VERTEX
  5
483
330
481
100
AcDbEntity
  8
Capa 1
 62
     7
420
 16777215
370
     9
100
AcDbVertex
100
AcDb2dVertex
 10
53.8067070720518
 20
-202.2563882957901
 30
0.0
  0
SEQEND
  5
484
330
481
100
AcDbEntity
  8
Capa 1
370
     9
  0
POLYLINE
  5
485
330
1F
100
AcDbEntity
  8
Capa 1
 62
     7
420
 16777215
370
     9
100
AcDb2dPolyline
 66
     1
 10
0.0
 20
0.0
 30
0.0
  0
VERTEX
  5
486
330
485
100
AcDbEntity
  8
Capa 1
 62
     7
420
 16777215
370
     9
100
AcDbVertex
100
AcDb2dVertex
 10
84.4604776807078
 20
-69.31411537980689
 30
0.0
  0
VERTEX
  5
487
330
485
100
AcDbEntity
  8
Capa 1
 62
     7
420
 16777215
370
     9
100
AcDbVertex
100
AcDb2dVertex
 10
84.4604776807078
 20
-74.63919947135757
 30
0.0
  0
SEQEND
  5
488
330
485
100
AcDbEntity
  8
Capa 1
370
     9
  0
SPLINE
  5
489
330
1F
100
AcDbEntity
  8
Capa 1
 62
     7
420
 16777215
370
     9
100
AcDbSpline
210
0.0
220
0.0
230
1.0
 70
     8
 71
     3
 72
     8
 73
     4
 74
     0
 42
0.0000000001
 43
0.0000000001
 40
0.0
 40
0.0
 40
0.0
 40
0.0
 40
1.0
 40
1.0
 40
1.0
 40
1.0
 10
74.99766165659781
 20
-74.77631427167051
 30
0.0
 10
77.99196639760271
 20
-76.25357121574564
 30
0.0
 10
81.51268172875378
 20
-76.2005167452728
 30
0.0
 10
84.4604776807078
 20
-74.63919947135757
 30
0.0
  0
SPLINE
  5
48A
330
1F
100
AcDbEntity
  8
Capa 1
 62
     7
420
 16777215
370
     9
100
AcDbSpline
210
0.0
220
0.0
230
1.0
 70
     8
 71
     3
 72
     8
 73
     4
 74
     0
 42
0.0000000001
 43
0.0000000001
 40
0.0
 40
0.0
 40
0.0
 40
0.0
 40
1.0
 40
1.0
 40
1.0
 40
1.0
 10
83.69067109452872
 20
-96.12539873898949
 30
0.0
 10
86.68945445966445
 20
-89.9113077574701
 30
0.0
 10
86.6984117079261
 20
-82.67109508566904
 30
0.0
 10
83.71306421518285
 20
-76.448046855888
 30
0.0
  0
SPLINE
  5
48B
330
1F
100
AcDbEntity
  8
Capa 1
 62
     7
420
 16777215
370
     9
100
AcDbSpline
210
0.0
220
0.0
230
1.0
 70
     8
 71
     3
 72
     8
 73
     4
 74
     0
 42
0.0000000001
 43
0.0000000001
 40
0.0
 40
0.0
 40
0.0
 40
0.0
 40
1.0
 40
1.0
 40
1.0
 40
1.0
 10
79.64388968278
 20
-80.62780895336736
 30
0.0
 10
77.94528535377758
 20
-84.68354761337773
 30
0.0
 10
78.11116670139235
 20
-89.27896048115248
 30
0.0
 10
80.09485268179921
 20
-93.20189071020647
 30
0.0
  0
SPLINE
  5
48C
330
1F
100
AcDbEntity
  8
Capa 1
 62
     7
420
 16777215
370
     9
100
AcDbSpline
210
0.0
220
0.0
230
1.0
 70
     8
 71
     3
 72
     8
 73
     4
 74
     0
 42
0.0000000001
 43
0.0000000001
 40
0.0
 40
0.0
 40
0.0
 40
0.0
 40
1.0
 40
1.0
 40
1.0
 40
1.0
 10
80.09485268179921
 20
-93.20189071020647
 30
0.0
 10
80.78955618639984
 20
-94.67036266079423
 30
0.0
 10
82.11178383363873
 20
-95.74523245219217
 30
0.0
 10
83.69067109452872
 20
-96.12539873898949
 30
0.0
  0
SPLINE
  5
48D
330
1F
100
AcDbEntity
  8
Capa 1
 62
     7
420
 16777215
370
     9
100
AcDbSpline
210
0.0
220
0.0
230
1.0
 70
     8
 71
     3
 72
     8
 73
     4
 74
     0
 42
0.0000000001
 43
0.0000000001
 40
0.0
 40
0.0
 40
0.0
 40
0.0
 40
1.0
 40
1.0
 40
1.0
 40
1.0
 10
84.62411971625717
 20
-75.88201766766144
 30
0.0
 10
82.60270994028683
 20
-77.03646916476866
 30
0.0
 10
80.89342581528012
 20
-78.66410452677495
 30
0.0
 10
79.64388968278
 20
-80.62780895336736
 30
0.0
  0
SPLINE
  5
48E
330
1F
100
AcDbEntity
  8
Capa 1
 62
     7
420
 16777215
370
     9
100
AcDbSpline
210
0.0
220
0.0
230
1.0
 70
     8
 71
     3
 72
    14
 73
    10
 74
     0
 42
0.0000000001
 43
0.0000000001
 40
0.0
 40
0.0
 40
0.0
 40
0.0
 40
1.0
 40
1.0
 40
1.0
 40
2.0
 40
2.0
 40
2.0
 40
3.0
 40
3.0
 40
3.0
 40
3.0
 10
86.37112763682737
 20
-157.6785752643998
 30
0.0
 10
86.63657224396586
 20
-158.9387911929042
 30
0.0
 10
86.90201685110436
 20
-160.1993516309571
 30
0.0
 10
87.1562648979158
 20
-161.45991206901
 30
0.0
 10
87.27994382583627
 20
-162.0838188613888
 30
0.0
 10
87.40155569646559
 20
-162.7070366346705
 30
0.0
 10
87.56967635614578
 20
-163.3133734400744
 30
0.0
 10
87.59844290344762
 20
-163.4146592473408
 30
0.0
 10
87.62703719597519
 20
-163.5166340737042
 30
0.0
 10
87.66028236740785
 20
-163.618264390519
 30
0.0
  0
SPLINE
  5
48F
330
1F
100
AcDbEntity
  8
Capa 1
 62
     7
420
 16777215
370
     9
100
AcDbSpline
210
0.0
220
0.0
230
1.0
 70
     8
 71
     3
 72
    14
 73
    10
 74
     0
 42
0.0000000001
 43
0.0000000001
 40
0.0
 40
0.0
 40
0.0
 40
0.0
 40
1.0
 40
1.0
 40
1.0
 40
2.0
 40
2.0
 40
2.0
 40
3.0
 40
3.0
 40
3.0
 40
3.0
 10
86.37112763682737
 20
-179.0808864569659
 30
0.0
 10
86.63657224396586
 20
-177.8199815093645
 30
0.0
 10
86.90201685110436
 20
-176.5642442049909
 30
0.0
 10
87.1562648979158
 20
-175.2988606332586
 30
0.0
 10
87.27994382583627
 20
-174.6756428599769
 30
0.0
 10
87.40155569646559
 20
-174.0517360675982
 30
0.0
 10
87.56967635614578
 20
-173.4460882812913
 30
0.0
 10
87.59844290344762
 20
-173.3441134549279
 30
0.0
 10
87.62703719597519
 20
-173.242483138113
 30
0.0
 10
87.66028236740785
 20
-173.1405083117496
 30
0.0
  0
POLYLINE
  5
490
330
1F
100
AcDbEntity
  8
Capa 1
 62
     7
420
 16777215
370
     9
100
AcDb2dPolyline
 66
     1
 10
0.0
 20
0.0
 30
0.0
  0
VERTEX
  5
491
330
490
100
AcDbEntity
  8
Capa 1
 62
     7
420
 16777215
370
     9
100
AcDbVertex
100
AcDb2dVertex
 10
171.8647894535616
 20
-14.32901339702539
 30
0.0
  0
VERTEX
  5
492
330
490
100
AcDbEntity
  8
Capa 1
 62
     7
420
 16777215
370
     9
100
AcDbVertex
100
AcDb2dVertex
 10
162.4400417345636
 20
-15.15618082303387
 30
0.0
  0
SEQEND
  5
493
330
490
100
AcDbEntity
  8
Capa 1
370
     9
  0
POLYLINE
  5
494
330
1F
100
AcDbEntity
  8
Capa 1
 62
     7
420
 16777215
370
     9
100
AcDb2dPolyline
 66
     1
 10
0.0
 20
0.0
 30
0.0
  0
VERTEX
  5
495
330
494
100
AcDbEntity
  8
Capa 1
 62
     7
420
 16777215
370
     9
100
AcDbVertex
100
AcDb2dVertex
 10
162.4400417345636
 20
-15.15618082303387
 30
0.0
  0
VERTEX
  5
496
330
494
100
AcDbEntity
  8
Capa 1
 62
     7
420
 16777215
370
     9
100
AcDbVertex
100
AcDb2dVertex
 10
162.2319579672545
 20
-12.79887423725167
 30
0.0
  0
SEQEND
  5
497
330
494
100
AcDbEntity
  8
Capa 1
370
     9
  0
POLYLINE
  5
498
330
1F
100
AcDbEntity
  8
Capa 1
 62
     7
420
 16777215
370
     9
100
AcDb2dPolyline
 66
     1
 10
0.0
 20
0.0
 30
0.0
  0
VERTEX
  5
499
330
498
100
AcDbEntity
  8
Capa 1
 62
     7
420
 16777215
370
     9
100
AcDbVertex
100
AcDb2dVertex
 10
162.2319579672545
 20
-12.79887423725167
 30
0.0
  0
VERTEX
  5
49A
330
498
100
AcDbEntity
  8
Capa 1
 62
     7
420
 16777215
370
     9
100
AcDbVertex
100
AcDb2dVertex
 10
171.6594617626407
 20
-11.97187906601745
 30
0.0
  0
SEQEND
  5
49B
330
498
100
AcDbEntity
  8
Capa 1
370
     9
  0
POLYLINE
  5
49C
330
1F
100
AcDbEntity
  8
Capa 1
 62
     7
420
 16777215
370
     9
100
AcDb2dPolyline
 66
     1
 10
0.0
 20
0.0
 30
0.0
  0
VERTEX
  5
49D
330
49C
100
AcDbEntity
  8
Capa 1
 62
     7
420
 16777215
370
     9
100
AcDbVertex
100
AcDb2dVertex
 10
171.6594617626407
 20
-11.97187906601745
 30
0.0
  0
VERTEX
  5
49E
330
49C
100
AcDbEntity
  8
Capa 1
 62
     7
420
 16777215
370
     9
100
AcDbVertex
100
AcDb2dVertex
 10
171.8647894535616
 20
-14.32901339702539
 30
0.0
  0
SEQEND
  5
49F
330
49C
100
AcDbEntity
  8
Capa 1
370
     9
  0
POLYLINE
  5
4A0
330
1F
100
AcDbEntity
  8
Capa 1
 62
     7
420
 16777215
370
     9
100
AcDb2dPolyline
 66
     1
 10
0.0
 20
0.0
 30
0.0
  0
VERTEX
  5
4A1
330
4A0
100
AcDbEntity
  8
Capa 1
 62
     7
420
 16777215
370
     9
100
AcDbVertex
100
AcDb2dVertex
 10
74.99766165659781
 20
-69.31411537980689
 30
0.0
  0
VERTEX
  5
4A2
330
4A0
100
AcDbEntity
  8
Capa 1
 62
     7
420
 16777215
370
     9
100
AcDbVertex
100
AcDb2dVertex
 10
74.99766165659781
 20
-65.37344290900387
 30
0.0
  0
SEQEND
  5
4A3
330
4A0
100
AcDbEntity
  8
Capa 1
370
     9
  0
POLYLINE
  5
4A4
330
1F
100
AcDbEntity
  8
Capa 1
 62
     7
420
 16777215
370
     9
100
AcDb2dPolyline
 66
     1
 10
0.0
 20
0.0
 30
0.0
  0
VERTEX
  5
4A5
330
4A4
100
AcDbEntity
  8
Capa 1
 62
     7
420
 16777215
370
     9
100
AcDbVertex
100
AcDb2dVertex
 10
74.99766165659781
 20
-65.37344290900387
 30
0.0
  0
VERTEX
  5
4A6
330
4A4
100
AcDbEntity
  8
Capa 1
 62
     7
420
 16777215
370
     9
100
AcDbVertex
100
AcDb2dVertex
 10
84.45823836864238
 20
-65.37344290900387
 30
0.0
  0
SEQEND
  5
4A7
330
4A4
100
AcDbEntity
  8
Capa 1
370
     9
  0
POLYLINE
  5
4A8
330
1F
100
AcDbEntity
  8
Capa 1
 62
     7
420
 16777215
370
     9
100
AcDb2dPolyline
 66
     1
 10
0.0
 20
0.0
 30
0.0
  0
VERTEX
  5
4A9
330
4A8
100
AcDbEntity
  8
Capa 1
 62
     7
420
 16777215
370
     9
100
AcDbVertex
100
AcDb2dVertex
 10
84.45823836864238
 20
-65.37344290900387
 30
0.0
  0
VERTEX
  5
4AA
330
4A8
100
AcDbEntity
  8
Capa 1
 62
     7
420
 16777215
370
     9
100
AcDbVertex
100
AcDb2dVertex
 10
84.45823836864238
 20
-69.31411537980689
 30
0.0
  0
SEQEND
  5
4AB
330
4A8
100
AcDbEntity
  8
Capa 1
370
     9
  0
POLYLINE
  5
4AC
330
1F
100
AcDbEntity
  8
Capa 1
 62
     7
420
 16777215
370
     9
100
AcDb2dPolyline
 66
     1
 10
0.0
 20
0.0
 30
0.0
  0
VERTEX
  5
4AD
330
4AC
100
AcDbEntity
  8
Capa 1
 62
     7
420
 16777215
370
     9
100
AcDbVertex
100
AcDb2dVertex
 10
74.99766165659781
 20
-65.37344290900387
 30
0.0
  0
VERTEX
  5
4AE
330
4AC
100
AcDbEntity
  8
Capa 1
 62
     7
420
 16777215
370
     9
100
AcDbVertex
100
AcDb2dVertex
 10
74.99766165659781
 20
-53.54660236291544
 30
0.0
  0
SEQEND
  5
4AF
330
4AC
100
AcDbEntity
  8
Capa 1
370
     9
  0
POLYLINE
  5
4B0
330
1F
100
AcDbEntity
  8
Capa 1
 62
     7
420
 16777215
370
     9
100
AcDb2dPolyline
 66
     1
 10
0.0
 20
0.0
 30
0.0
  0
VERTEX
  5
4B1
330
4B0
100
AcDbEntity
  8
Capa 1
 62
     7
420
 16777215
370
     9
100
AcDbVertex
100
AcDb2dVertex
 10
84.45823836864238
 20
-53.54660236291544
 30
0.0
  0
VERTEX
  5
4B2
330
4B0
100
AcDbEntity
  8
Capa 1
 62
     7
420
 16777215
370
     9
100
AcDbVertex
100
AcDb2dVertex
 10
84.45823836864238
 20
-65.37344290900387
 30
0.0
  0
SEQEND
  5
4B3
330
4B0
100
AcDbEntity
  8
Capa 1
370
     9
  0
SPLINE
  5
4B4
330
1F
100
AcDbEntity
  8
Capa 1
 62
     7
420
 16777215
370
     9
100
AcDbSpline
210
0.0
220
0.0
230
1.0
 70
     8
 71
     3
 72
    26
 73
    22
 74
     0
 42
0.0000000001
 43
0.0000000001
 40
0.0
 40
0.0
 40
0.0
 40
0.0
 40
1.0
 40
1.0
 40
1.0
 40
2.0
 40
2.0
 40
2.0
 40
3.0
 40
3.0
 40
3.0
 40
4.0
 40
4.0
 40
4.0
 40
5.0
 40
5.0
 40
5.0
 40
6.0
 40
6.0
 40
6.0
 40
7.0
 40
7.0
 40
7.0
 40
7.0
 10
84.45823836864238
 20
-53.54660236291544
 30
0.0
 10
85.73430173637892
 20
-41.97642143047812
 30
0.0
 10
87.01225990663235
 20
-30.41071912217163
 30
0.0
 10
92.7755601439068
 20
-21.02093912234893
 30
0.0
 10
99.6040839052205
 20
-9.897414819574259
 30
0.0
 10
112.7314479969908
 20
-1.834513345895538
 30
0.0
 10
125.9203070431727
 20
0.9827134871675162
 30
0.0
 10
134.0958631392191
 20
2.725415038381146
 30
0.0
 10
142.2979464705019
 20
2.455491807111822
 30
0.0
 10
150.5820230743337
 20
0.9031317814582449
 30
0.0
 10
153.4018337290107
 20
0.3768934460863322
 30
0.0
 10
156.2302571224008
 20
-0.2998955619909984
 30
0.0
 10
158.4461425385135
 20
-2.020376247324767
 30
0.0
 10
159.3790743959191
 20
-2.74574110174412
 30
0.0
 10
160.2062418219276
 20
-3.65679660281844
 30
0.0
 10
160.7526339658882
 20
-4.696181910718316
 30
0.0
 10
161.3582817521952
 20
-5.846154783694711
 30
0.0
 10
161.6259656713991
 20
-7.150984698733088
 30
0.0
 10
161.811656318054
 20
-8.455470104222938
 30
0.0
 10
162.0197400853631
 20
-9.906372067835907
 30
0.0
 10
162.1255045167603
 20
-11.35262315254379
 30
0.0
 10
162.2319579672545
 20
-12.79887423725167
 30
0.0
  0
SPLINE
  5
4B5
330
1F
100
AcDbEntity
  8
Capa 1
 62
     7
420
 16777215
370
     9
100
AcDbSpline
210
0.0
220
0.0
230
1.0
 70
     8
 71
     3
 72
   116
 73
   112
 74
     0
 42
0.0000000001
 43
0.0000000001
 40
0.0
 40
0.0
 40
0.0
 40
0.0
 40
1.0
 40
1.0
 40
1.0
 40
2.0
 40
2.0
 40
2.0
 40
3.0
 40
3.0
 40
3.0
 40
4.0
 40
4.0
 40
4.0
 40
5.0
 40
5.0
 40
5.0
 40
6.0
 40
6.0
 40
6.0
 40
7.0
 40
7.0
 40
7.0
 40
8.0
 40
8.0
 40
8.0
 40
9.0
 40
9.0
 40
9.0
 40
10.0
 40
10.0
 40
10.0
 40
11.0
 40
11.0
 40
11.0
 40
12.0
 40
12.0
 40
12.0
 40
13.0
 40
13.0
 40
13.0
 40
14.0
 40
14.0
 40
14.0
 40
15.0
 40
15.0
 40
15.0
 40
16.0
 40
16.0
 40
16.0
 40
17.0
 40
17.0
 40
17.0
 40
18.0
 40
18.0
 40
18.0
 40
19.0
 40
19.0
 40
19.0
 40
20.0
 40
20.0
 40
20.0
 40
21.0
 40
21.0
 40
21.0
 40
22.0
 40
22.0
 40
22.0
 40
23.0
 40
23.0
 40
23.0
 40
24.0
 40
24.0
 40
24.0
 40
25.0
 40
25.0
 40
25.0
 40
26.0
 40
26.0
 40
26.0
 40
27.0
 40
27.0
 40
27.0
 40
28.0
 40
28.0
 40
28.0
 40
29.0
 40
29.0
 40
29.0
 40
30.0
 40
30.0
 40
30.0
 40
31.0
 40
31.0
 40
31.0
 40
32.0
 40
32.0
 40
32.0
 40
33.0
 40
33.0
 40
33.0
 40
34.0
 40
34.0
 40
34.0
 40
35.0
 40
35.0
 40
35.0
 40
36.0
 40
36.0
 40
36.0
 40
37.0
 40
37.0
 40
37.0
 40
37.0
 10
75.05312769391033
 20
-53.54660236291544
 30
0.0
 10
75.31185436485259
 20
-50.16748045620813
 30
0.0
 10
75.57471515037716
 20
-47.77486164170212
 30
0.0
 10
75.88442923450111
 20
-45.34675834369803
 30
0.0
 10
76.19397106385081
 20
-42.91848279091969
 30
0.0
 10
76.5481268797345
 20
-40.45506726419179
 30
0.0
 10
76.99478350939714
 20
-37.97373724094059
 30
0.0
 10
77.43902857222011
 20
-35.48810084833283
 30
0.0
 10
77.97663572269335
 20
-32.98472221397604
 30
0.0
 10
78.65738659057871
 20
-30.47703721026269
 30
0.0
 10
79.34072128007801
 20
-27.96917995177507
 30
0.0
 10
80.17030027292618
 20
-25.46149494806171
 30
0.0
 10
81.20072833256441
 20
-22.97585855545395
 30
0.0
 10
81.69165443921251
 20
-21.79487982311031
 30
0.0
 10
82.23115639220264
 20
-20.61837971489749
 30
0.0
 10
82.81940644630905
 20
-19.45531547907714
 30
0.0
 10
83.38336857724444
 20
-18.34513345895538
 30
0.0
 10
83.99142793039104
 20
-17.2483873112261
 30
0.0
 10
84.65512557562441
 20
-16.16025390220994
 30
0.0
 10
85.29625784542941
 20
-15.11191134604841
 30
0.0
 10
85.97959253492871
 20
-14.08578965576675
 30
0.0
 10
86.6984117079261
 20
-13.09515244898316
 30
0.0
 10
87.41499156885806
 20
-12.10003661806874
 30
0.0
 10
88.17101777309614
 20
-11.13575439174731
 30
0.0
 10
88.95615503418458
 20
-10.20265027956739
 30
0.0
 10
90.52866886842686
 20
-8.331791176302469
 30
0.0
 10
92.22710094265503
 20
-6.580304631601452
 30
0.0
 10
94.03146970305464
 20
-4.948190645464342
 30
0.0
 10
95.83135983932341
 20
-3.311770289970668
 30
0.0
 10
97.73339705672986
 20
-1.790416123684341
 30
0.0
 10
99.7170830371367
 20
-0.3882622611876567
 30
0.0
 10
102.5675550416324
 20
1.628496635877598
 30
0.0
 10
105.5818413364518
 20
3.406510415815039
 30
0.0
 10
108.7065429415734
 20
4.936821830363017
 30
0.0
 10
111.831244546695
 20
6.471611869041819
 30
0.0
 10
115.0665337168931
 20
7.754220918200334
 30
0.0
 10
118.361423038986
 20
8.775863984351174
 30
0.0
 10
120.2545030081308
 20
9.359635414326759
 30
0.0
 10
122.1696315883812
 20
9.859346514462247
 30
0.0
 10
124.0937174168932
 20
10.26638454604451
 30
0.0
 10
126.0178032454053
 20
10.67325032285252
 30
0.0
 10
127.9412000548203
 20
10.98279215220222
 30
0.0
 10
129.8587402019103
 20
11.20396728235526
 30
0.0
 10
133.1164224927626
 20
11.58430582392684
 30
0.0
 10
136.3582573443827
 20
11.70815700662157
 30
0.0
 10
139.5690863366355
 20
11.61531168329409
 30
0.0
 10
142.7802598384369
 20
11.52694498409743
 30
0.0
 10
145.9580159140313
 20
11.22170952410429
 30
0.0
 10
149.1023545634189
 20
10.74852565920523
 30
0.0
 10
149.7372856613504
 20
10.65550808110348
 30
0.0
 10
150.3701497019908
 20
10.55387776428861
 30
0.0
 10
151.0023247235341
 20
10.4432901992121
 30
0.0
 10
151.4291720541566
 20
10.36801486285939
 30
0.0
 10
151.856019384779
 20
10.29291178128094
 30
0.0
 10
152.2845892631441
 20
10.21333007557167
 30
0.0
 10
152.647357817741
 20
10.14701198748061
 30
0.0
 10
153.0235622447302
 20
10.0717366511279
 30
0.0
 10
153.4149250918546
 20
9.992154945418628
 30
0.0
 10
153.8066324485275
 20
9.912573239709356
 30
0.0
 10
154.2086750916562
 20
9.82851290986926
 30
0.0
 10
154.626565174017
 20
9.731188962410954
 30
0.0
 10
155.4826714021016
 20
9.536541067494337
 30
0.0
 10
156.3938991579501
 20
9.297795950366524
 30
0.0
 10
157.3512911933011
 20
8.992560490373387
 30
0.0
 10
158.3090277382005
 20
8.687497285154516
 30
0.0
 10
159.3149956198935
 20
8.311465112939496
 30
0.0
 10
160.3523138705022
 20
7.825017630422218
 30
0.0
 10
161.1464083798523
 20
7.453464082338023
 30
0.0
 10
161.9573838570801
 20
7.015592446162769
 30
0.0
 10
162.7673258056624
 20
6.497966849503981
 30
0.0
 10
163.5765787351475
 20
5.980513507619455
 30
0.0
 10
164.3858316646327
 20
5.383478460025659
 30
0.0
 10
165.1599446201683
 20
4.702383082591766
 30
0.0
 10
165.9316460088643
 20
4.021287705157873
 30
0.0
 10
166.6747531050327
 20
3.256131997883884
 30
0.0
 10
167.3713514121502
 20
2.389345973795025
 30
0.0
 10
167.6324896499322
 20
2.06206190269629
 30
0.0
 10
167.8843261299039
 20
1.721514213979344
 30
0.0
 10
168.1296169284537
 20
1.363224283513361
 30
0.0
 10
168.430373764316
 20
0.9208740232072815
 30
0.0
 10
168.7180392373344
 20
0.4607815211521658
 30
0.0
 10
168.9857231565383
 20
-0.0299723307216736
 30
0.0
 10
169.0828748492223
 20
-0.2025716145326904
 30
0.0
 10
169.1758924273241
 20
-0.3794772677002696
 30
0.0
 10
169.2640868717465
 20
-0.5563829208678487
 30
0.0
 10
169.4322075314267
 20
-0.8924519854539704
 30
0.0
 10
169.5872368282629
 20
-1.228693304814354
 30
0.0
 10
169.7240071190273
 20
-1.555805121138827
 30
0.0
 10
170.0385443368307
 20
-2.290127223819829
 30
0.0
 10
170.2748778871188
 20
-2.993443467133584
 30
0.0
 10
170.4626355910649
 20
-3.652317978687615
 30
0.0
 10
170.6531493713992
 20
-4.311364745015909
 30
0.0
 10
170.7943982862945
 20
-4.926142034358742
 30
0.0
 10
170.9053303609195
 20
-5.492343477359554
 30
0.0
 10
171.0176404737387
 20
-6.058372665586101
 30
0.0
 10
171.0996337462876
 20
-6.580304631601452
 30
0.0
 10
171.1706027132838
 20
-7.049182127143955
 30
0.0
 10
171.1926513243893
 20
-7.221609156180709
 30
0.0
 10
171.2167669927861
 20
-7.385251191730076
 30
0.0
 10
171.2391601134402
 20
-7.553371851410269
 30
0.0
 10
171.2612087245458
 20
-7.72149251109046
 30
0.0
 10
171.2808457688117
 20
-7.884962291865565
 30
0.0
 10
171.3032388894659
 20
-8.048604327414933
 30
0.0
 10
171.3428574875462
 20
-8.375888398513666
 30
0.0
 10
171.3783419710443
 20
-8.694559730899277
 30
0.0
 10
171.4093478304115
 20
-9.008407929605537
 30
0.0
 10
171.4734266064372
 20
-9.63214246721002
 30
0.0
 10
171.5244140196189
 20
-10.22917751480382
 30
0.0
 10
171.5705782991213
 20
-10.79968532716119
 30
0.0
 10
171.6060627826193
 20
-11.25082058095466
 30
0.0
 10
171.6391356992777
 20
-11.68421359299909
 30
0.0
 10
171.670141558645
 20
-12.10003661806874
 30
0.0
  0
SPLINE
  5
4B6
330
1F
100
AcDbEntity
  8
Capa 1
 62
     7
420
 16777215
370
     9
100
AcDbSpline
210
0.0
220
0.0
230
1.0
 70
     8
 71
     3
 72
    11
 73
     7
 74
     0
 42
0.0000000001
 43
0.0000000001
 40
0.0
 40
0.0
 40
0.0
 40
0.0
 40
1.0
 40
1.0
 40
1.0
 40
2.0
 40
2.0
 40
2.0
 40
2.0
 10
79.72812226739437
 20
-163.618264390519
 30
0.0
 10
77.10054794079431
 20
-163.6361788870423
 30
0.0
 10
74.98233098168845
 20
-165.7814398457074
 30
0.0
 10
74.99766165659781
 20
-168.4079806436619
 30
0.0
 10
75.01316458628143
 20
-171.0131618496078
 30
0.0
 10
77.12294106144843
 20
-173.1232828343234
 30
0.0
 10
79.72812226739437
 20
-173.1405083117496
 30
0.0
  0
POLYLINE
  5
4B7
330
1F
100
AcDbEntity
  8
Capa 1
 62
     7
420
 16777215
370
     9
100
AcDb2dPolyline
 66
     1
 10
0.0
 20
0.0
 30
0.0
  0
VERTEX
  5
4B8
330
4B7
100
AcDbEntity
  8
Capa 1
 62
     7
420
 16777215
370
     9
100
AcDbVertex
100
AcDb2dVertex
 10
79.72812226739437
 20
-163.618264390519
 30
0.0
  0
VERTEX
  5
4B9
330
4B7
100
AcDbEntity
  8
Capa 1
 62
     7
420
 16777215
370
     9
100
AcDbVertex
100
AcDb2dVertex
 10
167.1322617854739
 20
-163.618264390519
 30
0.0
  0
SEQEND
  5
4BA
330
4B7
100
AcDbEntity
  8
Capa 1
370
     9
  0
SPLINE
  5
4BB
330
1F
100
AcDbEntity
  8
Capa 1
 62
     7
420
 16777215
370
     9
100
AcDbSpline
210
0.0
220
0.0
230
1.0
 70
     8
 71
     3
 72
     8
 73
     4
 74
     0
 42
0.0000000001
 43
0.0000000001
 40
0.0
 40
0.0
 40
0.0
 40
0.0
 40
1.0
 40
1.0
 40
1.0
 40
1.0
 10
171.8647894535616
 20
-168.3507920586067
 30
0.0
 10
171.8647894535616
 20
-165.7366536043992
 30
0.0
 10
169.7464002396815
 20
-163.618264390519
 30
0.0
 10
167.1322617854739
 20
-163.618264390519
 30
0.0
  0
POLYLINE
  5
4BC
330
1F
100
AcDbEntity
  8
Capa 1
 62
     7
420
 16777215
370
     9
100
AcDb2dPolyline
 66
     1
 10
0.0
 20
0.0
 30
0.0
  0
VERTEX
  5
4BD
330
4BC
100
AcDbEntity
  8
Capa 1
 62
     7
420
 16777215
370
     9
100
AcDbVertex
100
AcDb2dVertex
 10
79.72812226739437
 20
-173.1405083117496
 30
0.0
  0
VERTEX
  5
4BE
330
4BC
100
AcDbEntity
  8
Capa 1
 62
     7
420
 16777215
370
     9
100
AcDbVertex
100
AcDb2dVertex
 10
167.1322617854739
 20
-173.1405083117496
 30
0.0
  0
SEQEND
  5
4BF
330
4BC
100
AcDbEntity
  8
Capa 1
370
     9
  0
SPLINE
  5
4C0
330
1F
100
AcDbEntity
  8
Capa 1
 62
     7
420
 16777215
370
     9
100
AcDbSpline
210
0.0
220
0.0
230
1.0
 70
     8
 71
     3
 72
     8
 73
     4
 74
     0
 42
0.0000000001
 43
0.0000000001
 40
0.0
 40
0.0
 40
0.0
 40
0.0
 40
1.0
 40
1.0
 40
1.0
 40
1.0
 10
167.1322617854739
 20
-173.1405083117496
 30
0.0
 10
169.7464002396815
 20
-173.1405083117496
 30
0.0
 10
171.8647894535616
 20
-171.0221190978695
 30
0.0
 10
171.8647894535616
 20
-168.4079806436619
 30
0.0
  0
POLYLINE
  5
4C1
330
1F
100
AcDbEntity
  8
Capa 1
 62
     7
420
 16777215
370
     9
100
AcDb2dPolyline
 66
     1
 10
0.0
 20
0.0
 30
0.0
  0
VERTEX
  5
4C2
330
4C1
100
AcDbEntity
  8
Capa 1
 62
     7
420
 16777215
370
     9
100
AcDbVertex
100
AcDb2dVertex
 10
171.8647894535616
 20
-168.3507920586067
 30
0.0
  0
VERTEX
  5
4C3
330
4C1
100
AcDbEntity
  8
Capa 1
 62
     7
420
 16777215
370
     9
100
AcDbVertex
100
AcDb2dVertex
 10
171.8647894535616
 20
-168.4079806436619
 30
0.0
  0
SEQEND
  5
4C4
330
4C1
100
AcDbEntity
  8
Capa 1
370
     9
  0
POLYLINE
  5
4C5
330
1F
100
AcDbEntity
  8
Capa 1
 62
     7
420
 16777215
370
     9
100
AcDb2dPolyline
 66
     1
 10
0.0
 20
0.0
 30
0.0
  0
VERTEX
  5
4C6
330
4C5
100
AcDbEntity
  8
Capa 1
 62
     7
420
 16777215
370
     9
100
AcDbVertex
100
AcDb2dVertex
 10
110.1397026634373
 20
-95.23656410379503
 30
0.0
  0
VERTEX
  5
4C7
330
4C5
100
AcDbEntity
  8
Capa 1
 62
     7
420
 16777215
370
     9
100
AcDbVertex
100
AcDb2dVertex
 10
107.2161946346543
 20
-95.23656410379503
 30
0.0
  0
SEQEND
  5
4C8
330
4C5
100
AcDbEntity
  8
Capa 1
370
     9
  0
POLYLINE
  5
4C9
330
1F
100
AcDbEntity
  8
Capa 1
 62
     7
420
 16777215
370
     9
100
AcDb2dPolyline
 66
     1
 10
0.0
 20
0.0
 30
0.0
  0
VERTEX
  5
4CA
330
4C9
100
AcDbEntity
  8
Capa 1
 62
     7
420
 16777215
370
     9
100
AcDbVertex
100
AcDb2dVertex
 10
99.33019881414315
 20
-77.29743514777634
 30
0.0
  0
VERTEX
  5
4CB
330
4C9
100
AcDbEntity
  8
Capa 1
 62
     7
420
 16777215
370
     9
100
AcDbVertex
100
AcDb2dVertex
 10
111.3027668992576
 20
-77.29743514777634
 30
0.0
  0
SEQEND
  5
4CC
330
4C9
100
AcDbEntity
  8
Capa 1
370
     9
  0
POLYLINE
  5
4CD
330
1F
100
AcDbEntity
  8
Capa 1
 62
     7
420
 16777215
370
     9
100
AcDb2dPolyline
 66
     1
 10
0.0
 20
0.0
 30
0.0
  0
VERTEX
  5
4CE
330
4CD
100
AcDbEntity
  8
Capa 1
 62
     7
420
 16777215
370
     9
100
AcDbVertex
100
AcDb2dVertex
 10
112.9326415733293
 20
-56.85475530262659
 30
0.0
  0
VERTEX
  5
4CF
330
4CD
100
AcDbEntity
  8
Capa 1
 62
     7
420
 16777215
370
     9
100
AcDbVertex
100
AcDb2dVertex
 10
112.9326415733293
 20
-74.59510224914636
 30
0.0
  0
SEQEND
  5
4D0
330
4CD
100
AcDbEntity
  8
Capa 1
370
     9
  0
POLYLINE
  5
4D1
330
1F
100
AcDbEntity
  8
Capa 1
 62
     7
420
 16777215
370
     9
100
AcDb2dPolyline
 66
     1
 10
0.0
 20
0.0
 30
0.0
  0
VERTEX
  5
4D2
330
4D1
100
AcDbEntity
  8
Capa 1
 62
     7
420
 16777215
370
     9
100
AcDbVertex
100
AcDb2dVertex
 10
112.9326415733293
 20
-74.59510224914636
 30
0.0
  0
VERTEX
  5
4D3
330
4D1
100
AcDbEntity
  8
Capa 1
 62
     7
420
 16777215
370
     9
100
AcDbVertex
100
AcDb2dVertex
 10
112.9326415733293
 20
-75.4574096491044
 30
0.0
  0
SEQEND
  5
4D4
330
4D1
100
AcDbEntity
  8
Capa 1
370
     9
  0
SPLINE
  5
4D5
330
1F
100
AcDbEntity
  8
Capa 1
 62
     7
420
 16777215
370
     9
100
AcDbSpline
210
0.0
220
0.0
230
1.0
 70
     8
 71
     3
 72
     8
 73
     4
 74
     0
 42
0.0000000001
 43
0.0000000001
 40
0.0
 40
0.0
 40
0.0
 40
0.0
 40
1.0
 40
1.0
 40
1.0
 40
1.0
 10
103.2751776543027
 20
-95.23656410379503
 30
0.0
 10
104.5047322329884
 20
-95.89543861534906
 30
0.0
 10
105.984228489129
 20
-95.89543861534906
 30
0.0
 10
107.2161946346543
 20
-95.23656410379503
 30
0.0
  0
SPLINE
  5
4D6
330
1F
100
AcDbEntity
  8
Capa 1
 62
     7
420
 16777215
370
     9
100
AcDbSpline
210
0.0
220
0.0
230
1.0
 70
     8
 71
     3
 72
     8
 73
     4
 74
     0
 42
0.0000000001
 43
0.0000000001
 40
0.0
 40
0.0
 40
0.0
 40
0.0
 40
1.0
 40
1.0
 40
1.0
 40
1.0
 10
111.3027668992576
 20
-77.29743514777634
 30
0.0
 10
112.2470675717646
 20
-77.11605087047793
 30
0.0
 10
112.9305745160382
 20
-76.28888344446945
 30
0.0
 10
112.9326415733293
 20
-75.32907984227884
 30
0.0
  0
SPLINE
  5
4D7
330
1F
100
AcDbEntity
  8
Capa 1
 62
     7
420
 16777215
370
     9
100
AcDbSpline
210
0.0
220
0.0
230
1.0
 70
     8
 71
     3
 72
    80
 73
    76
 74
     0
 42
0.0000000001
 43
0.0000000001
 40
0.0
 40
0.0
 40
0.0
 40
0.0
 40
1.0
 40
1.0
 40
1.0
 40
2.0
 40
2.0
 40
2.0
 40
3.0
 40
3.0
 40
3.0
 40
4.0
 40
4.0
 40
4.0
 40
5.0
 40
5.0
 40
5.0
 40
6.0
 40
6.0
 40
6.0
 40
7.0
 40
7.0
 40
7.0
 40
8.0
 40
8.0
 40
8.0
 40
9.0
 40
9.0
 40
9.0
 40
10.0
 40
10.0
 40
10.0
 40
11.0
 40
11.0
 40
11.0
 40
12.0
 40
12.0
 40
12.0
 40
13.0
 40
13.0
 40
13.0
 40
14.0
 40
14.0
 40
14.0
 40
15.0
 40
15.0
 40
15.0
 40
16.0
 40
16.0
 40
16.0
 40
17.0
 40
17.0
 40
17.0
 40
18.0
 40
18.0
 40
18.0
 40
19.0
 40
19.0
 40
19.0
 40
20.0
 40
20.0
 40
20.0
 40
21.0
 40
21.0
 40
21.0
 40
22.0
 40
22.0
 40
22.0
 40
23.0
 40
23.0
 40
23.0
 40
24.0
 40
24.0
 40
24.0
 40
25.0
 40
25.0
 40
25.0
 40
25.0
 10
114.6682806787982
 20
-56.38605006185835
 30
0.0
 10
114.6682806787982
 20
-56.86819117501906
 30
0.0
 10
114.6682806787982
 20
-57.35033228817978
 30
0.0
 10
114.6682806787982
 20
-57.83677977069706
 30
0.0
 10
114.6682806787982
 20
-58.78762612462602
 30
0.0
 10
114.6682806787982
 20
-59.74312335746006
 30
0.0
 10
114.6682806787982
 20
-60.69396971138901
 30
0.0
 10
114.6682806787982
 20
-61.55644936612131
 30
0.0
 10
114.6682806787982
 20
-62.4189290208536
 30
0.0
 10
114.6682806787982
 20
-63.2814086755859
 30
0.0
 10
114.6682806787982
 20
-64.05534937634728
 30
0.0
 10
114.6682806787982
 20
-64.82481145297783
 30
0.0
 10
114.6682806787982
 20
-65.59892440851347
 30
0.0
 10
114.6682806787982
 20
-66.14290498563442
 30
0.0
 10
114.6682806787982
 20
-66.68705781752963
 30
0.0
 10
114.6682806787982
 20
-67.23086613987631
 30
0.0
 10
114.6682806787982
 20
-67.71748587716786
 30
0.0
 10
114.6682806787982
 20
-68.20393335968514
 30
0.0
 10
114.6682806787982
 20
-68.69485946633323
 30
0.0
 10
114.6682806787982
 20
-69.12825247837766
 30
0.0
 10
114.6682806787982
 20
-69.56181774519635
 30
0.0
 10
114.6682806787982
 20
-69.99968938137161
 30
0.0
 10
114.6682806787982
 20
-70.42860376928522
 30
0.0
 10
114.6682806787982
 20
-70.85769041197308
 30
0.0
 10
114.6682806787982
 20
-71.28660479988669
 30
0.0
 10
114.6682806787982
 20
-71.72017006670538
 30
0.0
 10
114.6682806787982
 20
-72.15804170288064
 30
0.0
 10
114.6682806787982
 20
-72.59143471492506
 30
0.0
 10
114.6682806787982
 20
-73.03378497523114
 30
0.0
 10
114.6682806787982
 20
-73.47596298076296
 30
0.0
 10
114.6682806787982
 20
-73.91831324106903
 30
0.0
 10
114.6682806787982
 20
-74.53309053041187
 30
0.0
 10
114.6682806787982
 20
-75.14356145039814
 30
0.0
 10
114.6682806787982
 20
-75.75816648496671
 30
0.0
 10
114.6682806787982
 20
-76.38172876779693
 30
0.0
 10
114.6682806787982
 20
-77.00994192953225
 30
0.0
 10
114.6682806787982
 20
-77.63350421236247
 30
0.0
 10
114.6682806787982
 20
-78.27480873694172
 30
0.0
 10
114.6682806787982
 20
-78.9118068921644
 30
0.0
 10
114.6682806787982
 20
-79.54846053783858
 30
0.0
 10
114.6682806787982
 20
-80.20320093481031
 30
0.0
 10
114.6682806787982
 20
-80.85329045287696
 30
0.0
 10
114.6682806787982
 20
-81.50355222571787
 30
0.0
 10
114.6682806787982
 20
-82.18464760315176
 30
0.0
 10
114.6682806787982
 20
-82.86126435645483
 30
0.0
 10
114.6682806787982
 20
-83.54235973388872
 30
0.0
 10
114.6662136215071
 20
-84.00245223594384
 30
0.0
 10
114.6638020546674
 20
-84.46254473799895
 30
0.0
 10
114.6682806787982
 20
-84.92229273050555
 30
0.0
 10
114.6706922456379
 20
-85.40460609844052
 30
0.0
 10
114.6772379270599
 20
-85.88657495682698
 30
0.0
 10
114.6662136215071
 20
-86.36854381521343
 30
0.0
 10
114.6555338255028
 20
-86.85516355250496
 30
0.0
 10
114.6245279661355
 20
-87.33713241089141
 30
0.0
 10
114.5580376232702
 20
-87.81496715469557
 30
0.0
 10
114.4874131658226
 20
-88.34137774484174
 30
0.0
 10
114.3720024670667
 20
-88.86313745608282
 30
0.0
 10
114.2262749280407
 20
-89.37180580447998
 30
0.0
 10
114.120165987095
 20
-89.73440210430252
 30
0.0
 10
113.996142549626
 20
-90.0926920347685
 30
0.0
 10
113.8545491251822
 20
-90.44650334110365
 30
0.0
 10
113.7043429620253
 20
-90.81357826505703
 30
0.0
 10
113.5362223023451
 20
-91.17634681965383
 30
0.0
 10
113.348464598399
 20
-91.52567950185816
 30
0.0
 10
113.1514051366427
 20
-91.89275442581153
 30
0.0
 10
112.935053140169
 20
-92.25104435627752
 30
0.0
 10
112.6959635134927
 20
-92.5960706691253
 30
0.0
 10
112.4523952626855
 20
-92.94988197546046
 30
0.0
 10
112.1850558530301
 20
-93.2904296641774
 30
0.0
 10
111.8994574373029
 20
-93.61771373527613
 30
0.0
 10
111.6080023592508
 20
-93.95395505463651
 30
0.0
 10
111.2958767082872
 20
-94.2722818774736
 30
0.0
 10
110.9620469557664
 20
-94.56856008920509
 30
0.0
 10
110.7942708056348
 20
-94.7191107619105
 30
0.0
 10
110.6192599549841
 20
-94.86053193158001
 30
0.0
 10
110.4401149897511
 20
-94.99781898666721
 30
0.0
  0
SPLINE
  5
4D8
330
1F
100
AcDbEntity
  8
Capa 1
 62
     7
420
 16777215
370
     9
100
AcDbSpline
210
0.0
220
0.0
230
1.0
 70
     8
 71
     3
 72
    11
 73
     7
 74
     0
 42
0.0000000001
 43
0.0000000001
 40
0.0
 40
0.0
 40
0.0
 40
0.0
 40
1.0
 40
1.0
 40
1.0
 40
2.0
 40
2.0
 40
2.0
 40
2.0
 10
111.3292941344941
 20
-79.09749753881938
 30
0.0
 10
111.8222872984333
 20
-78.84979517342991
 30
0.0
 10
112.3821153147864
 20
-78.22623289059969
 30
0.0
 10
112.5919216298381
 20
-77.70877954871517
 30
0.0
 10
112.8020724544384
 20
-77.19132620683064
 30
0.0
 10
112.9326415733293
 20
-76.14298365066912
 30
0.0
 10
112.9326415733293
 20
-75.4574096491044
 30
0.0
  0
SPLINE
  5
4D9
330
1F
100
AcDbEntity
  8
Capa 1
 62
     7
420
 16777215
370
     9
100
AcDbSpline
210
0.0
220
0.0
230
1.0
 70
     8
 71
     3
 72
    17
 73
    13
 74
     0
 42
0.0000000001
 43
0.0000000001
 40
0.0
 40
0.0
 40
0.0
 40
0.0
 40
1.0
 40
1.0
 40
1.0
 40
2.0
 40
2.0
 40
2.0
 40
3.0
 40
3.0
 40
3.0
 40
4.0
 40
4.0
 40
4.0
 40
4.0
 10
107.2161946346543
 20
-95.23656410379503
 30
0.0
 10
107.2161946346543
 20
-95.23656410379503
 30
0.0
 10
107.0012206763747
 20
-95.18333737854792
 30
0.0
 10
106.6387966313264
 20
-95.13028290807507
 30
0.0
 10
106.2763725862781
 20
-95.07292206824566
 30
0.0
 10
105.7609863016848
 20
-95.01969534299856
 30
0.0
 10
105.2476670743825
 20
-95.01969534299856
 30
0.0
 10
104.730213732498
 20
-95.01969534299856
 30
0.0
 10
104.2172390147443
 20
-95.07292206824566
 30
0.0
 10
103.8499918360167
 20
-95.13028290807507
 30
0.0
 10
103.4855007336772
 20
-95.18781600267874
 30
0.0
 10
103.2751776543027
 20
-95.23656410379503
 30
0.0
 10
103.2751776543027
 20
-95.23656410379503
 30
0.0
  0
SPLINE
  5
4DA
330
1F
100
AcDbEntity
  8
Capa 1
 62
     7
420
 16777215
370
     9
100
AcDbSpline
210
0.0
220
0.0
230
1.0
 70
     8
 71
     3
 72
    11
 73
     7
 74
     0
 42
0.0000000001
 43
0.0000000001
 40
0.0
 40
0.0
 40
0.0
 40
0.0
 40
1.0
 40
1.0
 40
1.0
 40
2.0
 40
2.0
 40
2.0
 40
2.0
 10
114.4960259045357
 20
-78.15991480250864
 30
0.0
 10
114.5535589991394
 20
-77.84141572489729
 30
0.0
 10
114.5866319157978
 20
-77.33274737650015
 30
0.0
 10
114.6066134696122
 20
-76.70901283889566
 30
0.0
 10
114.6262505138782
 20
-76.08562281083971
 30
0.0
 10
114.6331407048487
 20
-75.34251571467132
 30
0.0
 10
114.6331407048487
 20
-74.59510224914636
 30
0.0
  0
SPLINE
  5
4DB
330
1F
100
AcDbEntity
  8
Capa 1
 62
     7
420
 16777215
370
     9
100
AcDbSpline
210
0.0
220
0.0
230
1.0
 70
     8
 71
     3
 72
    29
 73
    25
 74
     0
 42
0.0000000001
 43
0.0000000001
 40
0.0
 40
0.0
 40
0.0
 40
0.0
 40
1.0
 40
1.0
 40
1.0
 40
2.0
 40
2.0
 40
2.0
 40
3.0
 40
3.0
 40
3.0
 40
4.0
 40
4.0
 40
4.0
 40
5.0
 40
5.0
 40
5.0
 40
6.0
 40
6.0
 40
6.0
 40
7.0
 40
7.0
 40
7.0
 40
8.0
 40
8.0
 40
8.0
 40
8.0
 10
110.1397026634373
 20
-95.23656410379503
 30
0.0
 10
110.1397026634373
 20
-95.23656410379503
 30
0.0
 10
110.3825818951474
 20
-95.04639483300924
 30
0.0
 10
110.7233018386386
 20
-94.72341713126707
 30
0.0
 10
111.0636772725813
 20
-94.3963053149426
 30
0.0
 10
111.4994818514654
 20
-93.92725556462582
 30
0.0
 10
111.9173719338262
 20
-93.35244138291189
 30
0.0
 10
112.3331949588959
 20
-92.77297632229288
 30
0.0
 10
112.7531520985478
 20
-92.06966007897911
 30
0.0
 10
113.0986951757184
 20
-91.26040714949393
 30
0.0
 10
113.445616291083
 20
-90.45528833459105
 30
0.0
 10
113.7219129490001
 20
-89.52218422241113
 30
0.0
 10
113.8769422458363
 20
-88.54015975434066
 30
0.0
 10
113.9565239515456
 20
-88.04940590246682
 30
0.0
 10
114.0050997978876
 20
-87.5452161782005
 30
0.0
 10
114.0226697848624
 20
-87.02328421218516
 30
0.0
 10
114.0405842813857
 20
-86.50583087030063
 30
0.0
 10
114.0137125366007
 20
-85.98389890428528
 30
0.0
 10
114.0075113647273
 20
-85.46644556240075
 30
0.0
 10
113.9916639254951
 20
-84.4315388786317
 30
0.0
 10
114.0030327405965
 20
-83.4097235577066
 30
0.0
 10
114.044718395968
 20
-82.47214082139585
 30
0.0
 10
114.1246446112258
 20
-80.60128171813093
 30
0.0
 10
114.3365179835687
 20
-79.04427081357227
 30
0.0
 10
114.4960259045357
 20
-78.15991480250864
 30
0.0
  0
SPLINE
  5
4DC
330
1F
100
AcDbEntity
  8
Capa 1
 62
     7
420
 16777215
370
     9
100
AcDbSpline
210
0.0
220
0.0
230
1.0
 70
     8
 71
     3
 72
     8
 73
     4
 74
     0
 42
0.0000000001
 43
0.0000000001
 40
0.0
 40
0.0
 40
0.0
 40
0.0
 40
1.0
 40
1.0
 40
1.0
 40
1.0
 10
114.0405842813857
 20
-49.26968857275202
 30
0.0
 10
113.4345919855302
 20
-51.75980358949061
 30
0.0
 10
113.0632106922203
 20
-54.29849445257121
 30
0.0
 10
112.9326415733293
 20
-56.85475530262659
 30
0.0
  0
SPLINE
  5
4DD
330
1F
100
AcDbEntity
  8
Capa 1
 62
     7
420
 16777215
370
     9
100
AcDbSpline
210
0.0
220
0.0
230
1.0
 70
     8
 71
     3
 72
     8
 73
     4
 74
     0
 42
0.0000000001
 43
0.0000000001
 40
0.0
 40
0.0
 40
0.0
 40
0.0
 40
1.0
 40
1.0
 40
1.0
 40
1.0
 10
114.4254014470881
 20
-48.96893173688972
 30
0.0
 10
114.2438449150154
 20
-48.96893173688972
 30
0.0
 10
114.0846815035969
 20
-49.09278291958444
 30
0.0
 10
114.0405842813857
 20
-49.26968857275202
 30
0.0
  0
POLYLINE
  5
4DE
330
1F
100
AcDbEntity
  8
Capa 1
 62
     7
420
 16777215
370
     9
100
AcDb2dPolyline
 66
     1
 10
0.0
 20
0.0
 30
0.0
  0
VERTEX
  5
4DF
330
4DE
100
AcDbEntity
  8
Capa 1
 62
     7
420
 16777215
370
     9
100
AcDbVertex
100
AcDb2dVertex
 10
114.4254014470881
 20
-48.96893173688972
 30
0.0
  0
VERTEX
  5
4E0
330
4DE
100
AcDbEntity
  8
Capa 1
 62
     7
420
 16777215
370
     9
100
AcDbVertex
100
AcDb2dVertex
 10
115.1812553965519
 20
-48.96893173688972
 30
0.0
  0
SEQEND
  5
4E1
330
4DE
100
AcDbEntity
  8
Capa 1
370
     9
  0
SPLINE
  5
4E2
330
1F
100
AcDbEntity
  8
Capa 1
 62
     7
420
 16777215
370
     9
100
AcDbSpline
210
0.0
220
0.0
230
1.0
 70
     8
 71
     3
 72
     8
 73
     4
 74
     0
 42
0.0000000001
 43
0.0000000001
 40
0.0
 40
0.0
 40
0.0
 40
0.0
 40
1.0
 40
1.0
 40
1.0
 40
1.0
 10
115.561938447672
 20
-49.45985784353782
 30
0.0
 10
114.9494004703946
 20
-51.87469752392369
 30
0.0
 10
114.6486436345323
 20
-54.36033391653145
 30
0.0
 10
114.6682806787982
 20
-56.85475530262659
 30
0.0
  0
SPLINE
  5
4E3
330
1F
100
AcDbEntity
  8
Capa 1
 62
     7
420
 16777215
370
     9
100
AcDbSpline
210
0.0
220
0.0
230
1.0
 70
     8
 71
     3
 72
    11
 73
     7
 74
     0
 42
0.0000000001
 43
0.0000000001
 40
0.0
 40
0.0
 40
0.0
 40
0.0
 40
1.0
 40
1.0
 40
1.0
 40
2.0
 40
2.0
 40
2.0
 40
2.0
 10
115.561938447672
 20
-49.45985784353782
 30
0.0
 10
115.617059975436
 20
-49.24763996164643
 30
0.0
 10
115.4889024233847
 20
-49.03524982498077
 30
0.0
 10
115.2787515987845
 20
-48.98236760928219
 30
0.0
 10
115.2477457394172
 20
-48.97341036102054
 30
0.0
 10
115.2122612559192
 20
-48.96893173688972
 30
0.0
 10
115.1812553965519
 20
-48.96893173688972
 30
0.0
  0
POLYLINE
  5
4E4
330
1F
100
AcDbEntity
  8
Capa 1
 62
     7
420
 16777215
370
     9
100
AcDb2dPolyline
 66
     1
 10
0.0
 20
0.0
 30
0.0
  0
VERTEX
  5
4E5
330
4E4
100
AcDbEntity
  8
Capa 1
 62
     7
420
 16777215
370
     9
100
AcDbVertex
100
AcDb2dVertex
 10
101.7801784684786
 20
-95.23656410379503
 30
0.0
  0
VERTEX
  5
4E6
330
4E4
100
AcDbEntity
  8
Capa 1
 62
     7
420
 16777215
370
     9
100
AcDbVertex
100
AcDb2dVertex
 10
103.2751776543027
 20
-95.23656410379503
 30
0.0
  0
SEQEND
  5
4E7
330
4E4
100
AcDbEntity
  8
Capa 1
370
     9
  0
SPLINE
  5
4E8
330
1F
100
AcDbEntity
  8
Capa 1
 62
     7
420
 16777215
370
     9
100
AcDbSpline
210
0.0
220
0.0
230
1.0
 70
     8
 71
     3
 72
    11
 73
     7
 74
     0
 42
0.0000000001
 43
0.0000000001
 40
0.0
 40
0.0
 40
0.0
 40
0.0
 40
1.0
 40
1.0
 40
1.0
 40
2.0
 40
2.0
 40
2.0
 40
2.0
 10
113.7880587823169
 20
-173.1360296876188
 30
0.0
 10
113.7398274455234
 20
-173.7995550780779
 30
0.0
 10
113.6778157267889
 20
-174.463080468537
 30
0.0
 10
113.6071912693413
 20
-175.1266058589961
 30
0.0
 10
113.5382893596363
 20
-175.7636040142188
 30
0.0
 10
113.4607747112181
 20
-176.400257659893
 30
0.0
 10
113.3725802667958
 20
-177.0369113055672
 30
0.0
  0
SPLINE
  5
4E9
330
1F
100
AcDbEntity
  8
Capa 1
 62
     7
420
 16777215
370
     9
100
AcDbSpline
210
0.0
220
0.0
230
1.0
 70
     8
 71
     3
 72
    11
 73
     7
 74
     0
 42
0.0000000001
 43
0.0000000001
 40
0.0
 40
0.0
 40
0.0
 40
0.0
 40
1.0
 40
1.0
 40
1.0
 40
2.0
 40
2.0
 40
2.0
 40
2.0
 10
113.3725802667958
 20
-159.7129041484398
 30
0.0
 10
113.4631862780578
 20
-160.3674722906373
 30
0.0
 10
113.5451795506068
 20
-161.0265190569656
 30
0.0
 10
113.6137369507632
 20
-161.6855658232939
 30
0.0
 10
113.6822943509197
 20
-162.3270426026474
 30
0.0
 10
113.7418945028145
 20
-162.9726534965832
 30
0.0
 10
113.7880587823169
 20
-163.6137857663882
 30
0.0
  0
SPLINE
  5
4EA
330
1F
100
AcDbEntity
  8
Capa 1
 62
     7
420
 16777215
370
     9
100
AcDbSpline
210
0.0
220
0.0
230
1.0
 70
     8
 71
     3
 72
    14
 73
    10
 74
     0
 42
0.0000000001
 43
0.0000000001
 40
0.0
 40
0.0
 40
0.0
 40
0.0
 40
1.0
 40
1.0
 40
1.0
 40
2.0
 40
2.0
 40
2.0
 40
3.0
 40
3.0
 40
3.0
 40
3.0
 10
113.3725802667958
 20
-177.041389929698
 30
0.0
 10
113.3770588909266
 20
-176.9976372170353
 30
0.0
 10
113.2399440906136
 20
-176.745456227515
 30
0.0
 10
112.9877631010933
 20
-176.3292886928969
 30
0.0
 10
112.7135335004674
 20
-175.869368445616
 30
0.0
 10
112.3066677236594
 20
-175.2148003034185
 30
0.0
 10
111.8601833487711
 20
-174.4272514754904
 30
0.0
 10
111.6345295944872
 20
-174.0300319660411
 30
0.0
 10
111.3954399678109
 20
-173.5959499348996
 30
0.0
 10
111.1656520989447
 20
-173.1360296876188
 30
0.0
  0
SPLINE
  5
4EB
330
1F
100
AcDbEntity
  8
Capa 1
 62
     7
420
 16777215
370
     9
100
AcDbSpline
210
0.0
220
0.0
230
1.0
 70
     8
 71
     3
 72
    14
 73
    10
 74
     0
 42
0.0000000001
 43
0.0000000001
 40
0.0
 40
0.0
 40
0.0
 40
0.0
 40
1.0
 40
1.0
 40
1.0
 40
2.0
 40
2.0
 40
2.0
 40
3.0
 40
3.0
 40
3.0
 40
3.0
 10
111.1256889913158
 20
-163.6137857663882
 30
0.0
 10
111.369257242123
 20
-163.127338283871
 30
0.0
 10
111.6190266648036
 20
-162.6763752848518
 30
0.0
 10
111.8601833487711
 20
-162.2560736356513
 30
0.0
 10
112.3090792904991
 20
-161.4733479414025
 30
0.0
 10
112.7069878190455
 20
-160.8453070344414
 30
0.0
 10
112.9856960438022
 20
-160.3895209017429
 30
0.0
 10
113.2399440906136
 20
-159.9826551249349
 30
0.0
 10
113.3770588909266
 20
-159.7439100078071
 30
0.0
 10
113.3725802667958
 20
-159.708425524309
 30
0.0
  0
POLYLINE
  5
4EC
330
1F
100
AcDbEntity
  8
Capa 1
370
     0
100
AcDb2dPolyline
 66
     1
 10
0.0
 20
0.0
 30
0.0
  0
VERTEX
  5
4ED
330
4EC
100
AcDbEntity
  8
Capa 1
370
     0
100
AcDbVertex
100
AcDb2dVertex
 10
53.8067070720518
 20
-92.93661835784224
 30
0.0
  0
VERTEX
  5
4EE
330
4EC
100
AcDbEntity
  8
Capa 1
370
     0
100
AcDbVertex
100
AcDb2dVertex
 10
62.48111299436236
 20
-92.93661835784224
 30
0.0
  0
SEQEND
  5
4EF
330
4EC
100
AcDbEntity
  8
Capa 1
370
     0
  0
POLYLINE
  5
4F0
330
1F
100
AcDbEntity
  8
Capa 1
370
     0
100
AcDb2dPolyline
 66
     1
 10
0.0
 20
0.0
 30
0.0
  0
VERTEX
  5
4F1
330
4F0
100
AcDbEntity
  8
Capa 1
370
     0
100
AcDbVertex
100
AcDb2dVertex
 10
53.8067070720518
 20
-86.6295097982211
 30
0.0
  0
VERTEX
  5
4F2
330
4F0
100
AcDbEntity
  8
Capa 1
370
     0
100
AcDbVertex
100
AcDb2dVertex
 10
62.48111299436236
 20
-86.6295097982211
 30
0.0
  0
SEQEND
  5
4F3
330
4F0
100
AcDbEntity
  8
Capa 1
370
     0
  0
POLYLINE
  5
4F4
330
1F
100
AcDbEntity
  8
Capa 1
370
     0
100
AcDb2dPolyline
 66
     1
 10
0.0
 20
0.0
 30
0.0
  0
VERTEX
  5
4F5
330
4F4
100
AcDbEntity
  8
Capa 1
370
     0
100
AcDbVertex
100
AcDb2dVertex
 10
53.8067070720518
 20
-135.824956563266
 30
0.0
  0
VERTEX
  5
4F6
330
4F4
100
AcDbEntity
  8
Capa 1
370
     0
100
AcDbVertex
100
AcDb2dVertex
 10
62.48111299436236
 20
-135.824956563266
 30
0.0
  0
SEQEND
  5
4F7
330
4F4
100
AcDbEntity
  8
Capa 1
370
     0
  0
POLYLINE
  5
4F8
330
1F
100
AcDbEntity
  8
Capa 1
370
     0
100
AcDb2dPolyline
 66
     1
 10
0.0
 20
0.0
 30
0.0
  0
VERTEX
  5
4F9
330
4F8
100
AcDbEntity
  8
Capa 1
370
     0
100
AcDbVertex
100
AcDb2dVertex
 10
53.8067070720518
 20
-142.1363714922437
 30
0.0
  0
VERTEX
  5
4FA
330
4F8
100
AcDbEntity
  8
Capa 1
370
     0
100
AcDbVertex
100
AcDb2dVertex
 10
62.48111299436236
 20
-142.1363714922437
 30
0.0
  0
SEQEND
  5
4FB
330
4F8
100
AcDbEntity
  8
Capa 1
370
     0
  0
POLYLINE
  5
4FC
330
1F
100
AcDbEntity
  8
Capa 1
370
     0
100
AcDb2dPolyline
 66
     1
 10
0.0
 20
0.0
 30
0.0
  0
VERTEX
  5
4FD
330
4FC
100
AcDbEntity
  8
Capa 1
370
     0
100
AcDbVertex
100
AcDb2dVertex
 10
53.8067070720518
 20
-195.1619031630151
 30
0.0
  0
VERTEX
  5
4FE
330
4FC
100
AcDbEntity
  8
Capa 1
370
     0
100
AcDbVertex
100
AcDb2dVertex
 10
62.48111299436236
 20
-195.1619031630151
 30
0.0
  0
SEQEND
  5
4FF
330
4FC
100
AcDbEntity
  8
Capa 1
370
     0
  0
POLYLINE
  5
500
330
1F
100
AcDbEntity
  8
Capa 1
370
     0
100
AcDb2dPolyline
 66
     1
 10
0.0
 20
0.0
 30
0.0
  0
VERTEX
  5
501
330
500
100
AcDbEntity
  8
Capa 1
370
     0
100
AcDbVertex
100
AcDb2dVertex
 10
53.8067070720518
 20
-201.4691839774105
 30
0.0
  0
VERTEX
  5
502
330
500
100
AcDbEntity
  8
Capa 1
370
     0
100
AcDbVertex
100
AcDb2dVertex
 10
62.48111299436236
 20
-201.4691839774105
 30
0.0
  0
SEQEND
  5
503
330
500
100
AcDbEntity
  8
Capa 1
370
     0
  0
ENDSEC
  0
SECTION
  2
OBJECTS
  0
DICTIONARY
  5
C
330
0
100
AcDbDictionary
281
     1
  3
ACAD_GROUP
350
D
  3
ACAD_LAYOUT
350
1A
  3
ACAD_MLINESTYLE
350
17
  3
ACAD_PLOTSETTINGS
350
19
  3
ACAD_PLOTSTYLENAME
350
E
  3
ACAD_TABLESTYLE
350
504
  3
ACAD_VISUALSTYLE
350
2A
  0
DICTIONARY
  5
D
102
{ACAD_REACTORS
330
C
102
}
330
C
100
AcDbDictionary
281
     1
  0
DICTIONARY
  5
1A
102
{ACAD_REACTORS
330
C
102
}
330
C
100
AcDbDictionary
281
     1
  3
Layout1
350
1E
  3
Layout2
350
26
  3
Model
350
22
  0
DICTIONARY
  5
17
102
{ACAD_REACTORS
330
C
102
}
330
C
100
AcDbDictionary
281
     1
  3
Standard
350
18
  0
DICTIONARY
  5
19
102
{ACAD_REACTORS
330
C
102
}
330
C
100
AcDbDictionary
281
     1
  0
ACDBDICTIONARYWDFLT
  5
E
102
{ACAD_REACTORS
330
C
102
}
330
C
100
AcDbDictionary
281
     1
  3
Normal
350
F
100
AcDbDictionaryWithDefault
340
F
  0
DICTIONARY
  5
504
102
{ACAD_REACTORS
330
C
102
}
330
C
100
AcDbDictionary
281
     1
  0
DICTIONARY
  5
2A
102
{ACAD_REACTORS
330
C
102
}
330
C
100
AcDbDictionary
281
     1
  3
2dWireframe
350
2F
  3
3D Hidden
350
31
  3
3dWireframe
350
30
  3
Basic
350
32
  3
Brighten
350
36
  3
ColorChange
350
3A
  3
Conceptual
350
34
  3
Dim
350
35
  3
Facepattern
350
39
  3
Flat
350
2B
  3
FlatWithEdges
350
2C
  3
Gouraud
350
2D
  3
GouraudWithEdges
350
2E
  3
Linepattern
350
38
  3
Realistic
350
33
  3
Thicken
350
37
  0
LAYOUT
  5
1E
102
{ACAD_REACTORS
330
1A
102
}
330
1A
100
AcDbPlotSettings
  1

  2
none_device
  4

  6

 40
0.0
 41
0.0
 42
0.0
 43
0.0
 44
0.0
 45
0.0
 46
0.0
 47
0.0
 48
0.0
 49
0.0
140
0.0
141
0.0
142
1.0
143
1.0
 70
   688
 72
     0
 73
     0
 74
     5
  7

 75
    16
 76
     0
 77
     2
 78
   300
147
1.0
148
0.0
149
0.0
100
AcDbLayout
  1
Layout1
 70
     1
 71
     1
 10
0.0
 20
0.0
 11
12.0
 21
9.0
 12
0.0
 22
0.0
 32
0.0
 14
1.000000000000000E+20
 24
1.000000000000000E+20
 34
1.000000000000000E+20
 15
-1.000000000000000E+20
 25
-1.000000000000000E+20
 35
-1.000000000000000E+20
146
0.0
 13
0.0
 23
0.0
 33
0.0
 16
1.0
 26
0.0
 36
0.0
 17
0.0
 27
1.0
 37
0.0
 76
     0
330
1B
  0
LAYOUT
  5
26
102
{ACAD_REACTORS
330
1A
102
}
330
1A
100
AcDbPlotSettings
  1

  2
none_device
  4

  6

 40
0.0
 41
0.0
 42
0.0
 43
0.0
 44
0.0
 45
0.0
 46
0.0
 47
0.0
 48
0.0
 49
0.0
140
0.0
141
0.0
142
1.0
143
1.0
 70
   688
 72
     0
 73
     0
 74
     5
  7

 75
    16
 76
     0
 77
     2
 78
   300
147
1.0
148
0.0
149
0.0
100
AcDbLayout
  1
Layout2
 70
     1
 71
     2
 10
0.0
 20
0.0
 11
0.0
 21
0.0
 12
0.0
 22
0.0
 32
0.0
 14
0.0
 24
0.0
 34
0.0
 15
0.0
 25
0.0
 35
0.0
146
0.0
 13
0.0
 23
0.0
 33
0.0
 16
1.0
 26
0.0
 36
0.0
 17
0.0
 27
1.0
 37
0.0
 76
     0
330
23
  0
LAYOUT
  5
22
102
{ACAD_REACTORS
330
1A
102
}
330
1A
100
AcDbPlotSettings
  1

  2
none_device
  4

  6

 40
0.0
 41
0.0
 42
0.0
 43
0.0
 44
0.0
 45
0.0
 46
0.0
 47
0.0
 48
0.0
 49
0.0
140
0.0
141
0.0
142
1.0
143
1.0
 70
  1712
 72
     0
 73
     0
 74
     0
  7

 75
     0
 76
     0
 77
     2
 78
   300
147
1.0
148
0.0
149
0.0
100
AcDbLayout
  1
Model
 70
     1
 71
     0
 10
0.0
 20
0.0
 11
12.0
 21
9.0
 12
0.0
 22
0.0
 32
0.0
 14
1.000000000000000E+20
 24
1.000000000000000E+20
 34
1.000000000000000E+20
 15
-1.000000000000000E+20
 25
-1.000000000000000E+20
 35
-1.000000000000000E+20
146
0.0
 13
0.0
 23
0.0
 33
0.0
 16
1.0
 26
0.0
 36
0.0
 17
0.0
 27
1.0
 37
0.0
 76
     0
330
1F
331
29
  0
MLINESTYLE
  5
18
102
{ACAD_REACTORS
330
17
102
}
330
17
100
AcDbMlineStyle
  2
Standard
 70
     0
  3

 62
   256
 51
90.0
 52
90.0
 71
     2
 49
0.5
 62
   256
  6
BYLAYER
 49
-0.5
 62
   256
  6
BYLAYER
  0
ACDBPLACEHOLDER
  5
F
102
{ACAD_REACTORS
330
E
102
}
330
E
  0
VISUALSTYLE
  5
2F
102
{ACAD_REACTORS
330
2A
102
}
330
2A
100
AcDbVisualStyle
  2
2dWireframe
 70
     4
 71
     0
 72
     2
 73
     0
 90
        0
 40
-0.6
 41
-30.0
 62
     5
 63
     7
421
 16777215
 74
     1
 91
        4
 64
     7
 65
   257
 75
     1
175
     1
 42
1.0
 92
        0
 66
   257
 43
1.0
 76
     1
 77
     6
 78
     2
 67
     7
 79
     5
170
     0
171
     0
290
     0
174
     0
 93
        1
 44
0.0
173
     0
291
     0
 45
0.0
1001
ACAD
1000
AcDbSavedByObjectVersion
1070
     0
  0
VISUALSTYLE
  5
31
102
{ACAD_REACTORS
330
2A
102
}
330
2A
100
AcDbVisualStyle
  2
3D Hidden
 70
     6
 71
     1
 72
     2
 73
     2
 90
        0
 40
-0.6
 41
-30.0
 62
     5
 63
     7
421
 16777215
 74
     2
 91
        2
 64
     7
 65
   257
 75
     2
175
     1
 42
40.0
 92
        0
 66
   257
 43
1.0
 76
     1
 77
     6
 78
     2
 67
     7
 79
     3
170
     0
171
     0
290
     0
174
     0
 93
        1
 44
0.0
173
     0
291
     0
 45
0.0
1001
ACAD
1000
AcDbSavedByObjectVersion
1070
     0
  0
VISUALSTYLE
  5
30
102
{ACAD_REACTORS
330
2A
102
}
330
2A
100
AcDbVisualStyle
  2
3dWireframe
 70
     5
 71
     0
 72
     2
 73
     0
 90
        0
 40
-0.6
 41
-30.0
 62
     5
 63
     7
421
 16777215
 74
     1
 91
        4
 64
     7
 65
   257
 75
     1
175
     1
 42
1.0
 92
        0
 66
   257
 43
1.0
 76
     1
 77
     6
 78
     2
 67
     7
 79
     5
170
     0
171
     0
290
     0
174
     0
 93
        1
 44
0.0
173
     0
291
     0
 45
0.0
1001
ACAD
1000
AcDbSavedByObjectVersion
1070
     0
  0
VISUALSTYLE
  5
32
102
{ACAD_REACTORS
330
2A
102
}
330
2A
100
AcDbVisualStyle
  2
Basic
 70
     7
 71
     1
 72
     0
 73
     1
 90
        0
 40
-0.6
 41
-30.0
 62
     5
 63
     7
421
 16777215
 74
     0
 91
        4
 64
     7
 65
   257
 75
     1
175
     1
 42
1.0
 92
        8
 66
     7
 43
1.0
 76
     1
 77
     6
 78
     2
 67
     7
 79
     5
170
     0
171
     0
290
     0
174
     0
 93
        1
 44
0.0
173
     0
291
     1
 45
0.0
1001
ACAD
1000
AcDbSavedByObjectVersion
1070
     0
  0
VISUALSTYLE
  5
36
102
{ACAD_REACTORS
330
2A
102
}
330
2A
100
AcDbVisualStyle
  2
Brighten
 70
    12
 71
     2
 72
     2
 73
     0
 90
        0
 40
-0.6
 41
-30.0
 62
     5
 63
     7
421
 16777215
 74
     1
 91
        4
 64
     7
 65
   257
 75
     1
175
     1
 42
1.0
 92
        8
 66
     7
 43
1.0
 76
     1
 77
     6
 78
     2
 67
     7
 79
     5
170
     0
171
     0
290
     0
174
     0
 93
        1
 44
50.0
173
     0
291
     1
 45
0.0
1001
ACAD
1000
AcDbSavedByObjectVersion
1070
     0
  0
VISUALSTYLE
  5
3A
102
{ACAD_REACTORS
330
2A
102
}
330
2A
100
AcDbVisualStyle
  2
ColorChange
 70
    16
 71
     2
 72
     2
 73
     3
 90
        0
 40
-0.6
 41
-30.0
 62
     5
 63
     8
421
  8421504
 74
     1
 91
        4
 64
     7
 65
   257
 75
     1
175
     1
 42
1.0
 92
        8
 66
     8
424
  8421504
 43
1.0
 76
     1
 77
     6
 78
     2
 67
     7
 79
     5
170
     0
171
     0
290
     0
174
     0
 93
        1
 44
0.0
173
     0
291
     1
 45
0.0
1001
ACAD
1000
AcDbSavedByObjectVersion
1070
     0
  0
VISUALSTYLE
  5
34
102
{ACAD_REACTORS
330
2A
102
}
330
2A
100
AcDbVisualStyle
  2
Conceptual
 70
     9
 71
     3
 72
     2
 73
     0
 90
        0
 40
-0.6
 41
-30.0
 62
     5
 63
     7
421
 16777215
 74
     2
 91
        2
 64
     7
 65
   257
 75
     1
175
     1
 42
40.0
 92
        8
 66
     7
 43
1.0
 76
     1
 77
     6
 78
     2
 67
     7
 79
     3
170
     0
171
     0
290
     0
174
     0
 93
        1
 44
0.0
173
     0
291
     0
 45
0.0
1001
ACAD
1000
AcDbSavedByObjectVersion
1070
     0
  0
VISUALSTYLE
  5
35
102
{ACAD_REACTORS
330
2A
102
}
330
2A
100
AcDbVisualStyle
  2
Dim
 70
    11
 71
     2
 72
     2
 73
     0
 90
        0
 40
-0.6
 41
-30.0
 62
     5
 63
     7
421
 16777215
 74
     1
 91
        4
 64
     7
 65
   257
 75
     1
175
     1
 42
1.0
 92
        8
 66
     7
 43
1.0
 76
     1
 77
     6
 78
     2
 67
     7
 79
     5
170
     0
171
     0
290
     0
174
     0
 93
        1
 44
-50.0
173
     0
291
     1
 45
0.0
1001
ACAD
1000
AcDbSavedByObjectVersion
1070
     0
  0
VISUALSTYLE
  5
39
102
{ACAD_REACTORS
330
2A
102
}
330
2A
100
AcDbVisualStyle
  2
Facepattern
 70
    15
 71
     2
 72
     2
 73
     0
 90
        0
 40
-0.6
 41
-30.0
 62
     5
 63
     7
421
 16777215
 74
     1
 91
        4
 64
     7
 65
   257
 75
     1
175
     1
 42
1.0
 92
        8
 66
     7
 43
1.0
 76
     1
 77
     6
 78
     2
 67
     7
 79
     5
170
     0
171
     0
290
     0
174
     0
 93
        1
 44
0.0
173
     0
291
     1
 45
0.0
1001
ACAD
1000
AcDbSavedByObjectVersion
1070
     0
  0
VISUALSTYLE
  5
2B
102
{ACAD_REACTORS
330
2A
102
}
330
2A
100
AcDbVisualStyle
  2
Flat
 70
     0
 71
     2
 72
     1
 73
     1
 90
        2
 40
-0.6
 41
30.0
 62
     5
 63
     7
421
 16777215
 74
     0
 91
        4
 64
     7
 65
   257
 75
     1
175
     1
 42
1.0
 92
        8
 66
     7
 43
1.0
 76
     1
 77
     6
 78
     2
 67
     7
 79
     5
170
     0
171
     0
290
     0
174
     0
 93
       13
 44
0.0
173
     0
291
     1
 45
0.0
1001
ACAD
1000
AcDbSavedByObjectVersion
1070
     0
  0
VISUALSTYLE
  5
2C
102
{ACAD_REACTORS
330
2A
102
}
330
2A
100
AcDbVisualStyle
  2
FlatWithEdges
 70
     1
 71
     2
 72
     1
 73
     1
 90
        2
 40
-0.6
 41
30.0
 62
     5
 63
     7
421
 16777215
 74
     1
 91
        4
 64
     7
 65
   257
 75
     1
175
     1
 42
1.0
 92
        0
 66
   257
 43
1.0
 76
     1
 77
     6
 78
     2
 67
     7
 79
     5
170
     0
171
     0
290
     0
174
     0
 93
       13
 44
0.0
173
     0
291
     1
 45
0.0
1001
ACAD
1000
AcDbSavedByObjectVersion
1070
     0
  0
VISUALSTYLE
  5
2D
102
{ACAD_REACTORS
330
2A
102
}
330
2A
100
AcDbVisualStyle
  2
Gouraud
 70
     2
 71
     2
 72
     2
 73
     1
 90
        2
 40
-0.6
 41
30.0
 62
     5
 63
     7
421
 16777215
 74
     0
 91
        4
 64
     7
 65
   257
 75
     1
175
     1
 42
1.0
 92
        0
 66
     7
 43
1.0
 76
     1
 77
     6
 78
     2
 67
     7
 79
     5
170
     0
171
     0
290
     0
174
     0
 93
       13
 44
0.0
173
     0
291
     1
 45
0.0
1001
ACAD
1000
AcDbSavedByObjectVersion
1070
     0
  0
VISUALSTYLE
  5
2E
102
{ACAD_REACTORS
330
2A
102
}
330
2A
100
AcDbVisualStyle
  2
GouraudWithEdges
 70
     3
 71
     2
 72
     2
 73
     1
 90
        2
 40
-0.6
 41
30.0
 62
     5
 63
     7
421
 16777215
 74
     1
 91
        4
 64
     7
 65
   257
 75
     1
175
     1
 42
1.0
 92
        0
 66
   257
 43
1.0
 76
     1
 77
     6
 78
     2
 67
     7
 79
     5
170
     0
171
     0
290
     0
174
     0
 93
       13
 44
0.0
173
     0
291
     1
 45
0.0
1001
ACAD
1000
AcDbSavedByObjectVersion
1070
     0
  0
VISUALSTYLE
  5
38
102
{ACAD_REACTORS
330
2A
102
}
330
2A
100
AcDbVisualStyle
  2
Linepattern
 70
    14
 71
     2
 72
     2
 73
     0
 90
        0
 40
-0.6
 41
-30.0
 62
     5
 63
     7
421
 16777215
 74
     1
 91
        4
 64
     7
 65
   257
 75
     7
175
     7
 42
1.0
 92
        8
 66
     7
 43
1.0
 76
     1
 77
     6
 78
     2
 67
     7
 79
     5
170
     0
171
     0
290
     0
174
     0
 93
        1
 44
0.0
173
     0
291
     1
 45
0.0
1001
ACAD
1000
AcDbSavedByObjectVersion
1070
     0
  0
VISUALSTYLE
  5
33
102
{ACAD_REACTORS
330
2A
102
}
330
2A
100
AcDbVisualStyle
  2
Realistic
 70
     8
 71
     2
 72
     2
 73
     0
 90
        0
 40
-0.6
 41
-30.0
 62
     5
 63
     7
421
 16777215
 74
     1
 91
        0
 64
     7
 65
   257
 75
     1
175
     1
 42
1.0
 92
        8
 66
     8
424
  7895160
 43
1.0
 76
     1
 77
     6
 78
     2
 67
     7
 79
     5
170
     0
171
     0
290
     0
174
     0
 93
       13
 44
0.0
173
     0
291
     0
 45
0.0
1001
ACAD
1000
AcDbSavedByObjectVersion
1070
     0
  0
VISUALSTYLE
  5
37
102
{ACAD_REACTORS
330
2A
102
}
330
2A
100
AcDbVisualStyle
  2
Thicken
 70
    13
 71
     2
 72
     2
 73
     0
 90
        0
 40
-0.6
 41
-30.0
 62
     5
 63
     7
421
 16777215
 74
     1
 91
        4
 64
     7
 65
   257
 75
     1
175
     1
 42
1.0
 92
       12
 66
     7
 43
1.0
 76
     1
 77
     6
 78
     2
 67
     7
 79
     5
170
     0
171
     0
290
     0
174
     0
 93
        1
 44
0.0
173
     0
291
     1
 45
0.0
1001
ACAD
1000
AcDbSavedByObjectVersion
1070
     0
  0
ENDSEC
  0
EOF
