  0
SECTION
  2
HEADER
  9
$ACADVER
  1
AC1021
  9
$ACADMAINTVER
 70
    50
  9
$DWGCODEPAGE
  3
ANSI_1252
  9
$LASTSAVEDBY
  1
lballester
  9
$INSBASE
 10
0.0
 20
0.0
 30
0.0
  9
$EXTMIN
 10
2007.949992345717
 20
1487.186542547423
 30
0.0
  9
$EXTMAX
 10
2028.759992045717
 20
1530.747140829766
 30
0.0
  9
$LIMMIN
 10
0.0
 20
0.0
  9
$LIMMAX
 10
420.0
 20
297.0
  9
$ORTHOMODE
 70
     0
  9
$REGENMODE
 70
     1
  9
$FILLMODE
 70
     1
  9
$QTEXTMODE
 70
     0
  9
$MIRRTEXT
 70
     0
  9
$LTSCALE
 40
1.0
  9
$ATTMODE
 70
     1
  9
$TEXTSIZE
 40
2.5
  9
$TRACEWID
 40
1.0
  9
$TEXTSTYLE
  7
Standard
  9
$CLAYER
  8
0
  9
$CELTYPE
  6
ByLayer
  9
$CECOLOR
 62
   256
  9
$CELTSCALE
 40
1.0
  9
$DISPSILH
 70
     0
  9
$DIMSCALE
 40
1.0
  9
$DIMASZ
 40
2.5
  9
$DIMEXO
 40
0.625
  9
$DIMDLI
 40
3.75
  9
$DIMRND
 40
0.0
  9
$DIMDLE
 40
0.0
  9
$DIMEXE
 40
1.25
  9
$DIMTP
 40
0.0
  9
$DIMTM
 40
0.0
  9
$DIMTXT
 40
2.5
  9
$DIMCEN
 40
2.5
  9
$DIMTSZ
 40
0.0
  9
$DIMTOL
 70
     0
  9
$DIMLIM
 70
     0
  9
$DIMTIH
 70
     0
  9
$DIMTOH
 70
     0
  9
$DIMSE1
 70
     0
  9
$DIMSE2
 70
     0
  9
$DIMTAD
 70
     1
  9
$DIMZIN
 70
     8
  9
$DIMBLK
  1

  9
$DIMASO
 70
     1
  9
$DIMSHO
 70
     1
  9
$DIMPOST
  1

  9
$DIMAPOST
  1

  9
$DIMALT
 70
     0
  9
$DIMALTD
 70
     3
  9
$DIMALTF
 40
0.03937007874016
  9
$DIMLFAC
 40
1.0
  9
$DIMTOFL
 70
     1
  9
$DIMTVP
 40
0.0
  9
$DIMTIX
 70
     0
  9
$DIMSOXD
 70
     0
  9
$DIMSAH
 70
     0
  9
$DIMBLK1
  1

  9
$DIMBLK2
  1

  9
$DIMSTYLE
  2
ISO-25
  9
$DIMCLRD
 70
     0
  9
$DIMCLRE
 70
     0
  9
$DIMCLRT
 70
     0
  9
$DIMTFAC
 40
1.0
  9
$DIMGAP
 40
0.625
  9
$DIMJUST
 70
     0
  9
$DIMSD1
 70
     0
  9
$DIMSD2
 70
     0
  9
$DIMTOLJ
 70
     0
  9
$DIMTZIN
 70
     8
  9
$DIMALTZ
 70
     0
  9
$DIMALTTZ
 70
     0
  9
$DIMUPT
 70
     0
  9
$DIMDEC
 70
     2
  9
$DIMTDEC
 70
     2
  9
$DIMALTU
 70
     2
  9
$DIMALTTD
 70
     3
  9
$DIMTXSTY
  7
Standard
  9
$DIMAUNIT
 70
     0
  9
$DIMADEC
 70
     0
  9
$DIMALTRND
 40
0.0
  9
$DIMAZIN
 70
     0
  9
$DIMDSEP
 70
    44
  9
$DIMATFIT
 70
     3
  9
$DIMFRAC
 70
     0
  9
$DIMLDRBLK
  1

  9
$DIMLUNIT
 70
     2
  9
$DIMLWD
 70
    -2
  9
$DIMLWE
 70
    -2
  9
$DIMTMOVE
 70
     0
  9
$DIMFXL
 40
1.0
  9
$DIMFXLON
 70
     0
  9
$DIMJOGANG
 40
0.7853981633974483
  9
$DIMTFILL
 70
     0
  9
$DIMTFILLCLR
 70
     0
  9
$DIMARCSYM
 70
     0
  9
$DIMLTYPE
  6

  9
$DIMLTEX1
  6

  9
$DIMLTEX2
  6

  9
$LUNITS
 70
     2
  9
$LUPREC
 70
     4
  9
$SKETCHINC
 40
1.0
  9
$FILLETRAD
 40
0.0
  9
$AUNITS
 70
     0
  9
$AUPREC
 70
     0
  9
$MENU
  1
.
  9
$ELEVATION
 40
0.0
  9
$PELEVATION
 40
0.0
  9
$THICKNESS
 40
0.0
  9
$LIMCHECK
 70
     0
  9
$CHAMFERA
 40
0.0
  9
$CHAMFERB
 40
0.0
  9
$CHAMFERC
 40
0.0
  9
$CHAMFERD
 40
0.0
  9
$SKPOLY
 70
     0
  9
$TDCREATE
 40
2457826.464290926
  9
$TDUCREATE
 40
2457826.422624259
  9
$TDUPDATE
 40
2457826.464992731
  9
$TDUUPDATE
 40
2457826.423326065
  9
$TDINDWG
 40
0.0007033912
  9
$TDUSRTIMER
 40
0.0007033565
  9
$USRTIMER
 70
     1
  9
$ANGBASE
 50
0.0
  9
$ANGDIR
 70
     0
  9
$PDMODE
 70
     0
  9
$PDSIZE
 40
0.0
  9
$PLINEWID
 40
0.0
  9
$SPLFRAME
 70
     0
  9
$SPLINETYPE
 70
     6
  9
$SPLINESEGS
 70
     8
  9
$HANDSEED
  5
6AA
  9
$SURFTAB1
 70
     6
  9
$SURFTAB2
 70
     6
  9
$SURFTYPE
 70
     6
  9
$SURFU
 70
     6
  9
$SURFV
 70
     6
  9
$UCSBASE
  2

  9
$UCSNAME
  2

  9
$UCSORG
 10
0.0
 20
0.0
 30
0.0
  9
$UCSXDIR
 10
1.0
 20
0.0
 30
0.0
  9
$UCSYDIR
 10
0.0
 20
1.0
 30
0.0
  9
$UCSORTHOREF
  2

  9
$UCSORTHOVIEW
 70
     0
  9
$UCSORGTOP
 10
0.0
 20
0.0
 30
0.0
  9
$UCSORGBOTTOM
 10
0.0
 20
0.0
 30
0.0
  9
$UCSORGLEFT
 10
0.0
 20
0.0
 30
0.0
  9
$UCSORGRIGHT
 10
0.0
 20
0.0
 30
0.0
  9
$UCSORGFRONT
 10
0.0
 20
0.0
 30
0.0
  9
$UCSORGBACK
 10
0.0
 20
0.0
 30
0.0
  9
$PUCSBASE
  2

  9
$PUCSNAME
  2

  9
$PUCSORG
 10
0.0
 20
0.0
 30
0.0
  9
$PUCSXDIR
 10
1.0
 20
0.0
 30
0.0
  9
$PUCSYDIR
 10
0.0
 20
1.0
 30
0.0
  9
$PUCSORTHOREF
  2

  9
$PUCSORTHOVIEW
 70
     0
  9
$PUCSORGTOP
 10
0.0
 20
0.0
 30
0.0
  9
$PUCSORGBOTTOM
 10
0.0
 20
0.0
 30
0.0
  9
$PUCSORGLEFT
 10
0.0
 20
0.0
 30
0.0
  9
$PUCSORGRIGHT
 10
0.0
 20
0.0
 30
0.0
  9
$PUCSORGFRONT
 10
0.0
 20
0.0
 30
0.0
  9
$PUCSORGBACK
 10
0.0
 20
0.0
 30
0.0
  9
$USERI1
 70
     0
  9
$USERI2
 70
     0
  9
$USERI3
 70
     0
  9
$USERI4
 70
     0
  9
$USERI5
 70
     0
  9
$USERR1
 40
0.0
  9
$USERR2
 40
0.0
  9
$USERR3
 40
0.0
  9
$USERR4
 40
0.0
  9
$USERR5
 40
0.0
  9
$WORLDVIEW
 70
     1
  9
$SHADEDGE
 70
     3
  9
$SHADEDIF
 70
    70
  9
$TILEMODE
 70
     1
  9
$MAXACTVP
 70
    64
  9
$PINSBASE
 10
0.0
 20
0.0
 30
0.0
  9
$PLIMCHECK
 70
     0
  9
$PEXTMIN
 10
0.0
 20
0.0
 30
0.0
  9
$PEXTMAX
 10
0.0
 20
0.0
 30
0.0
  9
$PLIMMIN
 10
0.0
 20
0.0
  9
$PLIMMAX
 10
12.0
 20
9.0
  9
$UNITMODE
 70
     0
  9
$VISRETAIN
 70
     1
  9
$PLINEGEN
 70
     0
  9
$PSLTSCALE
 70
     1
  9
$TREEDEPTH
 70
  3020
  9
$CMLSTYLE
  2
Standard
  9
$CMLJUST
 70
     0
  9
$CMLSCALE
 40
20.0
  9
$PROXYGRAPHICS
 70
     1
  9
$MEASUREMENT
 70
     1
  9
$CELWEIGHT
370
    -1
  9
$ENDCAPS
280
     0
  9
$JOINSTYLE
280
     0
  9
$LWDISPLAY
290
     0
  9
$INSUNITS
 70
     4
  9
$HYPERLINKBASE
  1

  9
$STYLESHEET
  1

  9
$XEDIT
290
     1
  9
$CEPSNTYPE
380
     0
  9
$PSTYLEMODE
290
     1
  9
$FINGERPRINTGUID
  2
{5ECC222A-A58D-4B8D-BFCA-4A3EF497BB13}
  9
$VERSIONGUID
  2
{1E9312B3-4C65-46E1-AA3B-5C3BF61059C8}
  9
$EXTNAMES
290
     1
  9
$PSVPSCALE
 40
0.0
  9
$OLESTARTUP
290
     0
  9
$SORTENTS
280
   127
  9
$INDEXCTL
280
     0
  9
$HIDETEXT
280
     1
  9
$XCLIPFRAME
290
     0
  9
$HALOGAP
280
     0
  9
$OBSCOLOR
 70
   257
  9
$OBSLTYPE
280
     0
  9
$INTERSECTIONDISPLAY
280
     0
  9
$INTERSECTIONCOLOR
 70
   257
  9
$DIMASSOC
280
     2
  9
$PROJECTNAME
  1

  9
$CAMERADISPLAY
290
     0
  9
$LENSLENGTH
 40
50.0
  9
$CAMERAHEIGHT
 40
0.0
  9
$STEPSPERSEC
 40
2.0
  9
$STEPSIZE
 40
6.0
  9
$3DDWFPREC
 40
2.0
  9
$PSOLWIDTH
 40
5.0
  9
$PSOLHEIGHT
 40
80.0
  9
$LOFTANG1
 40
1.570796326794896
  9
$LOFTANG2
 40
1.570796326794896
  9
$LOFTMAG1
 40
0.0
  9
$LOFTMAG2
 40
0.0
  9
$LOFTPARAM
 70
     7
  9
$LOFTNORMALS
280
     1
  9
$LATITUDE
 40
37.795
  9
$LONGITUDE
 40
-122.394
  9
$NORTHDIRECTION
 40
0.0
  9
$TIMEZONE
 70
 -8000
  9
$LIGHTGLYPHDISPLAY
280
     1
  9
$TILEMODELIGHTSYNCH
280
     1
  9
$CMATERIAL
347
EC
  9
$SOLIDHIST
280
     0
  9
$SHOWHIST
280
     1
  9
$DWFFRAME
280
     2
  9
$DGNFRAME
280
     0
  9
$REALWORLDSCALE
290
     1
  9
$INTERFERECOLOR
 62
     1
  9
$INTERFEREOBJVS
345
F9
  9
$INTERFEREVPVS
346
F6
  9
$CSHADOW
280
     0
  9
$SHADOWPLANELOCATION
 40
0.0
  0
ENDSEC
  0
SECTION
  2
CLASSES
  0
CLASS
  1
ACDBDICTIONARYWDFLT
  2
AcDbDictionaryWithDefault
  3
ObjectDBX Classes
 90
        0
 91
        1
280
     0
281
     0
  0
CLASS
  1
DICTIONARYVAR
  2
AcDbDictionaryVar
  3
ObjectDBX Classes
 90
        0
 91
       10
280
     0
281
     0
  0
CLASS
  1
TABLESTYLE
  2
AcDbTableStyle
  3
ObjectDBX Classes
 90
     4095
 91
        1
280
     0
281
     0
  0
CLASS
  1
MATERIAL
  2
AcDbMaterial
  3
ObjectDBX Classes
 90
     1153
 91
        3
280
     0
281
     0
  0
CLASS
  1
VISUALSTYLE
  2
AcDbVisualStyle
  3
ObjectDBX Classes
 90
     4095
 91
       24
280
     0
281
     0
  0
CLASS
  1
SCALE
  2
AcDbScale
  3
ObjectDBX Classes
 90
     1153
 91
       17
280
     0
281
     0
  0
CLASS
  1
MLEADERSTYLE
  2
AcDbMLeaderStyle
  3
ACDB_MLEADERSTYLE_CLASS
 90
     4095
 91
        2
280
     0
281
     0
  0
CLASS
  1
CELLSTYLEMAP
  2
AcDbCellStyleMap
  3
ObjectDBX Classes
 90
     1152
 91
        1
280
     0
281
     0
  0
CLASS
  1
EXACXREFPANELOBJECT
  2
ExAcXREFPanelObject
  3
EXAC_ESW
 90
     1025
 91
        0
280
     0
281
     0
  0
CLASS
  1
NPOCOLLECTION
  2
AcDbImpNonPersistentObjectsCollection
  3
ObjectDBX Classes
 90
     1153
 91
        0
280
     0
281
     0
  0
CLASS
  1
LAYER_INDEX
  2
AcDbLayerIndex
  3
ObjectDBX Classes
 90
        0
 91
        0
280
     0
281
     0
  0
CLASS
  1
SPATIAL_INDEX
  2
AcDbSpatialIndex
  3
ObjectDBX Classes
 90
        0
 91
        0
280
     0
281
     0
  0
CLASS
  1
IDBUFFER
  2
AcDbIdBuffer
  3
ObjectDBX Classes
 90
        0
 91
        0
280
     0
281
     0
  0
CLASS
  1
ACDBSECTIONVIEWSTYLE
  2
AcDbSectionViewStyle
  3
ObjectDBX Classes
 90
     1025
 91
        1
280
     0
281
     0
  0
CLASS
  1
ACDBDETAILVIEWSTYLE
  2
AcDbDetailViewStyle
  3
ObjectDBX Classes
 90
     1025
 91
        1
280
     0
281
     0
  0
ENDSEC
  0
SECTION
  2
TABLES
  0
TABLE
  2
VPORT
  5
8
330
0
100
AcDbSymbolTable
 70
     1
  0
VPORT
  5
EA
330
8
100
AcDbSymbolTableRecord
100
AcDbViewportTableRecord
  2
*Active
 70
     0
 10
0.0
 20
0.0
 11
1.0
 21
1.0
 12
2074.428841051504
 22
1499.466804629997
 13
0.0
 23
0.0
 14
10.0
 24
10.0
 15
10.0
 25
10.0
 16
0.0
 26
0.0
 36
1.0
 17
0.0
 27
0.0
 37
0.0
 40
103.2083133535434
 41
1.936274509803921
 42
50.0
 43
0.0
 44
0.0
 50
0.0
 51
0.0
 71
     0
 72
  1000
 73
     1
 74
     3
 75
     0
 76
     1
 77
     0
 78
     0
281
     0
 65
     1
110
0.0
120
0.0
130
0.0
111
1.0
121
0.0
131
0.0
112
0.0
122
1.0
132
0.0
 79
     0
146
0.0
348
F5
 60
     3
 61
     5
292
     1
282
     1
141
0.0
142
0.0
 63
   250
421
  3355443
1001
ACAD_NAV_VCDISPLAY
1070
     3
  0
ENDTAB
  0
TABLE
  2
LTYPE
  5
5
330
0
100
AcDbSymbolTable
 70
     2
  0
LTYPE
  5
14
330
5
100
AcDbSymbolTableRecord
100
AcDbLinetypeTableRecord
  2
ByBlock
 70
     0
  3

 72
    65
 73
     0
 40
0.0
  0
LTYPE
  5
15
330
5
100
AcDbSymbolTableRecord
100
AcDbLinetypeTableRecord
  2
ByLayer
 70
     0
  3

 72
    65
 73
     0
 40
0.0
  0
LTYPE
  5
16
330
5
100
AcDbSymbolTableRecord
100
AcDbLinetypeTableRecord
  2
Continuous
 70
     0
  3
Solid line
 72
    65
 73
     0
 40
0.0
  0
LTYPE
  5
25E
330
5
100
AcDbSymbolTableRecord
100
AcDbLinetypeTableRecord
  2
CENTERLINE
 70
     0
  3
_ 
 72
    65
 73
     5
 40
30.0
 49
12.0
 74
     0
 49
-1.5
 74
     0
 49
3.0
 74
     0
 49
-1.5
 74
     0
 49
12.0
 74
     0
  0
ENDTAB
  0
TABLE
  2
LAYER
  5
2
102
{ACAD_XDICTIONARY
360
1FF
102
}
330
0
100
AcDbSymbolTable
 70
     2
  0
LAYER
  5
10
102
{ACAD_XDICTIONARY
360
13C
102
}
330
2
100
AcDbSymbolTableRecord
100
AcDbLayerTableRecord
  2
0
 70
     0
 62
     7
  6
Continuous
370
    -3
390
F
347
EE
  0
LAYER
  5
25F
102
{ACAD_XDICTIONARY
360
260
102
}
330
2
100
AcDbSymbolTableRecord
100
AcDbLayerTableRecord
  2
cuerpo
 70
     0
 62
     7
  6
Continuous
370
     5
390
F
347
EE
1001
AcAecLayerStandard
1000

1000

  0
ENDTAB
  0
TABLE
  2
STYLE
  5
3
330
0
100
AcDbSymbolTable
 70
     2
  0
STYLE
  5
11
330
3
100
AcDbSymbolTableRecord
100
AcDbTextStyleTableRecord
  2
Standard
 70
     0
 40
0.0
 41
1.0
 50
0.0
 71
     0
 42
2.5
  3
arial.ttf
  4

1001
ACAD
1000
Arial
1071
       34
  0
STYLE
  5
132
330
3
100
AcDbSymbolTableRecord
100
AcDbTextStyleTableRecord
  2
Anotativo
 70
     0
 40
0.0
 41
1.0
 50
0.0
 71
     0
 42
2.5
  3
arial.ttf
  4

1001
AcadAnnotative
1000
AnnotativeData
1002
{
1070
     1
1070
     1
1002
}
1001
ACAD
1000
Arial
1071
       34
  0
ENDTAB
  0
TABLE
  2
VIEW
  5
6
330
0
100
AcDbSymbolTable
 70
     0
  0
ENDTAB
  0
TABLE
  2
UCS
  5
7
330
0
100
AcDbSymbolTable
 70
     0
  0
ENDTAB
  0
TABLE
  2
APPID
  5
9
330
0
100
AcDbSymbolTable
 70
     9
  0
APPID
  5
12
330
9
100
AcDbSymbolTableRecord
100
AcDbRegAppTableRecord
  2
ACAD
 70
     0
  0
APPID
  5
9E
330
9
100
AcDbSymbolTableRecord
100
AcDbRegAppTableRecord
  2
ACAD_PSEXT
 70
     0
  0
APPID
  5
133
330
9
100
AcDbSymbolTableRecord
100
AcDbRegAppTableRecord
  2
AcadAnnoPO
 70
     0
  0
APPID
  5
134
330
9
100
AcDbSymbolTableRecord
100
AcDbRegAppTableRecord
  2
AcadAnnotative
 70
     0
  0
APPID
  5
135
330
9
100
AcDbSymbolTableRecord
100
AcDbRegAppTableRecord
  2
ACAD_DSTYLE_DIMJAG
 70
     0
  0
APPID
  5
136
330
9
100
AcDbSymbolTableRecord
100
AcDbRegAppTableRecord
  2
ACAD_DSTYLE_DIMTALN
 70
     0
  0
APPID
  5
165
330
9
100
AcDbSymbolTableRecord
100
AcDbRegAppTableRecord
  2
ACAD_MLEADERVER
 70
     0
  0
APPID
  5
217
330
9
100
AcDbSymbolTableRecord
100
AcDbRegAppTableRecord
  2
ACAD_NAV_VCDISPLAY
 70
     0
  0
APPID
  5
261
330
9
100
AcDbSymbolTableRecord
100
AcDbRegAppTableRecord
  2
AcAecLayerStandard
 70
     0
  0
ENDTAB
  0
TABLE
  2
DIMSTYLE
  5
A
330
0
100
AcDbSymbolTable
 70
     3
100
AcDbDimStyleTable
 71
     2
340
27
340
137
  0
DIMSTYLE
105
1B0
330
A
100
AcDbSymbolTableRecord
100
AcDbDimStyleTableRecord
  2
Standard
 70
     0
340
11
  0
DIMSTYLE
105
137
330
A
100
AcDbSymbolTableRecord
100
AcDbDimStyleTableRecord
  2
Anotativo
 70
     0
 40
0.0
 41
2.5
 42
0.625
 43
3.75
 44
1.25
 73
     0
 74
     0
 77
     1
 78
     8
140
2.5
141
2.5
143
0.03937007874016
147
0.625
171
     3
172
     1
271
     2
272
     2
274
     3
278
    44
283
     0
284
     8
340
11
1001
AcadAnnotative
1000
AnnotativeData
1002
{
1070
     1
1070
     1
1002
}
1001
ACAD_DSTYLE_DIMJAG
1070
   388
1040
1.5
1001
ACAD_DSTYLE_DIMTALN
1070
   392
1070
     0
  0
DIMSTYLE
105
27
330
A
100
AcDbSymbolTableRecord
100
AcDbDimStyleTableRecord
  2
ISO-25
 70
     0
 41
2.5
 42
0.625
 43
3.75
 44
1.25
 73
     0
 74
     0
 77
     1
 78
     8
140
2.5
141
2.5
143
0.03937007874016
147
0.625
171
     3
172
     1
271
     2
272
     2
274
     3
278
    44
283
     0
284
     8
340
11
  0
ENDTAB
  0
TABLE
  2
BLOCK_RECORD
  5
1
330
0
100
AcDbSymbolTable
 70
     2
  0
BLOCK_RECORD
  5
1F
102
{ACAD_XDICTIONARY
360
1CE
102
}
330
1
100
AcDbSymbolTableRecord
100
AcDbBlockTableRecord
  2
*Model_Space
340
22
 70
     0
280
     1
281
     0
  0
BLOCK_RECORD
  5
D2
330
1
100
AcDbSymbolTableRecord
100
AcDbBlockTableRecord
  2
*Paper_Space
340
D3
 70
     0
280
     1
281
     0
  0
BLOCK_RECORD
  5
D6
330
1
100
AcDbSymbolTableRecord
100
AcDbBlockTableRecord
  2
*Paper_Space0
340
D7
 70
     0
280
     1
281
     0
  0
ENDTAB
  0
ENDSEC
  0
SECTION
  2
BLOCKS
  0
BLOCK
  5
20
330
1F
100
AcDbEntity
  8
0
100
AcDbBlockBegin
  2
*Model_Space
 70
     0
 10
0.0
 20
0.0
 30
0.0
  3
*Model_Space
  1

  0
ENDBLK
  5
21
330
1F
100
AcDbEntity
  8
0
100
AcDbBlockEnd
  0
BLOCK
  5
D4
330
D2
100
AcDbEntity
 67
     1
  8
0
100
AcDbBlockBegin
  2
*Paper_Space
 70
     0
 10
0.0
 20
0.0
 30
0.0
  3
*Paper_Space
  1

  0
ENDBLK
  5
D5
330
D2
100
AcDbEntity
 67
     1
  8
0
100
AcDbBlockEnd
  0
BLOCK
  5
D8
330
D6
100
AcDbEntity
 67
     1
  8
0
100
AcDbBlockBegin
  2
*Paper_Space0
 70
     0
 10
0.0
 20
0.0
 30
0.0
  3
*Paper_Space0
  1

  0
ENDBLK
  5
D9
330
D6
100
AcDbEntity
 67
     1
  8
0
100
AcDbBlockEnd
  0
ENDSEC
  0
SECTION
  2
ENTITIES
  0
LINE
  5
46A
330
1F
100
AcDbEntity
  8
0
  6
Continuous
100
AcDbLine
 10
2011.959992045717
 20
1523.962142829766
 30
0.0
 11
2016.159992045716
 21
1523.962142829766
 31
0.0
  0
LINE
  5
46B
330
1F
100
AcDbEntity
  8
0
  6
Continuous
100
AcDbLine
 10
2016.159992045716
 20
1523.962142829766
 30
0.0
 11
2016.159992045716
 21
1528.162142829765
 31
0.0
  0
LINE
  5
46C
330
1F
100
AcDbEntity
  8
0
  6
Continuous
100
AcDbLine
 10
2016.159992045716
 20
1528.162142829765
 30
0.0
 11
2011.959992045717
 21
1528.162142829765
 31
0.0
  0
LINE
  5
46D
330
1F
100
AcDbEntity
  8
0
  6
Continuous
100
AcDbLine
 10
2011.959992045717
 20
1528.162142829765
 30
0.0
 11
2011.959992045717
 21
1523.962142829766
 31
0.0
  0
LINE
  5
46E
330
1F
100
AcDbEntity
  8
0
  6
Continuous
100
AcDbLine
 10
2011.959991045717
 20
1489.179710547423
 30
0.0
 11
2016.159991045717
 21
1489.179710547423
 31
0.0
  0
LINE
  5
46F
330
1F
100
AcDbEntity
  8
0
  6
Continuous
100
AcDbLine
 10
2016.159991045717
 20
1489.179710547423
 30
0.0
 11
2016.159991045717
 21
1507.179710047423
 31
0.0
  0
LINE
  5
470
330
1F
100
AcDbEntity
  8
0
  6
Continuous
100
AcDbLine
 10
2016.159991045717
 20
1507.179710047423
 30
0.0
 11
2011.959991045717
 21
1507.179710047423
 31
0.0
  0
LINE
  5
471
330
1F
100
AcDbEntity
  8
0
  6
Continuous
100
AcDbLine
 10
2028.759992045717
 20
1528.162142829765
 30
0.0
 11
2016.159992045716
 21
1528.162142829765
 31
0.0
  0
LINE
  5
472
330
1F
100
AcDbEntity
  8
0
  6
Continuous
100
AcDbLine
 10
2016.159992045716
 20
1528.162142829765
 30
0.0
 11
2016.159992045716
 21
1526.362142829766
 31
0.0
  0
LINE
  5
473
330
1F
100
AcDbEntity
  8
0
  6
Continuous
100
AcDbLine
 10
2013.159992045717
 20
1528.447140829765
 30
0.0
 11
2014.959992045717
 21
1528.447140829765
 31
0.0
  0
LINE
  5
474
330
1F
100
AcDbEntity
  8
0
  6
Continuous
100
AcDbLine
 10
2014.959992045717
 20
1528.447140829765
 30
0.0
 11
2014.959992045717
 21
1530.747140829766
 31
0.0
  0
LINE
  5
475
330
1F
100
AcDbEntity
  8
0
  6
Continuous
100
AcDbLine
 10
2014.959992045717
 20
1530.747140829766
 30
0.0
 11
2013.159992045717
 21
1530.747140829766
 31
0.0
  0
LINE
  5
476
330
1F
100
AcDbEntity
  8
0
  6
Continuous
100
AcDbLine
 10
2013.159992045717
 20
1530.747140829766
 30
0.0
 11
2013.159992045717
 21
1528.447140829765
 31
0.0
  0
LINE
  5
477
330
1F
100
AcDbEntity
  8
0
  6
Continuous
100
AcDbLine
 10
2011.959991045717
 20
1489.179710547423
 30
0.0
 11
2011.959991045717
 21
1507.179710047423
 31
0.0
  0
LINE
  5
478
330
1F
100
AcDbEntity
  8
0
  6
Continuous
100
AcDbLine
 10
2021.711703045717
 20
1504.379711047423
 30
0.0
 11
2021.711703045717
 21
1505.779710047423
 31
0.0
  0
LINE
  5
479
330
1F
100
AcDbEntity
  8
0
  6
Continuous
100
AcDbLine
 10
2028.759992045717
 20
1528.162142829765
 30
0.0
 11
2028.759992045717
 21
1526.662142829765
 31
0.0
  0
LINE
  5
47A
330
1F
100
AcDbEntity
  8
0
  6
Continuous
100
AcDbLine
 10
2028.759992045717
 20
1526.662142829765
 30
0.0
 11
2025.259992045718
 21
1526.362142829766
 31
0.0
  0
LINE
  5
47B
330
1F
100
AcDbEntity
  8
0
  6
Continuous
100
AcDbLine
 10
2016.159991045717
 20
1489.179710547423
 30
0.0
 11
2028.759991045717
 21
1489.179710547423
 31
0.0
  0
LINE
  5
47C
330
1F
100
AcDbEntity
  8
0
  6
Continuous
100
AcDbLine
 10
2025.259992045718
 20
1526.362142829766
 30
0.0
 11
2016.159992045716
 21
1526.362142829766
 31
0.0
  0
LINE
  5
47D
330
1F
100
AcDbEntity
  8
0
  6
Continuous
100
AcDbLine
 10
2028.759991045717
 20
1489.179710547423
 30
0.0
 11
2028.759991045717
 21
1493.379710547422
 31
0.0
  0
LINE
  5
47E
330
1F
100
AcDbEntity
  8
0
  6
Continuous
100
AcDbLine
 10
2028.759991045717
 20
1493.379710547422
 30
0.0
 11
2016.159991045717
 21
1493.379710547422
 31
0.0
  0
LINE
  5
47F
330
1F
100
AcDbEntity
  8
0
  6
Continuous
100
AcDbLine
 10
2013.159991045717
 20
1497.305927447423
 30
0.0
 11
2014.959991045717
 21
1497.305927447423
 31
0.0
  0
LINE
  5
480
330
1F
100
AcDbEntity
  8
0
  6
Continuous
100
AcDbLine
 10
2014.959991045717
 20
1497.305927447423
 30
0.0
 11
2014.959991045717
 21
1499.105927447423
 31
0.0
  0
LINE
  5
481
330
1F
100
AcDbEntity
  8
0
  6
Continuous
100
AcDbLine
 10
2014.959991045717
 20
1499.105927447423
 30
0.0
 11
2013.159991045717
 21
1499.105927447423
 31
0.0
  0
LINE
  5
482
330
1F
100
AcDbEntity
  8
0
  6
Continuous
100
AcDbLine
 10
2013.159991045717
 20
1499.105927447423
 30
0.0
 11
2013.159991045717
 21
1497.305927447423
 31
0.0
  0
LINE
  5
483
330
1F
100
AcDbEntity
  8
0
  6
Continuous
100
AcDbLine
 10
2021.711703045717
 20
1507.179710047423
 30
0.0
 11
2021.711703045717
 21
1502.979711047423
 31
0.0
  0
LINE
  5
484
330
1F
100
AcDbEntity
  8
0
  6
Continuous
100
AcDbLine
 10
2027.910278045716
 20
1526.141465829765
 30
0.0
 11
2026.316169045716
 21
1526.004286829765
 31
0.0
  0
LINE
  5
485
330
1F
100
AcDbEntity
  8
0
  6
Continuous
100
AcDbLine
 10
2028.092394045716
 20
1526.357876829766
 30
0.0
 11
2028.071310045717
 21
1526.602879829766
 31
0.0
  0
LINE
  5
486
330
1F
100
AcDbEntity
  8
0
  6
Continuous
100
AcDbLine
 10
2026.099758045717
 20
1526.186403829765
 30
0.0
 11
2026.078674045717
 21
1526.431406829765
 31
0.0
  0
LINE
  5
487
330
1F
100
AcDbEntity
  8
0
  6
Continuous
100
AcDbLine
 10
2028.092394045716
 20
1526.357876829766
 30
0.0
 11
2027.910278045716
 21
1526.141465829765
 31
0.0
  0
LINE
  5
488
330
1F
100
AcDbEntity
  8
0
  6
Continuous
100
AcDbLine
 10
2026.316169045716
 20
1526.004286829765
 30
0.0
 11
2026.099758045717
 21
1526.186403829765
 31
0.0
  0
ARC
  5
489
330
1F
100
AcDbEntity
  8
0
  6
Continuous
100
AcDbCircle
 10
2026.754900045716
 20
1530.205086829765
 30
0.0
 40
4.194702799999999
100
AcDbArc
 50
266.3345399999332
 51
273.2549299999966
  0
LINE
  5
48A
330
1F
100
AcDbEntity
  8
0
  6
Continuous
100
AcDbLine
 10
2026.099758045717
 20
1526.186403829765
 30
0.0
 11
2028.092394045716
 21
1526.357876829766
 31
0.0
  0
LINE
  5
48B
330
1F
100
AcDbEntity
  8
0
  6
Continuous
100
AcDbLine
 10
2027.237253045717
 20
1526.083549829765
 30
0.0
 11
2027.241116045717
 21
1526.038657829765
 31
0.0
  0
LINE
  5
48C
330
1F
100
AcDbEntity
  8
0
  6
Continuous
100
AcDbLine
 10
2026.993070045716
 20
1526.017150829766
 30
0.0
 11
2026.989193045716
 21
1526.062202829765
 31
0.0
  0
ARC
  5
48D
330
1F
100
AcDbEntity
  8
0
  6
Continuous
100
AcDbCircle
 10
2026.754900045716
 20
1530.205086829765
 30
0.0
 40
4.194702799999999
100
AcDbArc
 50
276.6562299999558
 51
283.5022200001154
  0
LINE
  5
490
330
1F
100
AcDbEntity
  8
0
  6
Continuous
100
AcDbLine
 10
2018.409991045716
 20
1507.179710047423
 30
0.0
 11
2018.409991045716
 21
1502.979711047423
 31
0.0
  0
LINE
  5
491
330
1F
100
AcDbEntity
  8
0
  6
Continuous
100
AcDbLine
 10
2016.159991045717
 20
1507.179710047423
 30
0.0
 11
2018.409991045716
 21
1507.179710047423
 31
0.0
  0
LINE
  5
492
330
1F
100
AcDbEntity
  8
0
  6
Continuous
100
AcDbLine
 10
2019.611703045717
 20
1507.179710047423
 30
0.0
 11
2021.711703045717
 21
1507.179710047423
 31
0.0
  0
LINE
  5
493
330
1F
100
AcDbEntity
  8
0
  6
Continuous
100
AcDbLine
 10
2021.711703045717
 20
1502.979711047423
 30
0.0
 11
2019.611703045717
 21
1502.979711047423
 31
0.0
  0
LINE
  5
494
330
1F
100
AcDbEntity
  8
0
  6
Continuous
100
AcDbLine
 10
2018.409991045716
 20
1502.979711047423
 30
0.0
 11
2016.159991045717
 21
1502.979711047423
 31
0.0
  0
ARC
  5
495
330
1F
100
AcDbEntity
  8
0
  6
Continuous
100
AcDbCircle
 10
2018.409991045716
 20
1505.079710047423
 30
0.0
 40
2.1
100
AcDbArc
 50
55.09315699994797
 51
90.0
  0
LINE
  5
496
330
1F
100
AcDbEntity
  8
0
  6
Continuous
100
AcDbLine
 10
2016.159992045716
 20
1523.962142829766
 30
0.0
 11
2016.159992045716
 21
1528.162142829765
 31
0.0
  0
ARC
  5
497
330
1F
100
AcDbEntity
  8
0
  6
Continuous
100
AcDbCircle
 10
2018.409991045716
 20
1505.079710047423
 30
0.0
 40
2.1
100
AcDbArc
 50
270.0
 51
304.9068399999196
  0
LINE
  5
498
330
1F
100
AcDbEntity
  8
0
  6
Continuous
100
AcDbLine
 10
2016.159992045716
 20
1528.162142829765
 30
0.0
 11
2018.709992045717
 21
1528.162142829765
 31
0.0
  0
LINE
  5
499
330
1F
100
AcDbEntity
  8
0
  6
Continuous
100
AcDbLine
 10
2016.159992045716
 20
1528.162142829765
 30
0.0
 11
2016.159992045716
 21
1526.362142829766
 31
0.0
  0
LINE
  5
49A
330
1F
100
AcDbEntity
  8
0
  6
Continuous
100
AcDbLine
 10
2015.003394045717
 20
1523.662144829766
 30
0.0
 11
2013.116599045716
 21
1523.662144829766
 31
0.0
  0
LINE
  5
49B
330
1F
100
AcDbEntity
  8
0
  6
Continuous
100
AcDbLine
 10
2010.449992045717
 20
1522.475392829765
 30
0.0
 11
2010.449992045717
 21
1529.475392829765
 31
0.0
  0
LINE
  5
49C
330
1F
100
AcDbEntity
  8
0
  6
Continuous
100
AcDbLine
 10
2010.449992045717
 20
1529.475392829765
 30
0.0
 11
2007.949992345717
 21
1529.475392829765
 31
0.0
  0
LINE
  5
49D
330
1F
100
AcDbEntity
  8
0
  6
Continuous
100
AcDbLine
 10
2010.449992045717
 20
1522.475392829765
 30
0.0
 11
2007.949992345717
 21
1522.475392829765
 31
0.0
  0
LINE
  5
49E
330
1F
100
AcDbEntity
  8
0
  6
Continuous
100
AcDbLine
 10
2007.949992345717
 20
1529.475392829765
 30
0.0
 11
2007.949992345717
 21
1522.475392829765
 31
0.0
  0
LINE
  5
49F
330
1F
100
AcDbEntity
  8
0
  6
Continuous
100
AcDbLine
 10
2011.744994045717
 20
1524.482891829765
 30
0.0
 11
2011.893750045718
 21
1524.483048829765
 31
0.0
  0
LINE
  5
4A0
330
1F
100
AcDbEntity
  8
0
  6
Continuous
100
AcDbLine
 10
2010.531325045717
 20
1524.482892829766
 30
0.0
 11
2010.679992045717
 21
1524.482892829766
 31
0.0
  0
LINE
  5
4A1
330
1F
100
AcDbEntity
  8
0
  6
Continuous
100
AcDbLine
 10
2010.679992045717
 20
1524.482892829766
 30
0.0
 11
2011.744992045717
 21
1524.482892829766
 31
0.0
  0
LINE
  5
4A2
330
1F
100
AcDbEntity
  8
0
  6
Continuous
100
AcDbLine
 10
2011.893660045716
 20
1527.467892829765
 30
0.0
 11
2011.744992045717
 21
1527.467892829765
 31
0.0
  0
LINE
  5
4A3
330
1F
100
AcDbEntity
  8
0
  6
Continuous
100
AcDbLine
 10
2011.744992045717
 20
1527.467892829765
 30
0.0
 11
2010.679992045717
 21
1527.467892829765
 31
0.0
  0
LINE
  5
4A4
330
1F
100
AcDbEntity
  8
0
  6
Continuous
100
AcDbLine
 10
2010.679992045717
 20
1527.467892829765
 30
0.0
 11
2010.531325045717
 21
1527.467892829765
 31
0.0
  0
LINE
  5
4A5
330
1F
100
AcDbEntity
  8
0
  6
Continuous
100
AcDbLine
 10
2010.449992045717
 20
1524.623764829766
 30
0.0
 11
2010.449992045717
 21
1527.327021829765
 31
0.0
  0
LINE
  5
4A6
330
1F
100
AcDbEntity
  8
0
  6
Continuous
100
AcDbLine
 10
2010.531246045716
 20
1524.483035829765
 30
0.0
 11
2010.531904045716
 21
1524.482993829766
 31
0.0
  0
LINE
  5
4A7
330
1F
100
AcDbEntity
  8
0
  6
Continuous
100
AcDbLine
 10
2013.029996045716
 20
1523.962144829765
 30
0.0
 11
2015.089998045717
 21
1523.962144829765
 31
0.0
  0
LINE
  5
4A8
330
1F
100
AcDbEntity
  8
0
  6
Continuous
100
AcDbLine
 10
2018.909991045717
 20
1525.962142829765
 30
0.0
 11
2018.909991045717
 21
1523.962142829766
 31
0.0
  0
LINE
  5
4A9
330
1F
100
AcDbEntity
  8
0
  6
Continuous
100
AcDbLine
 10
2013.809992045716
 20
1528.447140829765
 30
0.0
 11
2013.809992045716
 21
1528.162142829765
 31
0.0
  0
LINE
  5
4AA
330
1F
100
AcDbEntity
  8
0
  6
Continuous
100
AcDbLine
 10
2014.309992045717
 20
1528.447140829765
 30
0.0
 11
2014.309992045717
 21
1528.162142829765
 31
0.0
  0
LINE
  5
4AB
330
1F
100
AcDbEntity
  8
0
  6
Continuous
100
AcDbLine
 10
2018.909991045717
 20
1525.962142829765
 30
0.0
 11
2019.037575045718
 21
1526.362142829766
 31
0.0
  0
LINE
  5
4AC
330
1F
100
AcDbEntity
  8
0
  6
Continuous
100
AcDbLine
 10
2015.089997045716
 20
1523.812143829765
 30
0.0
 11
2015.003394045717
 21
1523.662144829766
 31
0.0
  0
LINE
  5
4AD
330
1F
100
AcDbEntity
  8
0
  6
Continuous
100
AcDbLine
 10
2013.029995045716
 20
1523.812143829765
 30
0.0
 11
2013.116599045716
 21
1523.662144829766
 31
0.0
  0
LINE
  5
4AE
330
1F
100
AcDbEntity
  8
0
  6
Continuous
100
AcDbLine
 10
2011.744992045717
 20
1525.061640829766
 30
0.0
 11
2010.679992045717
 21
1525.061640829766
 31
0.0
  0
LINE
  5
4AF
330
1F
100
AcDbEntity
  8
0
  6
Continuous
100
AcDbLine
 10
2010.679992045717
 20
1526.889145829765
 30
0.0
 11
2011.744992045717
 21
1526.889145829765
 31
0.0
  0
LINE
  5
4B0
330
1F
100
AcDbEntity
  8
0
  6
Continuous
100
AcDbLine
 10
2010.679992045717
 20
1527.467892829765
 30
0.0
 11
2010.679992045717
 21
1526.889145829765
 31
0.0
  0
LINE
  5
4B1
330
1F
100
AcDbEntity
  8
0
  6
Continuous
100
AcDbLine
 10
2011.744992045717
 20
1526.889145829765
 30
0.0
 11
2011.744992045717
 21
1527.467892829765
 31
0.0
  0
LINE
  5
4B2
330
1F
100
AcDbEntity
  8
0
  6
Continuous
100
AcDbLine
 10
2010.679992045717
 20
1525.061640829766
 30
0.0
 11
2010.679992045717
 21
1524.482892829766
 31
0.0
  0
LINE
  5
4B3
330
1F
100
AcDbEntity
  8
0
  6
Continuous
100
AcDbLine
 10
2011.744992045717
 20
1524.482892829766
 30
0.0
 11
2011.744992045717
 21
1525.061640829766
 31
0.0
  0
LINE
  5
4B4
330
1F
100
AcDbEntity
  8
0
  6
Continuous
100
AcDbLine
 10
2010.531232045717
 20
1527.467737829766
 30
0.0
 11
2010.449991045717
 21
1527.327018829766
 31
0.0
  0
LINE
  5
4B5
330
1F
100
AcDbEntity
  8
0
  6
Continuous
100
AcDbLine
 10
2010.449991045717
 20
1524.623763829765
 30
0.0
 11
2010.531246045716
 21
1524.483035829765
 31
0.0
  0
LINE
  5
4B6
330
1F
100
AcDbEntity
  8
0
  6
Continuous
100
AcDbLine
 10
2011.893750045718
 20
1524.483048829765
 30
0.0
 11
2011.959991045717
 21
1524.597782829765
 31
0.0
  0
LINE
  5
4B7
330
1F
100
AcDbEntity
  8
0
  6
Continuous
100
AcDbLine
 10
2011.959991045717
 20
1527.353003829765
 30
0.0
 11
2011.893741045717
 21
1527.467751829765
 31
0.0
  0
LINE
  5
4B8
330
1F
100
AcDbEntity
  8
0
  6
Continuous
100
AcDbLine
 10
2018.409991045716
 20
1526.362142829766
 30
0.0
 11
2018.409991045716
 21
1523.962142829766
 31
0.0
  0
LINE
  5
4B9
330
1F
100
AcDbEntity
  8
0
  6
Continuous
100
AcDbLine
 10
2016.159992045716
 20
1528.162142829765
 30
0.0
 11
2018.409991045716
 21
1528.162142829765
 31
0.0
  0
LINE
  5
4BA
330
1F
100
AcDbEntity
  8
0
  6
Continuous
100
AcDbLine
 10
2018.409991045716
 20
1523.962142829766
 30
0.0
 11
2016.159992045716
 21
1523.962142829766
 31
0.0
  0
ARC
  5
4BB
330
1F
100
AcDbEntity
  8
0
  6
Continuous
100
AcDbCircle
 10
2018.409991045716
 20
1526.062142829765
 30
0.0
 40
2.1
100
AcDbArc
 50
270.0
 51
283.7741499999854
  0
LINE
  5
4BC
330
1F
100
AcDbEntity
  8
0
  6
Continuous
100
AcDbLine
 10
2019.611703045717
 20
1507.179710047423
 30
0.0
 11
2019.611703045717
 21
1502.979711047423
 31
0.0
  0
LINE
  5
4BD
330
1F
100
AcDbEntity
  8
0
  6
Continuous
100
AcDbLine
 10
2010.449992045717
 20
1487.186542547423
 30
0.0
 11
2010.449992045717
 21
1494.186542547423
 31
0.0
  0
LINE
  5
4BE
330
1F
100
AcDbEntity
  8
0
  6
Continuous
100
AcDbLine
 10
2010.449992045717
 20
1487.186542547423
 30
0.0
 11
2007.949992345717
 21
1487.186542547423
 31
0.0
  0
LINE
  5
4BF
330
1F
100
AcDbEntity
  8
0
  6
Continuous
100
AcDbLine
 10
2007.949992345717
 20
1494.186542547423
 30
0.0
 11
2010.449992045717
 21
1494.186542547423
 31
0.0
  0
LINE
  5
4C0
330
1F
100
AcDbEntity
  8
0
  6
Continuous
100
AcDbLine
 10
2007.949992345717
 20
1494.186542547423
 30
0.0
 11
2007.949992345717
 21
1487.186542547423
 31
0.0
  0
LINE
  5
4C1
330
1F
100
AcDbEntity
  8
0
  6
Continuous
100
AcDbLine
 10
2010.449992045717
 20
1502.186542547423
 30
0.0
 11
2010.449992045717
 21
1509.186542047423
 31
0.0
  0
LINE
  5
4C2
330
1F
100
AcDbEntity
  8
0
  6
Continuous
100
AcDbLine
 10
2007.949992345717
 20
1509.186542047423
 30
0.0
 11
2010.449992045717
 21
1509.186542047423
 31
0.0
  0
LINE
  5
4C3
330
1F
100
AcDbEntity
  8
0
  6
Continuous
100
AcDbLine
 10
2010.449992045717
 20
1502.186542547423
 30
0.0
 11
2007.949992345717
 21
1502.186542547423
 31
0.0
  0
LINE
  5
4C4
330
1F
100
AcDbEntity
  8
0
  6
Continuous
100
AcDbLine
 10
2007.949992345717
 20
1509.186542047423
 30
0.0
 11
2007.949992345717
 21
1502.186542547423
 31
0.0
  0
LINE
  5
4C5
330
1F
100
AcDbEntity
  8
0
  6
Continuous
100
AcDbLine
 10
2016.159992045716
 20
1528.162142829765
 30
0.0
 11
2028.759992045717
 21
1528.162142829765
 31
0.0
  0
LINE
  5
4C6
330
1F
100
AcDbEntity
  8
0
  6
Continuous
100
AcDbLine
 10
2011.744994045717
 20
1504.194709047423
 30
0.0
 11
2011.893750045718
 21
1504.194866047423
 31
0.0
  0
LINE
  5
4C7
330
1F
100
AcDbEntity
  8
0
  6
Continuous
100
AcDbLine
 10
2010.531325045717
 20
1504.194710047424
 30
0.0
 11
2010.679992045717
 21
1504.194710047424
 31
0.0
  0
LINE
  5
4C8
330
1F
100
AcDbEntity
  8
0
  6
Continuous
100
AcDbLine
 10
2010.679992045717
 20
1504.194710047424
 30
0.0
 11
2011.744992045717
 21
1504.194710047424
 31
0.0
  0
LINE
  5
4C9
330
1F
100
AcDbEntity
  8
0
  6
Continuous
100
AcDbLine
 10
2011.893660045716
 20
1507.179710047423
 30
0.0
 11
2011.744992045717
 21
1507.179710047423
 31
0.0
  0
LINE
  5
4CA
330
1F
100
AcDbEntity
  8
0
  6
Continuous
100
AcDbLine
 10
2011.744992045717
 20
1507.179710047423
 30
0.0
 11
2010.679992045717
 21
1507.179710047423
 31
0.0
  0
LINE
  5
4CB
330
1F
100
AcDbEntity
  8
0
  6
Continuous
100
AcDbLine
 10
2010.679992045717
 20
1507.179710047423
 30
0.0
 11
2010.531325045717
 21
1507.179710047423
 31
0.0
  0
LINE
  5
4CC
330
1F
100
AcDbEntity
  8
0
  6
Continuous
100
AcDbLine
 10
2010.449992045717
 20
1504.335582047423
 30
0.0
 11
2010.449992045717
 21
1507.038839047423
 31
0.0
  0
LINE
  5
4CD
330
1F
100
AcDbEntity
  8
0
  6
Continuous
100
AcDbLine
 10
2010.531246045716
 20
1504.194853047423
 30
0.0
 11
2010.531904045716
 21
1504.194811047423
 31
0.0
  0
LINE
  5
4CE
330
1F
100
AcDbEntity
  8
0
  6
Continuous
100
AcDbLine
 10
2011.744992045717
 20
1504.773458047423
 30
0.0
 11
2010.679992045717
 21
1504.773458047423
 31
0.0
  0
LINE
  5
4CF
330
1F
100
AcDbEntity
  8
0
  6
Continuous
100
AcDbLine
 10
2010.679992045717
 20
1506.600963047423
 30
0.0
 11
2011.744992045717
 21
1506.600963047423
 31
0.0
  0
LINE
  5
4D0
330
1F
100
AcDbEntity
  8
0
  6
Continuous
100
AcDbLine
 10
2010.679992045717
 20
1507.179710047423
 30
0.0
 11
2010.679992045717
 21
1506.600963047423
 31
0.0
  0
LINE
  5
4D1
330
1F
100
AcDbEntity
  8
0
  6
Continuous
100
AcDbLine
 10
2011.744992045717
 20
1506.600963047423
 30
0.0
 11
2011.744992045717
 21
1507.179710047423
 31
0.0
  0
LINE
  5
4D2
330
1F
100
AcDbEntity
  8
0
  6
Continuous
100
AcDbLine
 10
2010.679992045717
 20
1504.773458047423
 30
0.0
 11
2010.679992045717
 21
1504.194710047424
 31
0.0
  0
LINE
  5
4D3
330
1F
100
AcDbEntity
  8
0
  6
Continuous
100
AcDbLine
 10
2011.744992045717
 20
1504.194710047424
 30
0.0
 11
2011.744992045717
 21
1504.773458047423
 31
0.0
  0
LINE
  5
4D4
330
1F
100
AcDbEntity
  8
0
  6
Continuous
100
AcDbLine
 10
2010.531232045717
 20
1507.179555047423
 30
0.0
 11
2010.449991045717
 21
1507.038836047423
 31
0.0
  0
LINE
  5
4D5
330
1F
100
AcDbEntity
  8
0
  6
Continuous
100
AcDbLine
 10
2010.449991045717
 20
1504.335581047424
 30
0.0
 11
2010.531246045716
 21
1504.194853047423
 31
0.0
  0
LINE
  5
4D6
330
1F
100
AcDbEntity
  8
0
  6
Continuous
100
AcDbLine
 10
2011.893750045718
 20
1504.194866047423
 30
0.0
 11
2011.959991045717
 21
1504.309600047424
 31
0.0
  0
LINE
  5
4D7
330
1F
100
AcDbEntity
  8
0
  6
Continuous
100
AcDbLine
 10
2011.959991045717
 20
1507.064821047423
 30
0.0
 11
2011.893741045717
 21
1507.179569047423
 31
0.0
  0
LINE
  5
4D8
330
1F
100
AcDbEntity
  8
0
  6
Continuous
100
AcDbLine
 10
2011.744994045717
 20
1489.179553547423
 30
0.0
 11
2011.893750045718
 21
1489.179710547423
 31
0.0
  0
LINE
  5
4D9
330
1F
100
AcDbEntity
  8
0
  6
Continuous
100
AcDbLine
 10
2010.531325045717
 20
1489.179554547423
 30
0.0
 11
2010.679992045717
 21
1489.179554547423
 31
0.0
  0
LINE
  5
4DA
330
1F
100
AcDbEntity
  8
0
  6
Continuous
100
AcDbLine
 10
2010.679992045717
 20
1489.179554547423
 30
0.0
 11
2011.744992045717
 21
1489.179554547423
 31
0.0
  0
LINE
  5
4DB
330
1F
100
AcDbEntity
  8
0
  6
Continuous
100
AcDbLine
 10
2011.893660045716
 20
1492.164554547423
 30
0.0
 11
2011.744992045717
 21
1492.164554547423
 31
0.0
  0
LINE
  5
4DC
330
1F
100
AcDbEntity
  8
0
  6
Continuous
100
AcDbLine
 10
2011.744992045717
 20
1492.164554547423
 30
0.0
 11
2010.679992045717
 21
1492.164554547423
 31
0.0
  0
LINE
  5
4DD
330
1F
100
AcDbEntity
  8
0
  6
Continuous
100
AcDbLine
 10
2010.679992045717
 20
1492.164554547423
 30
0.0
 11
2010.531325045717
 21
1492.164554547423
 31
0.0
  0
LINE
  5
4DE
330
1F
100
AcDbEntity
  8
0
  6
Continuous
100
AcDbLine
 10
2010.449992045717
 20
1489.320426547423
 30
0.0
 11
2010.449992045717
 21
1492.023683547422
 31
0.0
  0
LINE
  5
4DF
330
1F
100
AcDbEntity
  8
0
  6
Continuous
100
AcDbLine
 10
2010.531246045716
 20
1489.179697547423
 30
0.0
 11
2010.531904045716
 21
1489.179655547423
 31
0.0
  0
LINE
  5
4E0
330
1F
100
AcDbEntity
  8
0
  6
Continuous
100
AcDbLine
 10
2011.744992045717
 20
1489.758302547423
 30
0.0
 11
2010.679992045717
 21
1489.758302547423
 31
0.0
  0
LINE
  5
4E1
330
1F
100
AcDbEntity
  8
0
  6
Continuous
100
AcDbLine
 10
2010.679992045717
 20
1491.585807547423
 30
0.0
 11
2011.744992045717
 21
1491.585807547423
 31
0.0
  0
LINE
  5
4E2
330
1F
100
AcDbEntity
  8
0
  6
Continuous
100
AcDbLine
 10
2010.679992045717
 20
1492.164554547423
 30
0.0
 11
2010.679992045717
 21
1491.585807547423
 31
0.0
  0
LINE
  5
4E3
330
1F
100
AcDbEntity
  8
0
  6
Continuous
100
AcDbLine
 10
2011.744992045717
 20
1491.585807547423
 30
0.0
 11
2011.744992045717
 21
1492.164554547423
 31
0.0
  0
LINE
  5
4E4
330
1F
100
AcDbEntity
  8
0
  6
Continuous
100
AcDbLine
 10
2010.679992045717
 20
1489.758302547423
 30
0.0
 11
2010.679992045717
 21
1489.179554547423
 31
0.0
  0
LINE
  5
4E5
330
1F
100
AcDbEntity
  8
0
  6
Continuous
100
AcDbLine
 10
2011.744992045717
 20
1489.179554547423
 30
0.0
 11
2011.744992045717
 21
1489.758302547423
 31
0.0
  0
LINE
  5
4E6
330
1F
100
AcDbEntity
  8
0
  6
Continuous
100
AcDbLine
 10
2010.531232045717
 20
1492.164399547423
 30
0.0
 11
2010.449991045717
 21
1492.023680547423
 31
0.0
  0
LINE
  5
4E7
330
1F
100
AcDbEntity
  8
0
  6
Continuous
100
AcDbLine
 10
2010.449991045717
 20
1489.320425547423
 30
0.0
 11
2010.531246045716
 21
1489.179697547423
 31
0.0
  0
LINE
  5
4E8
330
1F
100
AcDbEntity
  8
0
  6
Continuous
100
AcDbLine
 10
2011.893750045718
 20
1489.179710547423
 30
0.0
 11
2011.959991045717
 21
1489.294444547423
 31
0.0
  0
LINE
  5
4E9
330
1F
100
AcDbEntity
  8
0
  6
Continuous
100
AcDbLine
 10
2011.959991045717
 20
1492.049665547423
 30
0.0
 11
2011.893741045717
 21
1492.164413547423
 31
0.0
  0
LINE
  5
4EA
330
1F
100
AcDbEntity
  8
0
  6
Continuous
100
AcDbLine
 10
2015.089997045716
 20
1523.812143829765
 30
0.0
 11
2015.089997045716
 21
1523.962142829766
 31
0.0
  0
LINE
  5
4EB
330
1F
100
AcDbEntity
  8
0
  6
Continuous
100
AcDbLine
 10
2013.029995045716
 20
1523.812143829765
 30
0.0
 11
2013.029995045716
 21
1523.962142829766
 31
0.0
  0
LINE
  5
4EC
330
1F
100
AcDbEntity
  8
0
  6
Continuous
100
AcDbLine
 10
2018.909991045717
 20
1523.962142829766
 30
0.0
 11
2018.909991045717
 21
1526.362142829766
 31
0.0
  0
LINE
  5
4ED
330
1F
100
AcDbEntity
  8
0
  6
Continuous
100
AcDbLine
 10
2019.739990045717
 20
1524.418243129765
 30
0.0
 11
2019.739990045717
 21
1524.504837829766
 31
0.0
  0
LINE
  5
4EE
330
1F
100
AcDbEntity
  8
0
  6
Continuous
100
AcDbLine
 10
2019.981614045716
 20
1523.962142829766
 30
0.0
 11
2022.959991045718
 21
1523.962142829766
 31
0.0
  0
LINE
  5
4EF
330
1F
100
AcDbEntity
  8
0
  6
Continuous
100
AcDbLine
 10
2019.059991045717
 20
1526.032142529766
 30
0.0
 11
2019.059991045717
 21
1526.362142829766
 31
0.0
  0
LINE
  5
4F0
330
1F
100
AcDbEntity
  8
0
  6
Continuous
100
AcDbLine
 10
2019.981614045716
 20
1523.962142829766
 30
0.0
 11
2019.059991045717
 21
1526.032142529766
 31
0.0
  0
LINE
  5
4F1
330
1F
100
AcDbEntity
  8
0
  6
Continuous
100
AcDbLine
 10
2022.959991045718
 20
1526.362142829766
 30
0.0
 11
2022.959991045718
 21
1523.962142829766
 31
0.0
  0
LINE
  5
4F2
330
1F
100
AcDbEntity
  8
0
  6
Continuous
100
AcDbLine
 10
2019.448703045718
 20
1524.317636929765
 30
0.0
 11
2018.909991045717
 21
1524.247144729765
 31
0.0
  0
ARC
  5
4F3
330
1F
100
AcDbEntity
  8
0
  6
Continuous
100
AcDbCircle
 10
2019.714990045716
 20
1524.418243129765
 30
0.0
 40
0.025
100
AcDbArc
 50
293.9660300003094
 51
0.0
  0
LINE
  5
4F4
330
1F
100
AcDbEntity
  8
0
  6
Continuous
100
AcDbLine
 10
2013.029995045716
 20
1523.812143829765
 30
0.0
 11
2015.089997045716
 21
1523.812143829765
 31
0.0
  0
LINE
  5
4F5
330
1F
100
AcDbEntity
  8
0
  6
Continuous
100
AcDbLine
 10
2019.725144045717
 20
1524.395396929766
 30
0.0
 11
2019.716374045717
 21
1524.391550029765
 31
0.0
  0
ARC
  5
4F6
330
1F
100
AcDbEntity
  8
0
  6
Continuous
100
AcDbCircle
 10
2019.317628129573
 20
1525.311967577129
 30
0.0
 40
1.003078644540986
100
AcDbArc
 50
292.8761288954626
 51
293.4233632833532
  0
ARC
  5
4F7
330
1F
100
AcDbEntity
  8
0
  6
Continuous
100
AcDbCircle
 10
2019.316931843814
 20
1525.314333194243
 30
0.0
 40
1.005528912494797
100
AcDbArc
 50
292.3139847590923
 51
292.8602831684203
  0
ARC
  5
4F8
330
1F
100
AcDbEntity
  8
0
  6
Continuous
100
AcDbCircle
 10
2019.316360777291
 20
1525.315314369138
 30
0.0
 40
1.006653449857852
100
AcDbArc
 50
291.7768641589577
 51
292.3228506747445
  0
ARC
  5
4F9
330
1F
100
AcDbEntity
  8
0
  6
Continuous
100
AcDbCircle
 10
2019.316931176707
 20
1525.314633525946
 30
0.0
 40
1.005809618604083
100
AcDbArc
 50
291.2143223808826
 51
291.7610789017809
  0
ARC
  5
4FA
330
1F
100
AcDbEntity
  8
0
  6
Continuous
100
AcDbCircle
 10
2019.316887426241
 20
1525.314279895648
 30
0.0
 40
1.005495798237392
100
AcDbArc
 50
290.6768022349536
 51
291.223938166317
  0
ARC
  5
4FB
330
1F
100
AcDbEntity
  8
0
  6
Continuous
100
AcDbCircle
 10
2019.317107348642
 20
1525.314424778821
 30
0.0
 40
1.005553728144132
100
AcDbArc
 50
290.1148302224074
 51
290.6621634334483
  0
ARC
  5
4FC
330
1F
100
AcDbEntity
  8
0
  6
Continuous
100
AcDbCircle
 10
2019.316913330656
 20
1525.314572937857
 30
0.0
 40
1.005759582140238
100
AcDbArc
 50
289.5748509081384
 51
290.1223061814341
  0
ARC
  5
4FD
330
1F
100
AcDbEntity
  8
0
  6
Continuous
100
AcDbCircle
 10
2019.317202443855
 20
1525.314466010202
 30
0.0
 40
1.005561998323267
100
AcDbArc
 50
289.0136582177194
 51
289.5613709080246
  0
ARC
  5
4FE
330
1F
100
AcDbEntity
  8
0
  6
Continuous
100
AcDbCircle
 10
2019.317080051644
 20
1525.314367612945
 30
0.0
 40
1.005508854978852
100
AcDbArc
 50
288.4741857275038
 51
289.0220785317931
  0
ARC
  5
4FF
330
1F
100
AcDbEntity
  8
0
  6
Continuous
100
AcDbCircle
 10
2019.31739083374
 20
1525.314224735505
 30
0.0
 40
1.005274891660399
100
AcDbArc
 50
287.9118188274584
 51
288.4599659089762
  0
ARC
  5
500
330
1F
100
AcDbEntity
  8
0
  6
Continuous
100
AcDbCircle
 10
2019.317188614264
 20
1525.314427070418
 30
0.0
 40
1.005529621212277
100
AcDbArc
 50
287.3711045135256
 51
287.9192371107507
  0
ARC
  5
501
330
1F
100
AcDbEntity
  8
0
  6
Continuous
100
AcDbCircle
 10
2019.31731136805
 20
1525.314855461163
 30
0.0
 40
1.005901854032331
100
AcDbArc
 50
286.8091664830037
 51
287.3571462618179
  0
ARC
  5
502
330
1F
100
AcDbEntity
  8
0
  6
Continuous
100
AcDbCircle
 10
2019.317368186635
 20
1525.314112718349
 30
0.0
 40
1.005174427928344
100
AcDbArc
 50
286.2698843569838
 51
286.8183093672764
  0
ARC
  5
503
330
1F
100
AcDbEntity
  8
0
  6
Continuous
100
AcDbCircle
 10
2019.318093573875
 20
1525.312636943413
 30
0.0
 40
1.003554567617285
100
AcDbArc
 50
285.7042794222914
 51
286.2537338714257
  0
ARC
  5
504
330
1F
100
AcDbEntity
  8
0
  6
Continuous
100
AcDbCircle
 10
2019.317325346165
 20
1525.314577208343
 30
0.0
 40
1.005630366279544
100
AcDbArc
 50
285.1683743993317
 51
285.7164934290056
  0
ARC
  5
505
330
1F
100
AcDbEntity
  8
0
  6
Continuous
100
AcDbCircle
 10
2019.316066448268
 20
1525.320272943152
 30
0.0
 40
1.011457104024092
100
AcDbArc
 50
284.6079760624368
 51
285.1527802980131
  0
ARC
  5
506
330
1F
100
AcDbEntity
  8
0
  6
Continuous
100
AcDbCircle
 10
2019.317988234604
 20
1525.312689330615
 30
0.0
 40
1.00363395787043
100
AcDbArc
 50
284.061537857749
 51
284.6109991823129
  0
ARC
  5
507
330
1F
100
AcDbEntity
  8
0
  6
Continuous
100
AcDbCircle
 10
2019.322703133553
 20
1525.295087516591
 30
0.0
 40
0.9854140709066756
100
AcDbArc
 50
283.4838296577968
 51
284.0442683539059
  0
ARC
  5
508
330
1F
100
AcDbEntity
  8
0
  6
Continuous
100
AcDbCircle
 10
2019.316406278337
 20
1525.318697638998
 30
0.0
 40
1.0098418310979
100
AcDbArc
 50
282.9743093342568
 51
283.5188986430824
  0
ARC
  5
509
330
1F
100
AcDbEntity
  8
0
  6
Continuous
100
AcDbCircle
 10
2019.302044312097
 20
1525.381820659731
 30
0.0
 40
1.074577852608052
100
AcDbArc
 50
282.456231642713
 51
282.9648881619956
  0
ARC
  5
50A
330
1F
100
AcDbEntity
  8
0
  6
Continuous
100
AcDbCircle
 10
2019.321580445458
 20
1525.299234256758
 30
0.0
 40
0.9897224296967943
100
AcDbArc
 50
281.8222537753833
 51
282.3831212705151
  0
ARC
  5
50B
330
1F
100
AcDbEntity
  8
0
  6
Continuous
100
AcDbCircle
 10
2019.350464206537
 20
1525.163085786427
 30
0.0
 40
0.8505444436101072
100
AcDbArc
 50
281.129132197125
 51
281.7968246577886
  0
ARC
  5
50C
330
1F
100
AcDbEntity
  8
0
  6
Continuous
100
AcDbCircle
 10
2019.307283882428
 20
1525.358232928908
 30
0.0
 40
1.050366998953895
100
AcDbArc
 50
280.8780333644992
 51
281.3855555016544
  0
ARC
  5
50D
330
1F
100
AcDbEntity
  8
0
  6
Continuous
100
AcDbCircle
 10
2018.987440790246
 20
1527.014742873539
 30
0.0
 40
2.737472199771381
100
AcDbArc
 50
280.7329762453595
 51
280.9090319776525
  0
ARC
  5
50E
330
1F
100
AcDbEntity
  8
0
  6
Continuous
100
AcDbCircle
 10
2019.345743752029
 20
1525.177686285481
 30
0.0
 40
0.8658827510963654
100
AcDbArc
 50
279.3629224715732
 51
280.0768308922543
  0
ARC
  5
50F
330
1F
100
AcDbEntity
  8
0
  6
Continuous
100
AcDbCircle
 10
2019.35991482385
 20
1525.087956509753
 30
0.0
 40
0.7750431754475972
100
AcDbArc
 50
278.1810771243299
 51
279.4084336695391
  0
ARC
  5
510
330
1F
100
AcDbEntity
  8
0
  6
Continuous
100
AcDbCircle
 10
2019.157890391879
 20
1526.368723123575
 30
0.0
 40
2.071600003395138
100
AcDbArc
 50
278.0698761740709
 51
278.6709788675219
  0
LINE
  5
511
330
1F
100
AcDbEntity
  8
0
  6
Continuous
100
AcDbLine
 10
2010.679992045717
 20
1489.758303547423
 30
0.0
 11
2010.669475045716
 21
1489.793711547424
 31
0.0
  0
ARC
  5
512
330
1F
100
AcDbEntity
  8
0
  6
Continuous
100
AcDbCircle
 10
2015.189758950334
 20
1491.117111439887
 30
0.0
 40
4.710026948300789
100
AcDbArc
 50
195.8766975179944
 51
196.3184052614329
  0
ARC
  5
513
330
1F
100
AcDbEntity
  8
0
  6
Continuous
100
AcDbCircle
 10
2014.931282727562
 20
1491.041344742683
 30
0.0
 40
4.440684088657768
100
AcDbArc
 50
195.3886966387795
 51
195.8487564243753
  0
ARC
  5
514
330
1F
100
AcDbEntity
  8
0
  6
Continuous
100
AcDbCircle
 10
2014.736917960125
 20
1490.987775506288
 30
0.0
 40
4.239072281844973
100
AcDbArc
 50
194.913825468242
 51
195.3877386740905
  0
ARC
  5
515
330
1F
100
AcDbEntity
  8
0
  6
Continuous
100
AcDbCircle
 10
2014.626594865375
 20
1490.956880339835
 30
0.0
 40
4.124514424525457
100
AcDbArc
 50
194.414482633675
 51
194.8935296566908
  0
ARC
  5
516
330
1F
100
AcDbEntity
  8
0
  6
Continuous
100
AcDbCircle
 10
2014.49900394495
 20
1490.924001177906
 30
0.0
 40
3.992755268249018
100
AcDbArc
 50
193.9259874292824
 51
194.4133012568829
  0
ARC
  5
517
330
1F
100
AcDbEntity
  8
0
  6
Continuous
100
AcDbCircle
 10
2014.372698574081
 20
1490.89121448741
 30
0.0
 40
3.862271883657514
100
AcDbArc
 50
193.408792158543
 51
193.9048433918811
  0
ARC
  5
518
330
1F
100
AcDbEntity
  8
0
  6
Continuous
100
AcDbCircle
 10
2014.249989104756
 20
1490.861848005389
 30
0.0
 40
3.736097434483661
100
AcDbArc
 50
192.9015618366355
 51
193.407105514362
  0
ARC
  5
519
330
1F
100
AcDbEntity
  8
0
  6
Continuous
100
AcDbCircle
 10
2014.147514404408
 20
1490.836992401103
 30
0.0
 40
3.630660270090221
100
AcDbArc
 50
192.3673924501736
 51
192.8802902569952
  0
ARC
  5
51A
330
1F
100
AcDbEntity
  8
0
  6
Continuous
100
AcDbCircle
 10
2014.043532606771
 20
1490.814270751393
 30
0.0
 40
3.52422493012038
100
AcDbArc
 50
191.8470750406934
 51
192.3686343209829
  0
ARC
  5
51B
330
1F
100
AcDbEntity
  8
0
  6
Continuous
100
AcDbCircle
 10
2013.952221998721
 20
1490.793737530216
 30
0.0
 40
3.430644115951498
100
AcDbArc
 50
191.2956484599473
 51
191.8245325546459
  0
ARC
  5
51C
330
1F
100
AcDbEntity
  8
0
  6
Continuous
100
AcDbCircle
 10
2013.861267589492
 20
1490.775567621759
 30
0.0
 40
3.337892565424341
100
AcDbArc
 50
190.7584020169506
 51
191.295604565861
  0
ARC
  5
51D
330
1F
100
AcDbEntity
  8
0
  6
Continuous
100
AcDbCircle
 10
2013.782701105869
 20
1490.759481358814
 30
0.0
 40
3.257704448609234
100
AcDbArc
 50
190.194372098074
 51
190.738393127659
  0
ARC
  5
51E
330
1F
100
AcDbEntity
  8
0
  6
Continuous
100
AcDbCircle
 10
2013.704296424717
 20
1490.74543185456
 30
0.0
 40
3.178050948143591
100
AcDbArc
 50
189.6434971021417
 51
190.195255286656
  0
ARC
  5
51F
330
1F
100
AcDbEntity
  8
0
  6
Continuous
100
AcDbCircle
 10
2013.636743457569
 20
1490.732870471324
 30
0.0
 40
3.109348497101926
100
AcDbArc
 50
189.0657082148647
 51
189.6238246122688
  0
ARC
  5
520
330
1F
100
AcDbEntity
  8
0
  6
Continuous
100
AcDbCircle
 10
2013.569709132429
 20
1490.722117141449
 30
0.0
 40
3.041457175306629
100
AcDbArc
 50
188.4994019087735
 51
189.0646419622467
  0
ARC
  5
521
330
1F
100
AcDbEntity
  8
0
  6
Continuous
100
AcDbCircle
 10
2013.512210771987
 20
1490.712528631489
 30
0.0
 40
2.983173285596397
100
AcDbArc
 50
187.9094468139082
 51
188.4804837207791
  0
ARC
  5
522
330
1F
100
AcDbEntity
  8
0
  6
Continuous
100
AcDbCircle
 10
2013.455549609347
 20
1490.704881258584
 30
0.0
 40
2.925998822448931
100
AcDbArc
 50
187.3363421893586
 51
187.9138017523689
  0
ARC
  5
523
330
1F
100
AcDbEntity
  8
0
  6
Continuous
100
AcDbCircle
 10
2013.407439609591
 20
1490.697523162312
 30
0.0
 40
2.877343316969025
100
AcDbArc
 50
186.7307140285996
 51
187.3133526385281
  0
ARC
  5
524
330
1F
100
AcDbEntity
  8
0
  6
Continuous
100
AcDbCircle
 10
2013.360404868061
 20
1490.692225733566
 30
0.0
 40
2.830011876577068
100
AcDbArc
 50
186.1475167233015
 51
186.7358098855802
  0
ARC
  5
525
330
1F
100
AcDbEntity
  8
0
  6
Continuous
100
AcDbCircle
 10
2013.320797923888
 20
1490.687006642245
 30
0.0
 40
2.790073948546079
100
AcDbArc
 50
185.5352660463971
 51
186.1280567141551
  0
ARC
  5
526
330
1F
100
AcDbEntity
  8
0
  6
Continuous
100
AcDbCircle
 10
2013.282879363214
 20
1490.683553616049
 30
0.0
 40
2.751999136946809
100
AcDbArc
 50
184.9422483693429
 51
185.5398596881307
  0
ARC
  5
527
330
1F
100
AcDbEntity
  8
0
  6
Continuous
100
AcDbCircle
 10
2013.251462045895
 20
1490.679920220328
 30
0.0
 40
2.720385758430606
100
AcDbArc
 50
184.3216412364862
 51
184.9230141349662
  0
ARC
  5
528
330
1F
100
AcDbEntity
  8
0
  6
Continuous
100
AcDbCircle
 10
2013.221959949065
 20
1490.677846106654
 30
0.0
 40
2.690811252531041
100
AcDbArc
 50
183.71963716965
 51
184.3249400729908
  0
ARC
  5
529
330
1F
100
AcDbEntity
  8
0
  6
Continuous
100
AcDbCircle
 10
2013.198316955502
 20
1490.675562565695
 30
0.0
 40
2.667070025147538
100
AcDbArc
 50
183.0953537533314
 51
183.7036345724888
  0
ARC
  5
52A
330
1F
100
AcDbEntity
  8
0
  6
Continuous
100
AcDbCircle
 10
2013.176917708557
 20
1490.674710320563
 30
0.0
 40
2.645655996711127
100
AcDbArc
 50
182.4906762305705
 51
183.1019484182838
  0
ARC
  5
52B
330
1F
100
AcDbEntity
  8
0
  6
Continuous
100
AcDbCircle
 10
2013.16061988324
 20
1490.673182994676
 30
0.0
 40
2.629307322259367
100
AcDbArc
 50
181.8594311383242
 51
182.4728590528857
  0
ARC
  5
52C
330
1F
100
AcDbEntity
  8
0
  6
Continuous
100
AcDbCircle
 10
2013.147191162481
 20
1490.673037773602
 30
0.0
 40
2.615880976590196
100
AcDbArc
 50
181.2503523596759
 51
181.8657958106868
  0
ARC
  5
52D
330
1F
100
AcDbEntity
  8
0
  6
Continuous
100
AcDbCircle
 10
2013.13807637734
 20
1490.672067721575
 30
0.0
 40
2.606747308203456
100
AcDbArc
 50
180.6166589684987
 51
181.2334075391867
  0
ARC
  5
52E
330
1F
100
AcDbEntity
  8
0
  6
Continuous
100
AcDbCircle
 10
2013.132194999641
 20
1490.67240922786
 30
0.0
 40
2.60086997810772
100
AcDbArc
 50
180.0078134210377
 51
180.6255761654884
  0
ARC
  5
52F
330
1F
100
AcDbEntity
  8
0
  6
Continuous
100
AcDbCircle
 10
2013.13045002104
 20
1490.671710524507
 30
0.0
 40
2.599124998090482
100
AcDbArc
 50
179.3742167289926
 51
179.9924162703909
  0
ARC
  5
530
330
1F
100
AcDbEntity
  8
0
  6
Continuous
100
AcDbCircle
 10
2013.13195800378
 20
1490.672141162237
 30
0.0
 40
2.600628225996384
100
AcDbArc
 50
178.765866872334
 51
179.3840666199898
  0
ARC
  5
531
330
1F
100
AcDbEntity
  8
0
  6
Continuous
100
AcDbCircle
 10
2013.137278571556
 20
1490.671338923257
 30
0.0
 40
2.605964928874783
100
AcDbArc
 50
178.1329887988495
 51
178.7507521391914
  0
ARC
  5
532
330
1F
100
AcDbEntity
  8
0
  6
Continuous
100
AcDbCircle
 10
2013.146567844094
 20
1490.671461623777
 30
0.0
 40
2.615245307135583
100
AcDbArc
 50
177.525557731117
 51
178.1423059351067
  0
ARC
  5
533
330
1F
100
AcDbEntity
  8
0
  6
Continuous
100
AcDbCircle
 10
2013.159018479214
 20
1490.670274037862
 30
0.0
 40
2.62773568568547
100
AcDbArc
 50
176.8959672220434
 51
177.5114081291395
  0
ARC
  5
534
330
1F
100
AcDbEntity
  8
0
  6
Continuous
100
AcDbCircle
 10
2013.1759758422
 20
1490.669874637917
 30
0.0
 40
2.644689848023185
100
AcDbArc
 50
176.2937916735687
 51
176.9072200006547
  0
ARC
  5
535
330
1F
100
AcDbEntity
  8
0
  6
Continuous
100
AcDbCircle
 10
2013.195711771381
 20
1490.668109700585
 30
0.0
 40
2.66449863243071
100
AcDbArc
 50
175.6720711366364
 51
176.2833516207157
  0
ARC
  5
536
330
1F
100
AcDbEntity
  8
0
  6
Continuous
100
AcDbCircle
 10
2013.220680129325
 20
1490.666678602206
 30
0.0
 40
2.689503828677497
100
AcDbArc
 50
175.0735332339593
 51
175.6818113946025
  0
ARC
  5
537
330
1F
100
AcDbEntity
  8
0
  6
Continuous
100
AcDbCircle
 10
2013.248192617917
 20
1490.663738281418
 30
0.0
 40
2.717167244296565
100
AcDbArc
 50
174.4563098288633
 51
175.0615821135651
  0
ARC
  5
538
330
1F
100
AcDbEntity
  8
0
  6
Continuous
100
AcDbCircle
 10
2013.281149992259
 20
1490.661152879194
 30
0.0
 40
2.750220301070333
100
AcDbArc
 50
173.8676481598479
 51
174.4690290796783
  0
ARC
  5
539
330
1F
100
AcDbEntity
  8
0
  6
Continuous
100
AcDbCircle
 10
2013.316068070466
 20
1490.656890178282
 30
0.0
 40
2.785393982019495
100
AcDbArc
 50
173.2594782785171
 51
173.8571951124977
  0
ARC
  5
53A
330
1F
100
AcDbEntity
  8
0
  6
Continuous
100
AcDbCircle
 10
2013.358676652516
 20
1490.652593306415
 30
0.0
 40
2.828212481212243
100
AcDbArc
 50
172.6815866075771
 51
173.2743467254191
  0
ARC
  5
53B
330
1F
100
AcDbEntity
  8
0
  6
Continuous
100
AcDbCircle
 10
2013.403816448468
 20
1490.646238395515
 30
0.0
 40
2.873794111545691
100
AcDbArc
 50
172.0826323869712
 51
172.6705596378859
  0
ARC
  5
53C
330
1F
100
AcDbEntity
  8
0
  6
Continuous
100
AcDbCircle
 10
2013.45298949681
 20
1490.640025335023
 30
0.0
 40
2.923354312675169
100
AcDbArc
 50
171.5120300599255
 51
172.0947740704972
  0
ARC
  5
53D
330
1F
100
AcDbEntity
  8
0
  6
Continuous
100
AcDbCircle
 10
2013.500208174469
 20
1490.632595261963
 30
0.0
 40
2.971152514291075
100
AcDbArc
 50
170.9260216507296
 51
171.5047188863677
  0
ARC
  5
53E
330
1F
100
AcDbEntity
  8
0
  6
Continuous
100
AcDbCircle
 10
2013.568862583674
 20
1490.622546887308
 30
0.0
 40
3.04053261008249
100
AcDbArc
 50
170.372404593662
 51
170.9430723575776
  0
ARC
  5
53F
330
1F
100
AcDbEntity
  8
0
  6
Continuous
100
AcDbCircle
 10
2013.65018729499
 20
1490.608320341146
 30
0.0
 40
3.123091239699872
100
AcDbArc
 50
169.8034781950489
 51
170.3646051239424
  0
ARC
  5
540
330
1F
100
AcDbEntity
  8
0
  6
Continuous
100
AcDbCircle
 10
2013.696689657516
 20
1490.600356235541
 30
0.0
 40
3.170269030674345
100
AcDbArc
 50
169.2512152705888
 51
169.810594505297
  0
ARC
  5
541
330
1F
100
AcDbEntity
  8
0
  6
Continuous
100
AcDbCircle
 10
2013.707006763702
 20
1490.597895012953
 30
0.0
 40
3.180864180784983
100
AcDbArc
 50
168.6772868471474
 51
169.2423194453269
  0
ARC
  5
542
330
1F
100
AcDbEntity
  8
0
  6
Continuous
100
AcDbCircle
 10
2013.876763920616
 20
1490.566532286402
 30
0.0
 40
3.353475924712058
100
AcDbArc
 50
168.1815209066654
 51
168.7213150898147
  0
ARC
  5
543
330
1F
100
AcDbEntity
  8
0
  6
Continuous
100
AcDbCircle
 10
2014.191969014742
 20
1490.500473440264
 30
0.0
 40
3.675528735986361
100
AcDbArc
 50
167.6844149979306
 51
168.1799498382705
  0
ARC
  5
544
330
1F
100
AcDbEntity
  8
0
  6
Continuous
100
AcDbCircle
 10
2013.980504533888
 20
1490.542254814725
 30
0.0
 40
3.460021408912294
100
AcDbArc
 50
167.0704295288085
 51
167.6134634722547
  0
ARC
  5
545
330
1F
100
AcDbEntity
  8
0
  6
Continuous
100
AcDbCircle
 10
2013.574309472181
 20
1490.634827260851
 30
0.0
 40
3.043411774385345
100
AcDbArc
 50
166.415610899812
 51
167.0579651048808
  0
ARC
  5
546
330
1F
100
AcDbEntity
  8
0
  6
Continuous
100
AcDbCircle
 10
2014.438875803458
 20
1490.444261693048
 30
0.0
 40
3.928591885043692
100
AcDbArc
 50
166.2048619840968
 51
166.6756862271714
  0
ARC
  5
547
330
1F
100
AcDbEntity
  8
0
  6
Continuous
100
AcDbCircle
 10
2021.917609038353
 20
1488.614612758932
 30
0.0
 40
11.62788094370164
100
AcDbArc
 50
166.0917222085796
 51
166.2365945219563
  0
ARC
  5
548
330
1F
100
AcDbEntity
  8
0
  6
Continuous
100
AcDbCircle
 10
2013.884543056994
 20
1490.567098749268
 30
0.0
 40
3.361203656469339
100
AcDbArc
 50
164.8184128109027
 51
165.4839838330895
  0
ARC
  5
549
330
1F
100
AcDbEntity
  8
0
  6
Continuous
100
AcDbCircle
 10
2013.736480159595
 20
1490.611599147317
 30
0.0
 40
3.206657043466047
100
AcDbArc
 50
163.78729866384
 51
164.8929713419287
  0
ARC
  5
54A
330
1F
100
AcDbEntity
  8
0
  6
Continuous
100
AcDbCircle
 10
2019.501569718253
 20
1489.010997202951
 30
0.0
 40
9.189661353553074
100
AcDbArc
 50
163.7287271198714
 51
164.2404930656877
  0
LINE
  5
54B
330
1F
100
AcDbEntity
  8
0
  6
Continuous
100
AcDbLine
 10
2011.744994045717
 20
1491.585806547423
 30
0.0
 11
2011.755511045718
 21
1491.550398547423
 31
0.0
  0
ARC
  5
54C
330
1F
100
AcDbEntity
  8
0
  6
Continuous
100
AcDbCircle
 10
2007.235325392059
 20
1490.226990074999
 30
0.0
 40
4.709935066262943
100
AcDbArc
 50
15.87713658286159
 51
16.31884125526207
  0
ARC
  5
54D
330
1F
100
AcDbEntity
  8
0
  6
Continuous
100
AcDbCircle
 10
2007.493673323884
 20
1490.302757954207
 30
0.0
 40
4.440715280176211
100
AcDbArc
 50
15.38869825521778
 51
15.84875480934249
  0
ARC
  5
54E
330
1F
100
AcDbEntity
  8
0
  6
Continuous
100
AcDbCircle
 10
2007.687918237726
 20
1490.356448272655
 30
0.0
 40
4.239186903970495
100
AcDbArc
 50
14.91182277674942
 51
15.38573268236555
  0
ARC
  5
54F
330
1F
100
AcDbEntity
  8
0
  6
Continuous
100
AcDbCircle
 10
2007.798362662994
 20
1490.387102813083
 30
0.0
 40
4.124573690310066
100
AcDbArc
 50
14.41609174176022
 51
14.89513539579555
  0
ARC
  5
550
330
1F
100
AcDbEntity
  8
0
  6
Continuous
100
AcDbCircle
 10
2007.925955018521
 20
1490.420102067808
 30
0.0
 40
3.992783247218618
100
AcDbArc
 50
13.92598913658423
 51
14.41329954937041
  0
ARC
  5
551
330
1F
100
AcDbEntity
  8
0
  6
Continuous
100
AcDbCircle
 10
2008.052260834181
 20
1490.453004749388
 30
0.0
 40
3.862271558629185
100
AcDbArc
 50
13.40712884891934
 51
13.9031766216005
  0
ARC
  5
552
330
1F
100
AcDbEntity
  8
0
  6
Continuous
100
AcDbCircle
 10
2008.174971087608
 20
1490.482142818501
 30
0.0
 40
3.736149311791467
100
AcDbArc
 50
12.90325606330909
 51
13.40879621163492
  0
ARC
  5
553
330
1F
100
AcDbEntity
  8
0
  6
Continuous
100
AcDbCircle
 10
2008.277446990479
 20
1490.507112162616
 30
0.0
 40
3.63068557818865
100
AcDbArc
 50
12.36739423788234
 51
12.88028846946339
  0
ARC
  5
554
330
1F
100
AcDbEntity
  8
0
  6
Continuous
100
AcDbCircle
 10
2008.381429060776
 20
1490.529944065957
 30
0.0
 40
3.524226357135086
100
AcDbArc
 50
11.84533057848677
 51
12.3668862377032
  0
ARC
  5
555
330
1F
100
AcDbEntity
  8
0
  6
Continuous
100
AcDbCircle
 10
2008.472740289285
 20
1490.550259464681
 30
0.0
 40
3.430689613016228
100
AcDbArc
 50
11.29742288146363
 51
11.82630330925457
  0
ARC
  5
556
330
1F
100
AcDbEntity
  8
0
  6
Continuous
100
AcDbCircle
 10
2008.563802374577
 20
1490.568538533399
 30
0.0
 40
3.337811089160978
100
AcDbArc
 50
10.75875407137311
 51
11.29595288462046
  0
ARC
  5
557
330
1F
100
AcDbEntity
  8
0
  6
Continuous
100
AcDbCircle
 10
2008.64226298764
 20
1490.584625672307
 30
0.0
 40
3.257726818480767
100
AcDbArc
 50
10.19437396590597
 51
10.73839125982245
  0
ARC
  5
558
330
1F
100
AcDbEntity
  8
0
  6
Continuous
100
AcDbCircle
 10
2008.720564239019
 20
1490.598674965431
 30
0.0
 40
3.178175152084651
100
AcDbArc
 50
9.643176517269264
 51
10.19493089735669
  0
ARC
  5
559
330
1F
100
AcDbEntity
  8
0
  6
Continuous
100
AcDbCircle
 10
2008.788221219947
 20
1490.611338841072
 30
0.0
 40
3.109353024243158
100
AcDbArc
 50
9.063843508598635
 51
9.621956101581986
  0
ARC
  5
55A
330
1F
100
AcDbEntity
  8
0
  6
Continuous
100
AcDbCircle
 10
2008.855255862282
 20
1490.621888406218
 30
0.0
 40
3.041493493963153
100
AcDbArc
 50
8.501291004584743
 51
9.066527184879946
  0
ARC
  5
55B
330
1F
100
AcDbEntity
  8
0
  6
Continuous
100
AcDbCircle
 10
2008.912755291877
 20
1490.631578579138
 30
0.0
 40
2.983193519528443
100
AcDbArc
 50
7.909448750482482
 51
8.480481784190354
  0
ARC
  5
55C
330
1F
100
AcDbEntity
  8
0
  6
Continuous
100
AcDbCircle
 10
2008.969416414879
 20
1490.63932543696
 30
0.0
 40
2.926005399910358
100
AcDbArc
 50
7.334418404792874
 51
7.911874071720455
  0
ARC
  5
55D
330
1F
100
AcDbEntity
  8
0
  6
Continuous
100
AcDbCircle
 10
2009.017526885218
 20
1490.64648624206
 30
0.0
 40
2.877374581429743
100
AcDbArc
 50
6.732659476368775
 51
7.315294190220938
  0
ARC
  5
55E
330
1F
100
AcDbEntity
  8
0
  6
Continuous
100
AcDbCircle
 10
2009.06456248965
 20
1490.651882246159
 30
0.0
 40
2.830030729074763
100
AcDbArc
 50
6.147518682853577
 51
6.735807926130625
  0
ARC
  5
55F
330
1F
100
AcDbEntity
  8
0
  6
Continuous
100
AcDbCircle
 10
2009.104169317291
 20
1490.657198232449
 30
0.0
 40
2.790082574905413
100
AcDbArc
 50
5.533293411117536
 51
6.126080159861184
  0
ARC
  5
560
330
1F
100
AcDbEntity
  8
0
  6
Continuous
100
AcDbCircle
 10
2009.142087861581
 20
1490.660554839937
 30
0.0
 40
2.75201707834792
100
AcDbArc
 50
4.942250316527383
 51
5.539857739225443
  0
ARC
  5
561
330
1F
100
AcDbEntity
  8
0
  6
Continuous
100
AcDbCircle
 10
2009.173505478232
 20
1490.664188454196
 30
0.0
 40
2.720403382818294
100
AcDbArc
 50
4.32164318452414
 51
4.923012186922485
  0
ARC
  5
562
330
1F
100
AcDbEntity
  8
0
  6
Continuous
100
AcDbCircle
 10
2009.203008365191
 20
1490.666168117163
 30
0.0
 40
2.690835213486287
100
AcDbArc
 50
3.721649688204327
 51
4.326948695479103
  0
ARC
  5
563
330
1F
100
AcDbEntity
  8
0
  6
Continuous
100
AcDbCircle
 10
2009.226652082993
 20
1490.668546516172
 30
0.0
 40
2.667087107907029
100
AcDbArc
 50
3.095355701343096
 51
3.703632624423201
  0
ARC
  5
564
330
1F
100
AcDbEntity
  8
0
  6
Continuous
100
AcDbCircle
 10
2009.248051337293
 20
1490.669492697891
 30
0.0
 40
2.645667990626483
100
AcDbArc
 50
2.488650635271694
 51
3.099918995646376
  0
ARC
  5
565
330
1F
100
AcDbEntity
  8
0
  6
Continuous
100
AcDbCircle
 10
2009.264255412519
 20
1490.670925980101
 30
0.0
 40
2.629417064017919
100
AcDbArc
 50
1.859356123271121
 51
2.472780210511315
  0
ARC
  5
566
330
1F
100
AcDbEntity
  8
0
  6
Continuous
100
AcDbCircle
 10
2009.277870958282
 20
1490.671071384216
 30
0.0
 40
2.615803986048318
100
AcDbArc
 50
1.250409696225136
 51
1.865849365735458
  0
ARC
  5
567
330
1F
100
AcDbEntity
  8
0
  6
Continuous
100
AcDbCircle
 10
2009.286893233131
 20
1490.671949215839
 30
0.0
 40
2.606764792478414
100
AcDbArc
 50
0.6187025190157576
 51
1.235447308200918
  0
ARC
  5
568
330
1F
100
AcDbEntity
  8
0
  6
Continuous
100
AcDbCircle
 10
2009.292682617351
 20
1490.671700280052
 30
0.0
 40
2.600978452491693
100
AcDbArc
 50
0.0078039959033705
 51
0.6255630047138636
  0
ARC
  5
569
330
1F
100
AcDbEntity
  8
0
  6
Continuous
100
AcDbCircle
 10
2009.294613238491
 20
1490.672399156084
 30
0.0
 40
2.59904783007216
100
AcDbArc
 50
359.3742072809526
 51
359.9924031325215
  0
ARC
  5
56A
330
1F
100
AcDbEntity
  8
0
  6
Continuous
100
AcDbCircle
 10
2009.293012260076
 20
1490.672061861391
 30
0.0
 40
2.600645053284174
100
AcDbArc
 50
358.7638270345477
 51
359.3820231382154
  0
ARC
  5
56B
330
1F
100
AcDbEntity
  8
0
  6
Continuous
100
AcDbCircle
 10
2009.287598696804
 20
1490.672771081683
 30
0.0
 40
2.606072724361141
100
AcDbArc
 50
358.1330460322742
 51
358.7508057973712
  0
ARC
  5
56C
330
1F
100
AcDbEntity
  8
0
  6
Continuous
100
AcDbCircle
 10
2009.278495288437
 20
1490.672648533055
 30
0.0
 40
2.615167341485165
100
AcDbArc
 50
357.5254825556458
 51
358.1422272531556
  0
ARC
  5
56D
330
1F
100
AcDbEntity
  8
0
  6
Continuous
100
AcDbCircle
 10
2009.265952451571
 20
1490.673743676282
 30
0.0
 40
2.627745823407519
100
AcDbArc
 50
356.8979964498509
 51
357.5134339192191
  0
ARC
  5
56E
330
1F
100
AcDbEntity
  8
0
  6
Continuous
100
AcDbCircle
 10
2009.248995749942
 20
1490.674236318219
 30
0.0
 40
2.644704372663353
100
AcDbArc
 50
356.2937933580236
 51
356.9072183161491
  0
ARC
  5
56F
330
1F
100
AcDbEntity
  8
0
  6
Continuous
100
AcDbCircle
 10
2009.229259270796
 20
1490.67609514774
 30
0.0
 40
2.664519793812436
100
AcDbArc
 50
355.6700622391355
 51
356.2813393771756
  0
ARC
  5
570
330
1F
100
AcDbEntity
  8
0
  6
Continuous
100
AcDbCircle
 10
2009.204290619525
 20
1490.677432652242
 30
0.0
 40
2.689518217859644
100
AcDbArc
 50
355.0735348611448
 51
355.6818097674145
  0
ARC
  5
571
330
1F
100
AcDbEntity
  8
0
  6
Continuous
100
AcDbCircle
 10
2009.176778334807
 20
1490.680373110322
 30
0.0
 40
2.717181442161539
100
AcDbArc
 50
354.4563114111642
 51
355.0615805331625
  0
ARC
  5
572
330
1F
100
AcDbEntity
  8
0
  6
Continuous
100
AcDbCircle
 10
2009.143821627375
 20
1490.68286336941
 30
0.0
 40
2.750224666523489
100
AcDbArc
 50
353.8696242900715
 51
354.4710021388628
  0
ARC
  5
573
330
1F
100
AcDbEntity
  8
0
  6
Continuous
100
AcDbCircle
 10
2009.108904012228
 20
1490.687221498209
 30
0.0
 40
2.785408079570751
100
AcDbArc
 50
353.2594797911662
 51
353.8571935999528
  0
ARC
  5
574
330
1F
100
AcDbEntity
  8
0
  6
Continuous
100
AcDbCircle
 10
2009.066295047187
 20
1490.691615158453
 30
0.0
 40
2.828238296176767
100
AcDbArc
 50
352.6796445744813
 51
353.272401758808
  0
ARC
  5
575
330
1F
100
AcDbEntity
  8
0
  6
Continuous
100
AcDbCircle
 10
2009.021154985626
 20
1490.697873527285
 30
0.0
 40
2.873807890488805
100
AcDbArc
 50
352.0826337964911
 51
352.670558228474
  0
ARC
  5
576
330
1F
100
AcDbEntity
  8
0
  6
Continuous
100
AcDbCircle
 10
2008.971982325295
 20
1490.703988422908
 30
0.0
 40
2.923354207835064
100
AcDbArc
 50
351.5139387974561
 51
352.0966800349226
  0
ARC
  5
577
330
1F
100
AcDbEntity
  8
0
  6
Continuous
100
AcDbCircle
 10
2008.924764427604
 20
1490.711516917438
 30
0.0
 40
2.971166163591206
100
AcDbArc
 50
350.9260229800465
 51
351.5047175571877
  0
ARC
  5
578
330
1F
100
AcDbEntity
  8
0
  6
Continuous
100
AcDbCircle
 10
2008.856110133368
 20
1490.721565407763
 30
0.0
 40
3.040546164077876
100
AcDbArc
 50
350.3724058664807
 51
350.9430710864715
  0
ARC
  5
579
330
1F
100
AcDbEntity
  8
0
  6
Continuous
100
AcDbCircle
 10
2008.774785100338
 20
1490.735792147984
 30
0.0
 40
3.123105143340525
100
AcDbArc
 50
349.8034794440956
 51
350.3646038748919
  0
ARC
  5
57A
330
1F
100
AcDbEntity
  8
0
  6
Continuous
100
AcDbCircle
 10
2008.728385577372
 20
1490.743756813914
 30
0.0
 40
3.170181815893151
100
AcDbArc
 50
349.2508800850511
 51
349.810256936272
  0
ARC
  5
57B
330
1F
100
AcDbEntity
  8
0
  6
Continuous
100
AcDbCircle
 10
2008.717864755809
 20
1490.746218151413
 30
0.0
 40
3.180977125497018
100
AcDbArc
 50
348.677637805434
 51
349.2426680201252
  0
ARC
  5
57C
330
1F
100
AcDbEntity
  8
0
  6
Continuous
100
AcDbCircle
 10
2008.548208139528
 20
1490.777686716763
 30
0.0
 40
3.353510987069263
100
AcDbArc
 50
348.1797452191362
 51
348.7195371792024
  0
ARC
  5
57D
330
1F
100
AcDbEntity
  8
0
  6
Continuous
100
AcDbCircle
 10
2008.233001614164
 20
1490.843639746578
 30
0.0
 40
3.675543525206018
100
AcDbArc
 50
347.6844159949577
 51
348.1799488414214
  0
ARC
  5
57E
330
1F
100
AcDbEntity
  8
0
  6
Continuous
100
AcDbCircle
 10
2008.444468091999
 20
1490.801752681965
 30
0.0
 40
3.460011577923022
100
AcDbArc
 50
347.0721353116194
 51
347.6151671695114
  0
ARC
  5
57F
330
1F
100
AcDbEntity
  8
0
  6
Continuous
100
AcDbCircle
 10
2008.850754717917
 20
1490.709285949722
 30
0.0
 40
3.043336357530439
100
AcDbArc
 50
346.4152268338105
 51
347.0575786324842
  0
ARC
  5
580
330
1F
100
AcDbEntity
  8
0
  6
Continuous
100
AcDbCircle
 10
2007.985975024862
 20
1490.899852174893
 30
0.0
 40
3.928724146228787
100
AcDbArc
 50
346.2052789261862
 51
346.67610149622
  0
ARC
  5
581
330
1F
100
AcDbEntity
  8
0
  6
Continuous
100
AcDbCircle
 10
2000.507334186079
 20
1492.729507893317
 30
0.0
 40
11.62792509158275
100
AcDbArc
 50
346.0917224844616
 51
346.2365942477876
  0
ARC
  5
582
330
1F
100
AcDbEntity
  8
0
  6
Continuous
100
AcDbCircle
 10
2008.540431011347
 20
1490.777100485132
 30
0.0
 40
3.361237639673582
100
AcDbArc
 50
344.8169955705468
 51
345.4825642321631
  0
ARC
  5
583
330
1F
100
AcDbEntity
  8
0
  6
Continuous
100
AcDbCircle
 10
2008.688495191854
 20
1490.732461999723
 30
0.0
 40
3.206653690307736
100
AcDbArc
 50
343.7881920507503
 51
344.8938610619844
  0
ARC
  5
584
330
1F
100
AcDbEntity
  8
0
  6
Continuous
100
AcDbCircle
 10
2002.923388683521
 20
1492.333120839775
 30
0.0
 40
9.189690161007076
100
AcDbArc
 50
343.7287279223051
 51
344.2404922638587
  0
LINE
  5
585
330
1F
100
AcDbEntity
  8
0
  6
Continuous
100
AcDbLine
 10
2010.679992045717
 20
1504.773459047423
 30
0.0
 11
2010.669475045716
 21
1504.808867047423
 31
0.0
  0
ARC
  5
586
330
1F
100
AcDbEntity
  8
0
  6
Continuous
100
AcDbCircle
 10
2015.189758950334
 20
1506.132266939887
 30
0.0
 40
4.71002694830073
100
AcDbArc
 50
195.8766975179819
 51
196.3184052614204
  0
ARC
  5
587
330
1F
100
AcDbEntity
  8
0
  6
Continuous
100
AcDbCircle
 10
2014.931282727562
 20
1506.056500242683
 30
0.0
 40
4.440684088657707
100
AcDbArc
 50
195.3886966387669
 51
195.8487564243753
  0
ARC
  5
588
330
1F
100
AcDbEntity
  8
0
  6
Continuous
100
AcDbCircle
 10
2014.736917960125
 20
1506.002931006288
 30
0.0
 40
4.239072281844973
100
AcDbArc
 50
194.913825468242
 51
195.3877386740905
  0
ARC
  5
589
330
1F
100
AcDbEntity
  8
0
  6
Continuous
100
AcDbCircle
 10
2014.626594865375
 20
1505.972035839835
 30
0.0
 40
4.124514424525457
100
AcDbArc
 50
194.414482633675
 51
194.8935296566908
  0
ARC
  5
58A
330
1F
100
AcDbEntity
  8
0
  6
Continuous
100
AcDbCircle
 10
2014.49900394495
 20
1505.939156677906
 30
0.0
 40
3.992755268249018
100
AcDbArc
 50
193.9259874292824
 51
194.4133012568829
  0
ARC
  5
58B
330
1F
100
AcDbEntity
  8
0
  6
Continuous
100
AcDbCircle
 10
2014.372698574081
 20
1505.906369987411
 30
0.0
 40
3.862271883657514
100
AcDbArc
 50
193.408792158543
 51
193.9048433918811
  0
ARC
  5
58C
330
1F
100
AcDbEntity
  8
0
  6
Continuous
100
AcDbCircle
 10
2014.249989104756
 20
1505.87700350539
 30
0.0
 40
3.736097434483661
100
AcDbArc
 50
192.9015618366355
 51
193.407105514362
  0
ARC
  5
58D
330
1F
100
AcDbEntity
  8
0
  6
Continuous
100
AcDbCircle
 10
2014.147514404408
 20
1505.852147901102
 30
0.0
 40
3.630660270090221
100
AcDbArc
 50
192.3673924501736
 51
192.8802902569952
  0
ARC
  5
58E
330
1F
100
AcDbEntity
  8
0
  6
Continuous
100
AcDbCircle
 10
2014.043532606771
 20
1505.829426251393
 30
0.0
 40
3.52422493012038
100
AcDbArc
 50
191.8470750406934
 51
192.3686343209829
  0
ARC
  5
58F
330
1F
100
AcDbEntity
  8
0
  6
Continuous
100
AcDbCircle
 10
2013.952221998721
 20
1505.808893030216
 30
0.0
 40
3.430644115951547
100
AcDbArc
 50
191.2956484599473
 51
191.8245325546586
  0
ARC
  5
590
330
1F
100
AcDbEntity
  8
0
  6
Continuous
100
AcDbCircle
 10
2013.861267589492
 20
1505.790723121759
 30
0.0
 40
3.337892565424341
100
AcDbArc
 50
190.7584020169506
 51
191.295604565861
  0
ARC
  5
591
330
1F
100
AcDbEntity
  8
0
  6
Continuous
100
AcDbCircle
 10
2013.782701105869
 20
1505.774636858815
 30
0.0
 40
3.257704448609234
100
AcDbArc
 50
190.194372098074
 51
190.738393127659
  0
ARC
  5
592
330
1F
100
AcDbEntity
  8
0
  6
Continuous
100
AcDbCircle
 10
2013.704296424717
 20
1505.760587354559
 30
0.0
 40
3.178050948143591
100
AcDbArc
 50
189.6434971021417
 51
190.195255286656
  0
ARC
  5
593
330
1F
100
AcDbEntity
  8
0
  6
Continuous
100
AcDbCircle
 10
2013.636743457569
 20
1505.748025971325
 30
0.0
 40
3.109348497101886
100
AcDbArc
 50
189.0657082148647
 51
189.623824612256
  0
ARC
  5
594
330
1F
100
AcDbEntity
  8
0
  6
Continuous
100
AcDbCircle
 10
2013.569709132429
 20
1505.737272641449
 30
0.0
 40
3.041457175306629
100
AcDbArc
 50
188.4994019087735
 51
189.0646419622467
  0
ARC
  5
595
330
1F
100
AcDbEntity
  8
0
  6
Continuous
100
AcDbCircle
 10
2013.512210771987
 20
1505.727684131489
 30
0.0
 40
2.983173285596365
100
AcDbArc
 50
187.9094468138953
 51
188.4804837207791
  0
ARC
  5
596
330
1F
100
AcDbEntity
  8
0
  6
Continuous
100
AcDbCircle
 10
2013.455549609347
 20
1505.720036758585
 30
0.0
 40
2.92599882244896
100
AcDbArc
 50
187.3363421893586
 51
187.9138017523689
  0
ARC
  5
597
330
1F
100
AcDbEntity
  8
0
  6
Continuous
100
AcDbCircle
 10
2013.407439609591
 20
1505.712678662312
 30
0.0
 40
2.877343316969025
100
AcDbArc
 50
186.7307140285996
 51
187.3133526385281
  0
ARC
  5
598
330
1F
100
AcDbEntity
  8
0
  6
Continuous
100
AcDbCircle
 10
2013.360404868061
 20
1505.707381233566
 30
0.0
 40
2.830011876577068
100
AcDbArc
 50
186.1475167233015
 51
186.7358098855802
  0
ARC
  5
599
330
1F
100
AcDbEntity
  8
0
  6
Continuous
100
AcDbCircle
 10
2013.320797923888
 20
1505.702162142245
 30
0.0
 40
2.790073948546103
100
AcDbArc
 50
185.5352660463971
 51
186.1280567141551
  0
ARC
  5
59A
330
1F
100
AcDbEntity
  8
0
  6
Continuous
100
AcDbCircle
 10
2013.282879363214
 20
1505.69870911605
 30
0.0
 40
2.751999136946809
100
AcDbArc
 50
184.9422483693429
 51
185.5398596881307
  0
ARC
  5
59B
330
1F
100
AcDbEntity
  8
0
  6
Continuous
100
AcDbCircle
 10
2013.251462045895
 20
1505.695075720328
 30
0.0
 40
2.720385758430606
100
AcDbArc
 50
184.3216412364862
 51
184.9230141349662
  0
ARC
  5
59C
330
1F
100
AcDbEntity
  8
0
  6
Continuous
100
AcDbCircle
 10
2013.221959949065
 20
1505.693001606654
 30
0.0
 40
2.690811252531024
100
AcDbArc
 50
183.719637169637
 51
184.3249400729908
  0
ARC
  5
59D
330
1F
100
AcDbEntity
  8
0
  6
Continuous
100
AcDbCircle
 10
2013.198316955502
 20
1505.690718065694
 30
0.0
 40
2.667070025147538
100
AcDbArc
 50
183.0953537533314
 51
183.7036345724888
  0
ARC
  5
59E
330
1F
100
AcDbEntity
  8
0
  6
Continuous
100
AcDbCircle
 10
2013.176917708557
 20
1505.689865820563
 30
0.0
 40
2.645655996711115
100
AcDbArc
 50
182.4906762305575
 51
183.1019484182707
  0
ARC
  5
59F
330
1F
100
AcDbEntity
  8
0
  6
Continuous
100
AcDbCircle
 10
2013.16061988324
 20
1505.688338494676
 30
0.0
 40
2.629307322259367
100
AcDbArc
 50
181.8594311383242
 51
182.4728590528857
  0
ARC
  5
5A0
330
1F
100
AcDbEntity
  8
0
  6
Continuous
100
AcDbCircle
 10
2013.147191162481
 20
1505.688193273603
 30
0.0
 40
2.615880976590196
100
AcDbArc
 50
181.2503523596759
 51
181.8657958106868
  0
ARC
  5
5A1
330
1F
100
AcDbEntity
  8
0
  6
Continuous
100
AcDbCircle
 10
2013.13807637734
 20
1505.687223221575
 30
0.0
 40
2.606747308203451
100
AcDbArc
 50
180.6166589684987
 51
181.2334075391737
  0
ARC
  5
5A2
330
1F
100
AcDbEntity
  8
0
  6
Continuous
100
AcDbCircle
 10
2013.132194999641
 20
1505.68756472786
 30
0.0
 40
2.600869978107716
100
AcDbArc
 50
180.0078134210246
 51
180.6255761654884
  0
ARC
  5
5A3
330
1F
100
AcDbEntity
  8
0
  6
Continuous
100
AcDbCircle
 10
2013.13045002104
 20
1505.686866024507
 30
0.0
 40
2.599124998090482
100
AcDbArc
 50
179.3742167289926
 51
179.9924162703909
  0
ARC
  5
5A4
330
1F
100
AcDbEntity
  8
0
  6
Continuous
100
AcDbCircle
 10
2013.13195800378
 20
1505.687296662237
 30
0.0
 40
2.600628225996384
100
AcDbArc
 50
178.765866872334
 51
179.3840666199898
  0
ARC
  5
5A5
330
1F
100
AcDbEntity
  8
0
  6
Continuous
100
AcDbCircle
 10
2013.137278571556
 20
1505.686494423256
 30
0.0
 40
2.605964928874778
100
AcDbArc
 50
178.1329887988625
 51
178.7507521391914
  0
ARC
  5
5A6
330
1F
100
AcDbEntity
  8
0
  6
Continuous
100
AcDbCircle
 10
2013.146567844094
 20
1505.686617123777
 30
0.0
 40
2.615245307135583
100
AcDbArc
 50
177.525557731117
 51
178.1423059351067
  0
ARC
  5
5A7
330
1F
100
AcDbEntity
  8
0
  6
Continuous
100
AcDbCircle
 10
2013.159018479214
 20
1505.685429537862
 30
0.0
 40
2.627735685685478
100
AcDbArc
 50
176.8959672220304
 51
177.5114081291265
  0
ARC
  5
5A8
330
1F
100
AcDbEntity
  8
0
  6
Continuous
100
AcDbCircle
 10
2013.1759758422
 20
1505.685030137917
 30
0.0
 40
2.644689848023173
100
AcDbArc
 50
176.2937916735687
 51
176.9072200006677
  0
ARC
  5
5A9
330
1F
100
AcDbEntity
  8
0
  6
Continuous
100
AcDbCircle
 10
2013.195711771381
 20
1505.683265200585
 30
0.0
 40
2.664498632430698
100
AcDbArc
 50
175.6720711366494
 51
176.2833516207288
  0
ARC
  5
5AA
330
1F
100
AcDbEntity
  8
0
  6
Continuous
100
AcDbCircle
 10
2013.220680129325
 20
1505.681834102206
 30
0.0
 40
2.689503828677497
100
AcDbArc
 50
175.0735332339593
 51
175.6818113946025
  0
ARC
  5
5AB
330
1F
100
AcDbEntity
  8
0
  6
Continuous
100
AcDbCircle
 10
2013.248192617917
 20
1505.678893781418
 30
0.0
 40
2.717167244296544
100
AcDbArc
 50
174.4563098288763
 51
175.0615821135781
  0
ARC
  5
5AC
330
1F
100
AcDbEntity
  8
0
  6
Continuous
100
AcDbCircle
 10
2013.281149992259
 20
1505.676308379195
 30
0.0
 40
2.750220301070333
100
AcDbArc
 50
173.8676481598479
 51
174.4690290796783
  0
ARC
  5
5AD
330
1F
100
AcDbEntity
  8
0
  6
Continuous
100
AcDbCircle
 10
2013.316068070466
 20
1505.672045678281
 30
0.0
 40
2.785393982019519
100
AcDbArc
 50
173.2594782785171
 51
173.8571951124847
  0
ARC
  5
5AE
330
1F
100
AcDbEntity
  8
0
  6
Continuous
100
AcDbCircle
 10
2013.358676652516
 20
1505.667748806416
 30
0.0
 40
2.828212481212271
100
AcDbArc
 50
172.6815866075625
 51
173.2743467254191
  0
ARC
  5
5AF
330
1F
100
AcDbEntity
  8
0
  6
Continuous
100
AcDbCircle
 10
2013.403816448468
 20
1505.661393895515
 30
0.0
 40
2.873794111545691
100
AcDbArc
 50
172.0826323869712
 51
172.6705596378859
  0
ARC
  5
5B0
330
1F
100
AcDbEntity
  8
0
  6
Continuous
100
AcDbCircle
 10
2013.45298949681
 20
1505.655180835023
 30
0.0
 40
2.923354312675169
100
AcDbArc
 50
171.5120300599255
 51
172.0947740704972
  0
ARC
  5
5B1
330
1F
100
AcDbEntity
  8
0
  6
Continuous
100
AcDbCircle
 10
2013.500208174469
 20
1505.647750761963
 30
0.0
 40
2.971152514291046
100
AcDbArc
 50
170.9260216507296
 51
171.5047188863806
  0
ARC
  5
5B2
330
1F
100
AcDbEntity
  8
0
  6
Continuous
100
AcDbCircle
 10
2013.568862583674
 20
1505.637702387309
 30
0.0
 40
3.040532610082455
100
AcDbArc
 50
170.372404593662
 51
170.9430723575905
  0
ARC
  5
5B3
330
1F
100
AcDbEntity
  8
0
  6
Continuous
100
AcDbCircle
 10
2013.65018729499
 20
1505.623475841146
 30
0.0
 40
3.123091239699911
100
AcDbArc
 50
169.8034781950489
 51
170.3646051239424
  0
ARC
  5
5B4
330
1F
100
AcDbEntity
  8
0
  6
Continuous
100
AcDbCircle
 10
2013.696689657516
 20
1505.615511735541
 30
0.0
 40
3.170269030674345
100
AcDbArc
 50
169.2512152705888
 51
169.810594505297
  0
ARC
  5
5B5
330
1F
100
AcDbEntity
  8
0
  6
Continuous
100
AcDbCircle
 10
2013.707006763702
 20
1505.613050512953
 30
0.0
 40
3.180864180784983
100
AcDbArc
 50
168.6772868471474
 51
169.2423194453269
  0
ARC
  5
5B6
330
1F
100
AcDbEntity
  8
0
  6
Continuous
100
AcDbCircle
 10
2013.876763920616
 20
1505.581687786403
 30
0.0
 40
3.353475924712013
100
AcDbArc
 50
168.1815209066809
 51
168.7213150898147
  0
ARC
  5
5B7
330
1F
100
AcDbEntity
  8
0
  6
Continuous
100
AcDbCircle
 10
2014.191969014742
 20
1505.515628940264
 30
0.0
 40
3.675528735986361
100
AcDbArc
 50
167.6844149979306
 51
168.1799498382705
  0
ARC
  5
5B8
330
1F
100
AcDbEntity
  8
0
  6
Continuous
100
AcDbCircle
 10
2013.980504533888
 20
1505.557410314724
 30
0.0
 40
3.460021408912345
100
AcDbArc
 50
167.0704295287929
 51
167.6134634722547
  0
ARC
  5
5B9
330
1F
100
AcDbEntity
  8
0
  6
Continuous
100
AcDbCircle
 10
2013.574309472181
 20
1505.649982760851
 30
0.0
 40
3.043411774385345
100
AcDbArc
 50
166.415610899812
 51
167.0579651048808
  0
ARC
  5
5BA
330
1F
100
AcDbEntity
  8
0
  6
Continuous
100
AcDbCircle
 10
2014.438875803458
 20
1505.459417193048
 30
0.0
 40
3.928591885043692
100
AcDbArc
 50
166.2048619840968
 51
166.6756862271714
  0
ARC
  5
5BB
330
1F
100
AcDbEntity
  8
0
  6
Continuous
100
AcDbCircle
 10
2021.917609038353
 20
1503.629768258933
 30
0.0
 40
11.62788094370169
100
AcDbArc
 50
166.0917222085796
 51
166.2365945219563
  0
ARC
  5
5BC
330
1F
100
AcDbEntity
  8
0
  6
Continuous
100
AcDbCircle
 10
2013.884543056994
 20
1505.582254249268
 30
0.0
 40
3.361203656469339
100
AcDbArc
 50
164.8184128109027
 51
165.4839838330895
  0
ARC
  5
5BD
330
1F
100
AcDbEntity
  8
0
  6
Continuous
100
AcDbCircle
 10
2013.736480159595
 20
1505.626754647318
 30
0.0
 40
3.206657043465988
100
AcDbArc
 50
163.7872986638524
 51
164.8929713419287
  0
ARC
  5
5BE
330
1F
100
AcDbEntity
  8
0
  6
Continuous
100
AcDbCircle
 10
2019.501569718253
 20
1504.026152702952
 30
0.0
 40
9.189661353553074
100
AcDbArc
 50
163.7287271198714
 51
164.2404930656877
  0
LINE
  5
5BF
330
1F
100
AcDbEntity
  8
0
  6
Continuous
100
AcDbLine
 10
2011.744994045717
 20
1506.600962047423
 30
0.0
 11
2011.755511045718
 21
1506.565554047423
 31
0.0
  0
ARC
  5
5C0
330
1F
100
AcDbEntity
  8
0
  6
Continuous
100
AcDbCircle
 10
2007.235325392059
 20
1505.242145574999
 30
0.0
 40
4.709935066263007
100
AcDbArc
 50
15.87713658287769
 51
16.31884125526207
  0
ARC
  5
5C1
330
1F
100
AcDbEntity
  8
0
  6
Continuous
100
AcDbCircle
 10
2007.493673323884
 20
1505.317913454207
 30
0.0
 40
4.440715280176153
100
AcDbArc
 50
15.38869825520522
 51
15.84875480934249
  0
ARC
  5
5C2
330
1F
100
AcDbEntity
  8
0
  6
Continuous
100
AcDbCircle
 10
2007.687918237726
 20
1505.371603772655
 30
0.0
 40
4.239186903970495
100
AcDbArc
 50
14.91182277674942
 51
15.38573268236555
  0
ARC
  5
5C3
330
1F
100
AcDbEntity
  8
0
  6
Continuous
100
AcDbCircle
 10
2007.798362662994
 20
1505.402258313083
 30
0.0
 40
4.124573690310066
100
AcDbArc
 50
14.41609174176022
 51
14.89513539579555
  0
ARC
  5
5C4
330
1F
100
AcDbEntity
  8
0
  6
Continuous
100
AcDbCircle
 10
2007.925955018521
 20
1505.435257567809
 30
0.0
 40
3.992783247218563
100
AcDbArc
 50
13.92598913658423
 51
14.41329954937041
  0
ARC
  5
5C5
330
1F
100
AcDbEntity
  8
0
  6
Continuous
100
AcDbCircle
 10
2008.052260834181
 20
1505.468160249388
 30
0.0
 40
3.86227155862924
100
AcDbArc
 50
13.40712884891934
 51
13.9031766216005
  0
ARC
  5
5C6
330
1F
100
AcDbEntity
  8
0
  6
Continuous
100
AcDbCircle
 10
2008.174971087608
 20
1505.4972983185
 30
0.0
 40
3.736149311791521
100
AcDbArc
 50
12.90325606330909
 51
13.40879621163492
  0
ARC
  5
5C7
330
1F
100
AcDbEntity
  8
0
  6
Continuous
100
AcDbCircle
 10
2008.277446990479
 20
1505.522267662616
 30
0.0
 40
3.630685578188598
100
AcDbArc
 50
12.36739423788234
 51
12.88028846946339
  0
ARC
  5
5C8
330
1F
100
AcDbEntity
  8
0
  6
Continuous
100
AcDbCircle
 10
2008.381429060776
 20
1505.545099565956
 30
0.0
 40
3.524226357135086
100
AcDbArc
 50
11.84533057848677
 51
12.3668862377032
  0
ARC
  5
5C9
330
1F
100
AcDbEntity
  8
0
  6
Continuous
100
AcDbCircle
 10
2008.472740289285
 20
1505.56541496468
 30
0.0
 40
3.430689613016276
100
AcDbArc
 50
11.29742288146363
 51
11.82630330925457
  0
ARC
  5
5CA
330
1F
100
AcDbEntity
  8
0
  6
Continuous
100
AcDbCircle
 10
2008.563802374577
 20
1505.583694033399
 30
0.0
 40
3.337811089160978
100
AcDbArc
 50
10.75875407137311
 51
11.29595288462046
  0
ARC
  5
5CB
330
1F
100
AcDbEntity
  8
0
  6
Continuous
100
AcDbCircle
 10
2008.64226298764
 20
1505.599781172305
 30
0.0
 40
3.257726818480767
100
AcDbArc
 50
10.19437396590597
 51
10.73839125982245
  0
ARC
  5
5CC
330
1F
100
AcDbEntity
  8
0
  6
Continuous
100
AcDbCircle
 10
2008.720564239019
 20
1505.61383046543
 30
0.0
 40
3.178175152084691
100
AcDbArc
 50
9.643176517269264
 51
10.19493089736951
  0
ARC
  5
5CD
330
1F
100
AcDbEntity
  8
0
  6
Continuous
100
AcDbCircle
 10
2008.788221219947
 20
1505.626494341072
 30
0.0
 40
3.109353024243198
100
AcDbArc
 50
9.063843508598635
 51
9.621956101581986
  0
ARC
  5
5CE
330
1F
100
AcDbEntity
  8
0
  6
Continuous
100
AcDbCircle
 10
2008.855255862282
 20
1505.637043906217
 30
0.0
 40
3.041493493963189
100
AcDbArc
 50
8.501291004584743
 51
9.066527184879946
  0
ARC
  5
5CF
330
1F
100
AcDbEntity
  8
0
  6
Continuous
100
AcDbCircle
 10
2008.912755291877
 20
1505.646734079138
 30
0.0
 40
2.983193519528411
100
AcDbArc
 50
7.909448750482482
 51
8.480481784190354
  0
ARC
  5
5D0
330
1F
100
AcDbEntity
  8
0
  6
Continuous
100
AcDbCircle
 10
2008.969416414879
 20
1505.654480936961
 30
0.0
 40
2.92600539991039
100
AcDbArc
 50
7.334418404792874
 51
7.911874071720455
  0
ARC
  5
5D1
330
1F
100
AcDbEntity
  8
0
  6
Continuous
100
AcDbCircle
 10
2009.017526885218
 20
1505.66164174206
 30
0.0
 40
2.877374581429774
100
AcDbArc
 50
6.732659476368775
 51
7.315294190220938
  0
ARC
  5
5D2
330
1F
100
AcDbEntity
  8
0
  6
Continuous
100
AcDbCircle
 10
2009.06456248965
 20
1505.667037746159
 30
0.0
 40
2.830030729074792
100
AcDbArc
 50
6.147518682866529
 51
6.735807926130625
  0
ARC
  5
5D3
330
1F
100
AcDbEntity
  8
0
  6
Continuous
100
AcDbCircle
 10
2009.104169317291
 20
1505.672353732449
 30
0.0
 40
2.790082574905413
100
AcDbArc
 50
5.533293411117536
 51
6.126080159861184
  0
ARC
  5
5D4
330
1F
100
AcDbEntity
  8
0
  6
Continuous
100
AcDbCircle
 10
2009.142087861581
 20
1505.675710339938
 30
0.0
 40
2.752017078347895
100
AcDbArc
 50
4.942250316527383
 51
5.539857739225443
  0
ARC
  5
5D5
330
1F
100
AcDbEntity
  8
0
  6
Continuous
100
AcDbCircle
 10
2009.173505478232
 20
1505.679343954196
 30
0.0
 40
2.720403382818294
100
AcDbArc
 50
4.32164318452414
 51
4.923012186922485
  0
ARC
  5
5D6
330
1F
100
AcDbEntity
  8
0
  6
Continuous
100
AcDbCircle
 10
2009.203008365191
 20
1505.681323617164
 30
0.0
 40
2.690835213486268
100
AcDbArc
 50
3.721649688204327
 51
4.326948695466113
  0
ARC
  5
5D7
330
1F
100
AcDbEntity
  8
0
  6
Continuous
100
AcDbCircle
 10
2009.226652082993
 20
1505.683702016173
 30
0.0
 40
2.667087107907013
100
AcDbArc
 50
3.095355701343096
 51
3.7036326244102
  0
ARC
  5
5D8
330
1F
100
AcDbEntity
  8
0
  6
Continuous
100
AcDbCircle
 10
2009.248051337293
 20
1505.68464819789
 30
0.0
 40
2.645667990626495
100
AcDbArc
 50
2.488650635271694
 51
3.099918995659384
  0
ARC
  5
5D9
330
1F
100
AcDbEntity
  8
0
  6
Continuous
100
AcDbCircle
 10
2009.264255412519
 20
1505.686081480102
 30
0.0
 40
2.629417064017919
100
AcDbArc
 50
1.859356123271121
 51
2.472780210511315
  0
ARC
  5
5DA
330
1F
100
AcDbEntity
  8
0
  6
Continuous
100
AcDbCircle
 10
2009.277870958282
 20
1505.686226884215
 30
0.0
 40
2.615803986048311
100
AcDbArc
 50
1.250409696211828
 51
1.865849365735458
  0
ARC
  5
5DB
330
1F
100
AcDbEntity
  8
0
  6
Continuous
100
AcDbCircle
 10
2009.286893233131
 20
1505.687104715841
 30
0.0
 40
2.606764792478414
100
AcDbArc
 50
0.6187025190157576
 51
1.235447308200918
  0
ARC
  5
5DC
330
1F
100
AcDbEntity
  8
0
  6
Continuous
100
AcDbCircle
 10
2009.292682617351
 20
1505.686855780053
 30
0.0
 40
2.600978452491693
100
AcDbArc
 50
0.0078039959033705
 51
0.6255630047138636
  0
ARC
  5
5DD
330
1F
100
AcDbEntity
  8
0
  6
Continuous
100
AcDbCircle
 10
2009.294613238491
 20
1505.687554656084
 30
0.0
 40
2.59904783007216
100
AcDbArc
 50
359.3742072809656
 51
359.9924031325345
  0
ARC
  5
5DE
330
1F
100
AcDbEntity
  8
0
  6
Continuous
100
AcDbCircle
 10
2009.293012260076
 20
1505.68721736139
 30
0.0
 40
2.600645053284174
100
AcDbArc
 50
358.7638270345477
 51
359.3820231382154
  0
ARC
  5
5DF
330
1F
100
AcDbEntity
  8
0
  6
Continuous
100
AcDbCircle
 10
2009.287598696804
 20
1505.687926581683
 30
0.0
 40
2.606072724361141
100
AcDbArc
 50
358.1330460322742
 51
358.7508057973712
  0
ARC
  5
5E0
330
1F
100
AcDbEntity
  8
0
  6
Continuous
100
AcDbCircle
 10
2009.278495288437
 20
1505.687804033056
 30
0.0
 40
2.615167341485165
100
AcDbArc
 50
357.5254825556458
 51
358.1422272531556
  0
ARC
  5
5E1
330
1F
100
AcDbEntity
  8
0
  6
Continuous
100
AcDbCircle
 10
2009.265952451571
 20
1505.688899176282
 30
0.0
 40
2.627745823407509
100
AcDbArc
 50
356.8979964498509
 51
357.5134339192191
  0
ARC
  5
5E2
330
1F
100
AcDbEntity
  8
0
  6
Continuous
100
AcDbCircle
 10
2009.248995749942
 20
1505.689391818219
 30
0.0
 40
2.644704372663353
100
AcDbArc
 50
356.2937933580236
 51
356.9072183161491
  0
ARC
  5
5E3
330
1F
100
AcDbEntity
  8
0
  6
Continuous
100
AcDbCircle
 10
2009.229259270796
 20
1505.691250647741
 30
0.0
 40
2.664519793812424
100
AcDbArc
 50
355.6700622391485
 51
356.2813393771756
  0
ARC
  5
5E4
330
1F
100
AcDbEntity
  8
0
  6
Continuous
100
AcDbCircle
 10
2009.204290619525
 20
1505.692588152242
 30
0.0
 40
2.689518217859644
100
AcDbArc
 50
355.0735348611448
 51
355.6818097674145
  0
ARC
  5
5E5
330
1F
100
AcDbEntity
  8
0
  6
Continuous
100
AcDbCircle
 10
2009.176778334807
 20
1505.695528610322
 30
0.0
 40
2.717181442161539
100
AcDbArc
 50
354.4563114111642
 51
355.0615805331625
  0
ARC
  5
5E6
330
1F
100
AcDbEntity
  8
0
  6
Continuous
100
AcDbCircle
 10
2009.143821627375
 20
1505.69801886941
 30
0.0
 40
2.750224666523513
100
AcDbArc
 50
353.8696242900585
 51
354.4710021388628
  0
ARC
  5
5E7
330
1F
100
AcDbEntity
  8
0
  6
Continuous
100
AcDbCircle
 10
2009.108904012228
 20
1505.70237699821
 30
0.0
 40
2.785408079570751
100
AcDbArc
 50
353.2594797911662
 51
353.8571935999528
  0
ARC
  5
5E8
330
1F
100
AcDbEntity
  8
0
  6
Continuous
100
AcDbCircle
 10
2009.066295047187
 20
1505.706770658453
 30
0.0
 40
2.828238296176767
100
AcDbArc
 50
352.6796445744813
 51
353.272401758808
  0
ARC
  5
5E9
330
1F
100
AcDbEntity
  8
0
  6
Continuous
100
AcDbCircle
 10
2009.021154985626
 20
1505.713029027285
 30
0.0
 40
2.873807890488778
100
AcDbArc
 50
352.0826337964911
 51
352.670558228474
  0
ARC
  5
5EA
330
1F
100
AcDbEntity
  8
0
  6
Continuous
100
AcDbCircle
 10
2008.971982325295
 20
1505.719143922907
 30
0.0
 40
2.923354207835096
100
AcDbArc
 50
351.5139387974433
 51
352.0966800349226
  0
ARC
  5
5EB
330
1F
100
AcDbEntity
  8
0
  6
Continuous
100
AcDbCircle
 10
2008.924764427604
 20
1505.726672417437
 30
0.0
 40
2.971166163591206
100
AcDbArc
 50
350.9260229800465
 51
351.5047175571877
  0
ARC
  5
5EC
330
1F
100
AcDbEntity
  8
0
  6
Continuous
100
AcDbCircle
 10
2008.856110133368
 20
1505.736720907764
 30
0.0
 40
3.040546164077912
100
AcDbArc
 50
350.3724058664679
 51
350.9430710864715
  0
ARC
  5
5ED
330
1F
100
AcDbEntity
  8
0
  6
Continuous
100
AcDbCircle
 10
2008.774785100338
 20
1505.750947647985
 30
0.0
 40
3.123105143340488
100
AcDbArc
 50
349.8034794440956
 51
350.3646038749049
  0
ARC
  5
5EE
330
1F
100
AcDbEntity
  8
0
  6
Continuous
100
AcDbCircle
 10
2008.728385577372
 20
1505.758912313913
 30
0.0
 40
3.170181815893191
100
AcDbArc
 50
349.2508800850511
 51
349.810256936272
  0
ARC
  5
5EF
330
1F
100
AcDbEntity
  8
0
  6
Continuous
100
AcDbCircle
 10
2008.717864755809
 20
1505.761373651413
 30
0.0
 40
3.180977125497062
100
AcDbArc
 50
348.677637805434
 51
349.2426680201124
  0
ARC
  5
5F0
330
1F
100
AcDbEntity
  8
0
  6
Continuous
100
AcDbCircle
 10
2008.548208139528
 20
1505.792842216761
 30
0.0
 40
3.353510987069263
100
AcDbArc
 50
348.1797452191362
 51
348.7195371792024
  0
ARC
  5
5F1
330
1F
100
AcDbEntity
  8
0
  6
Continuous
100
AcDbCircle
 10
2008.23300161419
 20
1505.858795246579
 30
0.0
 40
3.675543525180246
100
AcDbArc
 50
347.6844159948658
 51
348.1799488413295
  0
ARC
  5
5F2
330
1F
100
AcDbEntity
  8
0
  6
Continuous
100
AcDbCircle
 10
2008.444468091975
 20
1505.816908181965
 30
0.0
 40
3.460011577946513
100
AcDbArc
 50
347.0721353116985
 51
347.6151671696033
  0
ARC
  5
5F3
330
1F
100
AcDbEntity
  8
0
  6
Continuous
100
AcDbCircle
 10
2008.850754717917
 20
1505.724441449721
 30
0.0
 40
3.043336357530391
100
AcDbArc
 50
346.4152268338105
 51
347.0575786324998
  0
ARC
  5
5F4
330
1F
100
AcDbEntity
  8
0
  6
Continuous
100
AcDbCircle
 10
2007.985975024862
 20
1505.915007674893
 30
0.0
 40
3.928724146228733
100
AcDbArc
 50
346.2052789261862
 51
346.67610149622
  0
ARC
  5
5F5
330
1F
100
AcDbEntity
  8
0
  6
Continuous
100
AcDbCircle
 10
2000.507334186079
 20
1507.744663393317
 30
0.0
 40
11.62792509158269
100
AcDbArc
 50
346.0917224844616
 51
346.2365942477876
  0
ARC
  5
5F6
330
1F
100
AcDbEntity
  8
0
  6
Continuous
100
AcDbCircle
 10
2008.540431011347
 20
1505.792255985132
 30
0.0
 40
3.361237639673638
100
AcDbArc
 50
344.8169955705342
 51
345.4825642321631
  0
ARC
  5
5F7
330
1F
100
AcDbEntity
  8
0
  6
Continuous
100
AcDbCircle
 10
2008.688495191854
 20
1505.747617499723
 30
0.0
 40
3.206653690307676
100
AcDbArc
 50
343.7881920507503
 51
344.8938610619844
  0
ARC
  5
5F8
330
1F
100
AcDbEntity
  8
0
  6
Continuous
100
AcDbCircle
 10
2002.923388683521
 20
1507.348276339776
 30
0.0
 40
9.189690161007076
100
AcDbArc
 50
343.7287279223051
 51
344.2404922638587
  0
LINE
  5
5F9
330
1F
100
AcDbEntity
  8
0
  6
Continuous
100
AcDbLine
 10
2010.679992045717
 20
1525.061641829766
 30
0.0
 11
2010.669475045716
 21
1525.097049829766
 31
0.0
  0
ARC
  5
5FA
330
1F
100
AcDbEntity
  8
0
  6
Continuous
100
AcDbCircle
 10
2015.189758950334
 20
1526.420449722229
 30
0.0
 40
4.71002694830073
100
AcDbArc
 50
195.8766975179819
 51
196.3184052614204
  0
ARC
  5
5FB
330
1F
100
AcDbEntity
  8
0
  6
Continuous
100
AcDbCircle
 10
2014.931282727562
 20
1526.344683025026
 30
0.0
 40
4.440684088657707
100
AcDbArc
 50
195.3886966387669
 51
195.8487564243753
  0
ARC
  5
5FC
330
1F
100
AcDbEntity
  8
0
  6
Continuous
100
AcDbCircle
 10
2014.736917960125
 20
1526.29111378863
 30
0.0
 40
4.239072281844973
100
AcDbArc
 50
194.913825468242
 51
195.3877386740905
  0
ARC
  5
5FD
330
1F
100
AcDbEntity
  8
0
  6
Continuous
100
AcDbCircle
 10
2014.626594865375
 20
1526.260218622178
 30
0.0
 40
4.124514424525457
100
AcDbArc
 50
194.414482633675
 51
194.8935296566908
  0
ARC
  5
5FE
330
1F
100
AcDbEntity
  8
0
  6
Continuous
100
AcDbCircle
 10
2014.49900394495
 20
1526.227339460248
 30
0.0
 40
3.992755268249018
100
AcDbArc
 50
193.9259874292824
 51
194.4133012568829
  0
ARC
  5
5FF
330
1F
100
AcDbEntity
  8
0
  6
Continuous
100
AcDbCircle
 10
2014.372698574081
 20
1526.194552769753
 30
0.0
 40
3.862271883657514
100
AcDbArc
 50
193.408792158543
 51
193.9048433918811
  0
ARC
  5
600
330
1F
100
AcDbEntity
  8
0
  6
Continuous
100
AcDbCircle
 10
2014.249989104756
 20
1526.165186287732
 30
0.0
 40
3.736097434483661
100
AcDbArc
 50
192.9015618366355
 51
193.407105514362
  0
ARC
  5
601
330
1F
100
AcDbEntity
  8
0
  6
Continuous
100
AcDbCircle
 10
2014.147514404408
 20
1526.140330683444
 30
0.0
 40
3.630660270090221
100
AcDbArc
 50
192.3673924501736
 51
192.8802902569952
  0
ARC
  5
602
330
1F
100
AcDbEntity
  8
0
  6
Continuous
100
AcDbCircle
 10
2014.043532606771
 20
1526.117609033735
 30
0.0
 40
3.52422493012038
100
AcDbArc
 50
191.8470750406934
 51
192.3686343209829
  0
ARC
  5
603
330
1F
100
AcDbEntity
  8
0
  6
Continuous
100
AcDbCircle
 10
2013.952221998721
 20
1526.097075812559
 30
0.0
 40
3.430644115951547
100
AcDbArc
 50
191.2956484599473
 51
191.8245325546586
  0
ARC
  5
604
330
1F
100
AcDbEntity
  8
0
  6
Continuous
100
AcDbCircle
 10
2013.861267589492
 20
1526.078905904102
 30
0.0
 40
3.337892565424341
100
AcDbArc
 50
190.7584020169506
 51
191.295604565861
  0
ARC
  5
605
330
1F
100
AcDbEntity
  8
0
  6
Continuous
100
AcDbCircle
 10
2013.782701105869
 20
1526.062819641158
 30
0.0
 40
3.257704448609234
100
AcDbArc
 50
190.194372098074
 51
190.738393127659
  0
ARC
  5
606
330
1F
100
AcDbEntity
  8
0
  6
Continuous
100
AcDbCircle
 10
2013.704296424717
 20
1526.048770136901
 30
0.0
 40
3.178050948143591
100
AcDbArc
 50
189.6434971021417
 51
190.195255286656
  0
ARC
  5
607
330
1F
100
AcDbEntity
  8
0
  6
Continuous
100
AcDbCircle
 10
2013.636743457569
 20
1526.036208753667
 30
0.0
 40
3.109348497101886
100
AcDbArc
 50
189.0657082148647
 51
189.623824612256
  0
ARC
  5
608
330
1F
100
AcDbEntity
  8
0
  6
Continuous
100
AcDbCircle
 10
2013.569709132429
 20
1526.025455423791
 30
0.0
 40
3.041457175306629
100
AcDbArc
 50
188.4994019087735
 51
189.0646419622467
  0
ARC
  5
609
330
1F
100
AcDbEntity
  8
0
  6
Continuous
100
AcDbCircle
 10
2013.512210771987
 20
1526.015866913831
 30
0.0
 40
2.983173285596365
100
AcDbArc
 50
187.9094468138953
 51
188.4804837207791
  0
ARC
  5
60A
330
1F
100
AcDbEntity
  8
0
  6
Continuous
100
AcDbCircle
 10
2013.455549609347
 20
1526.008219540926
 30
0.0
 40
2.92599882244896
100
AcDbArc
 50
187.3363421893586
 51
187.9138017523689
  0
ARC
  5
60B
330
1F
100
AcDbEntity
  8
0
  6
Continuous
100
AcDbCircle
 10
2013.407439609591
 20
1526.000861444655
 30
0.0
 40
2.877343316969025
100
AcDbArc
 50
186.7307140285996
 51
187.3133526385281
  0
ARC
  5
60C
330
1F
100
AcDbEntity
  8
0
  6
Continuous
100
AcDbCircle
 10
2013.360404868061
 20
1525.995564015907
 30
0.0
 40
2.830011876577068
100
AcDbArc
 50
186.1475167233015
 51
186.7358098855802
  0
ARC
  5
60D
330
1F
100
AcDbEntity
  8
0
  6
Continuous
100
AcDbCircle
 10
2013.320797923888
 20
1525.990344924588
 30
0.0
 40
2.790073948546103
100
AcDbArc
 50
185.5352660463971
 51
186.1280567141551
  0
ARC
  5
60E
330
1F
100
AcDbEntity
  8
0
  6
Continuous
100
AcDbCircle
 10
2013.282879363214
 20
1525.986891898393
 30
0.0
 40
2.751999136946809
100
AcDbArc
 50
184.9422483693429
 51
185.5398596881307
  0
ARC
  5
60F
330
1F
100
AcDbEntity
  8
0
  6
Continuous
100
AcDbCircle
 10
2013.251462045895
 20
1525.983258502672
 30
0.0
 40
2.720385758430606
100
AcDbArc
 50
184.3216412364862
 51
184.9230141349662
  0
ARC
  5
610
330
1F
100
AcDbEntity
  8
0
  6
Continuous
100
AcDbCircle
 10
2013.221959949065
 20
1525.981184388997
 30
0.0
 40
2.690811252531024
100
AcDbArc
 50
183.719637169637
 51
184.3249400729908
  0
ARC
  5
611
330
1F
100
AcDbEntity
  8
0
  6
Continuous
100
AcDbCircle
 10
2013.198316955502
 20
1525.978900848037
 30
0.0
 40
2.667070025147538
100
AcDbArc
 50
183.0953537533314
 51
183.7036345724888
  0
ARC
  5
612
330
1F
100
AcDbEntity
  8
0
  6
Continuous
100
AcDbCircle
 10
2013.176917708557
 20
1525.978048602905
 30
0.0
 40
2.645655996711115
100
AcDbArc
 50
182.4906762305575
 51
183.1019484182707
  0
ARC
  5
613
330
1F
100
AcDbEntity
  8
0
  6
Continuous
100
AcDbCircle
 10
2013.16061988324
 20
1525.976521277019
 30
0.0
 40
2.629307322259367
100
AcDbArc
 50
181.8594311383242
 51
182.4728590528857
  0
ARC
  5
614
330
1F
100
AcDbEntity
  8
0
  6
Continuous
100
AcDbCircle
 10
2013.147191162481
 20
1525.976376055943
 30
0.0
 40
2.615880976590196
100
AcDbArc
 50
181.2503523596759
 51
181.8657958106868
  0
ARC
  5
615
330
1F
100
AcDbEntity
  8
0
  6
Continuous
100
AcDbCircle
 10
2013.13807637734
 20
1525.975406003916
 30
0.0
 40
2.606747308203451
100
AcDbArc
 50
180.6166589684987
 51
181.2334075391737
  0
ARC
  5
616
330
1F
100
AcDbEntity
  8
0
  6
Continuous
100
AcDbCircle
 10
2013.132194999619
 20
1525.975747510202
 30
0.0
 40
2.600869978086798
100
AcDbArc
 50
180.0078134210377
 51
180.6255761654884
  0
ARC
  5
617
330
1F
100
AcDbEntity
  8
0
  6
Continuous
100
AcDbCircle
 10
2013.13045002106
 20
1525.975048806849
 30
0.0
 40
2.599124998111395
100
AcDbArc
 50
179.3742167290056
 51
179.9924162703909
  0
ARC
  5
618
330
1F
100
AcDbEntity
  8
0
  6
Continuous
100
AcDbCircle
 10
2013.13195800378
 20
1525.975479444579
 30
0.0
 40
2.600628225996384
100
AcDbArc
 50
178.765866872334
 51
179.3840666199898
  0
ARC
  5
619
330
1F
100
AcDbEntity
  8
0
  6
Continuous
100
AcDbCircle
 10
2013.137278571556
 20
1525.974677205599
 30
0.0
 40
2.605964928874778
100
AcDbArc
 50
178.1329887988625
 51
178.7507521391914
  0
ARC
  5
61A
330
1F
100
AcDbEntity
  8
0
  6
Continuous
100
AcDbCircle
 10
2013.146567844094
 20
1525.974799906121
 30
0.0
 40
2.615245307135583
100
AcDbArc
 50
177.525557731117
 51
178.1423059351067
  0
ARC
  5
61B
330
1F
100
AcDbEntity
  8
0
  6
Continuous
100
AcDbCircle
 10
2013.159018479214
 20
1525.973612320205
 30
0.0
 40
2.627735685685478
100
AcDbArc
 50
176.8959672220304
 51
177.5114081291265
  0
ARC
  5
61C
330
1F
100
AcDbEntity
  8
0
  6
Continuous
100
AcDbCircle
 10
2013.1759758422
 20
1525.973212920259
 30
0.0
 40
2.644689848023173
100
AcDbArc
 50
176.2937916735687
 51
176.9072200006677
  0
ARC
  5
61D
330
1F
100
AcDbEntity
  8
0
  6
Continuous
100
AcDbCircle
 10
2013.195711771381
 20
1525.971447982926
 30
0.0
 40
2.664498632430698
100
AcDbArc
 50
175.6720711366494
 51
176.2833516207288
  0
ARC
  5
61E
330
1F
100
AcDbEntity
  8
0
  6
Continuous
100
AcDbCircle
 10
2013.220680129325
 20
1525.97001688455
 30
0.0
 40
2.689503828677497
100
AcDbArc
 50
175.0735332339593
 51
175.6818113946025
  0
ARC
  5
61F
330
1F
100
AcDbEntity
  8
0
  6
Continuous
100
AcDbCircle
 10
2013.248192617917
 20
1525.967076563761
 30
0.0
 40
2.717167244296544
100
AcDbArc
 50
174.4563098288763
 51
175.0615821135781
  0
ARC
  5
620
330
1F
100
AcDbEntity
  8
0
  6
Continuous
100
AcDbCircle
 10
2013.281149992259
 20
1525.964491161537
 30
0.0
 40
2.750220301070333
100
AcDbArc
 50
173.8676481598479
 51
174.4690290796783
  0
ARC
  5
621
330
1F
100
AcDbEntity
  8
0
  6
Continuous
100
AcDbCircle
 10
2013.316068070466
 20
1525.960228460623
 30
0.0
 40
2.785393982019519
100
AcDbArc
 50
173.2594782785171
 51
173.8571951124847
  0
ARC
  5
622
330
1F
100
AcDbEntity
  8
0
  6
Continuous
100
AcDbCircle
 10
2013.358676652516
 20
1525.955931588758
 30
0.0
 40
2.828212481212271
100
AcDbArc
 50
172.6815866075625
 51
173.2743467254191
  0
ARC
  5
623
330
1F
100
AcDbEntity
  8
0
  6
Continuous
100
AcDbCircle
 10
2013.403816448468
 20
1525.949576677858
 30
0.0
 40
2.873794111545691
100
AcDbArc
 50
172.0826323869712
 51
172.6705596378859
  0
ARC
  5
624
330
1F
100
AcDbEntity
  8
0
  6
Continuous
100
AcDbCircle
 10
2013.45298949681
 20
1525.943363617365
 30
0.0
 40
2.923354312675169
100
AcDbArc
 50
171.5120300599255
 51
172.0947740704972
  0
ARC
  5
625
330
1F
100
AcDbEntity
  8
0
  6
Continuous
100
AcDbCircle
 10
2013.500208174469
 20
1525.935933544305
 30
0.0
 40
2.971152514291046
100
AcDbArc
 50
170.9260216507296
 51
171.5047188863806
  0
ARC
  5
626
330
1F
100
AcDbEntity
  8
0
  6
Continuous
100
AcDbCircle
 10
2013.568862583674
 20
1525.925885169651
 30
0.0
 40
3.040532610082455
100
AcDbArc
 50
170.372404593662
 51
170.9430723575905
  0
ARC
  5
627
330
1F
100
AcDbEntity
  8
0
  6
Continuous
100
AcDbCircle
 10
2013.65018729499
 20
1525.911658623487
 30
0.0
 40
3.123091239699911
100
AcDbArc
 50
169.8034781950489
 51
170.3646051239424
  0
ARC
  5
628
330
1F
100
AcDbEntity
  8
0
  6
Continuous
100
AcDbCircle
 10
2013.696689657516
 20
1525.903694517884
 30
0.0
 40
3.170269030674345
100
AcDbArc
 50
169.2512152705888
 51
169.810594505297
  0
ARC
  5
629
330
1F
100
AcDbEntity
  8
0
  6
Continuous
100
AcDbCircle
 10
2013.707006763702
 20
1525.901233295296
 30
0.0
 40
3.180864180784983
100
AcDbArc
 50
168.6772868471474
 51
169.2423194453269
  0
ARC
  5
62A
330
1F
100
AcDbEntity
  8
0
  6
Continuous
100
AcDbCircle
 10
2013.876763920616
 20
1525.869870568746
 30
0.0
 40
3.353475924712013
100
AcDbArc
 50
168.1815209066809
 51
168.7213150898147
  0
ARC
  5
62B
330
1F
100
AcDbEntity
  8
0
  6
Continuous
100
AcDbCircle
 10
2014.191969014742
 20
1525.803811722606
 30
0.0
 40
3.675528735986361
100
AcDbArc
 50
167.6844149979306
 51
168.1799498382705
  0
ARC
  5
62C
330
1F
100
AcDbEntity
  8
0
  6
Continuous
100
AcDbCircle
 10
2013.980504533888
 20
1525.845593097066
 30
0.0
 40
3.460021408912345
100
AcDbArc
 50
167.0704295287929
 51
167.6134634722547
  0
ARC
  5
62D
330
1F
100
AcDbEntity
  8
0
  6
Continuous
100
AcDbCircle
 10
2013.574309472181
 20
1525.938165543193
 30
0.0
 40
3.043411774385345
100
AcDbArc
 50
166.415610899812
 51
167.0579651048808
  0
ARC
  5
62E
330
1F
100
AcDbEntity
  8
0
  6
Continuous
100
AcDbCircle
 10
2014.438875803458
 20
1525.747599975391
 30
0.0
 40
3.928591885043692
100
AcDbArc
 50
166.2048619840968
 51
166.6756862271714
  0
ARC
  5
62F
330
1F
100
AcDbEntity
  8
0
  6
Continuous
100
AcDbCircle
 10
2021.917609038353
 20
1523.917951041276
 30
0.0
 40
11.62788094370169
100
AcDbArc
 50
166.0917222085796
 51
166.2365945219563
  0
ARC
  5
630
330
1F
100
AcDbEntity
  8
0
  6
Continuous
100
AcDbCircle
 10
2013.884543056994
 20
1525.870437031611
 30
0.0
 40
3.361203656469339
100
AcDbArc
 50
164.8184128109027
 51
165.4839838330895
  0
ARC
  5
631
330
1F
100
AcDbEntity
  8
0
  6
Continuous
100
AcDbCircle
 10
2013.736480159595
 20
1525.914937429661
 30
0.0
 40
3.206657043465988
100
AcDbArc
 50
163.7872986638524
 51
164.8929713419287
  0
ARC
  5
632
330
1F
100
AcDbEntity
  8
0
  6
Continuous
100
AcDbCircle
 10
2019.501569718253
 20
1524.314335485295
 30
0.0
 40
9.189661353553074
100
AcDbArc
 50
163.7287271198714
 51
164.2404930656877
  0
LINE
  5
633
330
1F
100
AcDbEntity
  8
0
  6
Continuous
100
AcDbLine
 10
2011.744994045717
 20
1526.889144829765
 30
0.0
 11
2011.755511045718
 21
1526.853736829766
 31
0.0
  0
ARC
  5
634
330
1F
100
AcDbEntity
  8
0
  6
Continuous
100
AcDbCircle
 10
2007.235325392059
 20
1525.530328357342
 30
0.0
 40
4.709935066263007
100
AcDbArc
 50
15.87713658287769
 51
16.31884125526207
  0
ARC
  5
635
330
1F
100
AcDbEntity
  8
0
  6
Continuous
100
AcDbCircle
 10
2007.493673323884
 20
1525.606096236549
 30
0.0
 40
4.440715280176153
100
AcDbArc
 50
15.38869825520522
 51
15.84875480934249
  0
ARC
  5
636
330
1F
100
AcDbEntity
  8
0
  6
Continuous
100
AcDbCircle
 10
2007.687918237726
 20
1525.659786554997
 30
0.0
 40
4.239186903970495
100
AcDbArc
 50
14.91182277674942
 51
15.38573268236555
  0
ARC
  5
637
330
1F
100
AcDbEntity
  8
0
  6
Continuous
100
AcDbCircle
 10
2007.798362662994
 20
1525.690441095425
 30
0.0
 40
4.124573690310066
100
AcDbArc
 50
14.41609174176022
 51
14.89513539579555
  0
ARC
  5
638
330
1F
100
AcDbEntity
  8
0
  6
Continuous
100
AcDbCircle
 10
2007.925955018521
 20
1525.723440350152
 30
0.0
 40
3.992783247218563
100
AcDbArc
 50
13.92598913658423
 51
14.41329954937041
  0
ARC
  5
639
330
1F
100
AcDbEntity
  8
0
  6
Continuous
100
AcDbCircle
 10
2008.052260834181
 20
1525.75634303173
 30
0.0
 40
3.86227155862924
100
AcDbArc
 50
13.40712884891934
 51
13.9031766216005
  0
ARC
  5
63A
330
1F
100
AcDbEntity
  8
0
  6
Continuous
100
AcDbCircle
 10
2008.174971087608
 20
1525.785481100843
 30
0.0
 40
3.736149311791521
100
AcDbArc
 50
12.90325606330909
 51
13.40879621163492
  0
ARC
  5
63B
330
1F
100
AcDbEntity
  8
0
  6
Continuous
100
AcDbCircle
 10
2008.277446990479
 20
1525.810450444959
 30
0.0
 40
3.630685578188598
100
AcDbArc
 50
12.36739423788234
 51
12.88028846946339
  0
ARC
  5
63C
330
1F
100
AcDbEntity
  8
0
  6
Continuous
100
AcDbCircle
 10
2008.381429060776
 20
1525.8332823483
 30
0.0
 40
3.524226357135086
100
AcDbArc
 50
11.84533057848677
 51
12.3668862377032
  0
ARC
  5
63D
330
1F
100
AcDbEntity
  8
0
  6
Continuous
100
AcDbCircle
 10
2008.472740289285
 20
1525.853597747023
 30
0.0
 40
3.430689613016276
100
AcDbArc
 50
11.29742288146363
 51
11.82630330925457
  0
ARC
  5
63E
330
1F
100
AcDbEntity
  8
0
  6
Continuous
100
AcDbCircle
 10
2008.563802374577
 20
1525.871876815741
 30
0.0
 40
3.337811089160978
100
AcDbArc
 50
10.75875407137311
 51
11.29595288462046
  0
ARC
  5
63F
330
1F
100
AcDbEntity
  8
0
  6
Continuous
100
AcDbCircle
 10
2008.64226298764
 20
1525.887963954648
 30
0.0
 40
3.257726818480767
100
AcDbArc
 50
10.19437396590597
 51
10.73839125982245
  0
ARC
  5
640
330
1F
100
AcDbEntity
  8
0
  6
Continuous
100
AcDbCircle
 10
2008.720564239019
 20
1525.902013247774
 30
0.0
 40
3.178175152084691
100
AcDbArc
 50
9.643176517269264
 51
10.19493089736951
  0
ARC
  5
641
330
1F
100
AcDbEntity
  8
0
  6
Continuous
100
AcDbCircle
 10
2008.788221219947
 20
1525.914677123414
 30
0.0
 40
3.109353024243198
100
AcDbArc
 50
9.063843508598635
 51
9.621956101581986
  0
ARC
  5
642
330
1F
100
AcDbEntity
  8
0
  6
Continuous
100
AcDbCircle
 10
2008.855255862282
 20
1525.925226688561
 30
0.0
 40
3.041493493963189
100
AcDbArc
 50
8.501291004584743
 51
9.066527184879946
  0
ARC
  5
643
330
1F
100
AcDbEntity
  8
0
  6
Continuous
100
AcDbCircle
 10
2008.912755291877
 20
1525.93491686148
 30
0.0
 40
2.983193519528411
100
AcDbArc
 50
7.909448750482482
 51
8.480481784190354
  0
ARC
  5
644
330
1F
100
AcDbEntity
  8
0
  6
Continuous
100
AcDbCircle
 10
2008.969416414879
 20
1525.942663719303
 30
0.0
 40
2.92600539991039
100
AcDbArc
 50
7.334418404792874
 51
7.911874071720455
  0
ARC
  5
645
330
1F
100
AcDbEntity
  8
0
  6
Continuous
100
AcDbCircle
 10
2009.017526885218
 20
1525.949824524403
 30
0.0
 40
2.877374581429774
100
AcDbArc
 50
6.732659476368775
 51
7.315294190220938
  0
ARC
  5
646
330
1F
100
AcDbEntity
  8
0
  6
Continuous
100
AcDbCircle
 10
2009.06456248965
 20
1525.955220528501
 30
0.0
 40
2.830030729074792
100
AcDbArc
 50
6.147518682866529
 51
6.735807926130625
  0
ARC
  5
647
330
1F
100
AcDbEntity
  8
0
  6
Continuous
100
AcDbCircle
 10
2009.104169317291
 20
1525.960536514791
 30
0.0
 40
2.790082574905413
100
AcDbArc
 50
5.533293411117536
 51
6.126080159861184
  0
ARC
  5
648
330
1F
100
AcDbEntity
  8
0
  6
Continuous
100
AcDbCircle
 10
2009.142087861581
 20
1525.96389312228
 30
0.0
 40
2.752017078347895
100
AcDbArc
 50
4.942250316527383
 51
5.539857739225443
  0
ARC
  5
649
330
1F
100
AcDbEntity
  8
0
  6
Continuous
100
AcDbCircle
 10
2009.173505478232
 20
1525.967526736538
 30
0.0
 40
2.720403382818294
100
AcDbArc
 50
4.32164318452414
 51
4.923012186922485
  0
ARC
  5
64A
330
1F
100
AcDbEntity
  8
0
  6
Continuous
100
AcDbCircle
 10
2009.203008365191
 20
1525.969506399506
 30
0.0
 40
2.690835213486268
100
AcDbArc
 50
3.721649688204327
 51
4.326948695466113
  0
ARC
  5
64B
330
1F
100
AcDbEntity
  8
0
  6
Continuous
100
AcDbCircle
 10
2009.226652082993
 20
1525.971884798515
 30
0.0
 40
2.667087107907013
100
AcDbArc
 50
3.095355701343096
 51
3.7036326244102
  0
ARC
  5
64C
330
1F
100
AcDbEntity
  8
0
  6
Continuous
100
AcDbCircle
 10
2009.248051337293
 20
1525.972830980233
 30
0.0
 40
2.645667990626495
100
AcDbArc
 50
2.488650635271694
 51
3.099918995659384
  0
ARC
  5
64D
330
1F
100
AcDbEntity
  8
0
  6
Continuous
100
AcDbCircle
 10
2009.264255412519
 20
1525.974264262442
 30
0.0
 40
2.629417064017919
100
AcDbArc
 50
1.859356123271121
 51
2.472780210511315
  0
ARC
  5
64E
330
1F
100
AcDbEntity
  8
0
  6
Continuous
100
AcDbCircle
 10
2009.277870958282
 20
1525.974409666558
 30
0.0
 40
2.615803986048311
100
AcDbArc
 50
1.250409696211828
 51
1.865849365735458
  0
ARC
  5
64F
330
1F
100
AcDbEntity
  8
0
  6
Continuous
100
AcDbCircle
 10
2009.286893233131
 20
1525.975287498183
 30
0.0
 40
2.606764792478414
100
AcDbArc
 50
0.6187025190157576
 51
1.235447308200918
  0
ARC
  5
650
330
1F
100
AcDbEntity
  8
0
  6
Continuous
100
AcDbCircle
 10
2009.292682617331
 20
1525.975038562396
 30
0.0
 40
2.600978452513063
100
AcDbArc
 50
0.0078039959033705
 51
0.6255630047008368
  0
ARC
  5
651
330
1F
100
AcDbEntity
  8
0
  6
Continuous
100
AcDbCircle
 10
2009.294613238512
 20
1525.975737438427
 30
0.0
 40
2.59904783005124
100
AcDbArc
 50
359.3742072809526
 51
359.9924031325215
  0
ARC
  5
652
330
1F
100
AcDbEntity
  8
0
  6
Continuous
100
AcDbCircle
 10
2009.293012260076
 20
1525.975400143732
 30
0.0
 40
2.600645053284174
100
AcDbArc
 50
358.7638270345477
 51
359.3820231382154
  0
ARC
  5
653
330
1F
100
AcDbEntity
  8
0
  6
Continuous
100
AcDbCircle
 10
2009.287598696804
 20
1525.976109364025
 30
0.0
 40
2.606072724361141
100
AcDbArc
 50
358.1330460322742
 51
358.7508057973712
  0
ARC
  5
654
330
1F
100
AcDbEntity
  8
0
  6
Continuous
100
AcDbCircle
 10
2009.278495288437
 20
1525.975986815398
 30
0.0
 40
2.615167341485165
100
AcDbArc
 50
357.5254825556458
 51
358.1422272531556
  0
ARC
  5
655
330
1F
100
AcDbEntity
  8
0
  6
Continuous
100
AcDbCircle
 10
2009.265952451571
 20
1525.977081958625
 30
0.0
 40
2.627745823407509
100
AcDbArc
 50
356.8979964498509
 51
357.5134339192191
  0
ARC
  5
656
330
1F
100
AcDbEntity
  8
0
  6
Continuous
100
AcDbCircle
 10
2009.248995749942
 20
1525.977574600561
 30
0.0
 40
2.644704372663353
100
AcDbArc
 50
356.2937933580236
 51
356.9072183161491
  0
ARC
  5
657
330
1F
100
AcDbEntity
  8
0
  6
Continuous
100
AcDbCircle
 10
2009.229259270796
 20
1525.979433430082
 30
0.0
 40
2.664519793812424
100
AcDbArc
 50
355.6700622391485
 51
356.2813393771756
  0
ARC
  5
658
330
1F
100
AcDbEntity
  8
0
  6
Continuous
100
AcDbCircle
 10
2009.204290619525
 20
1525.980770934585
 30
0.0
 40
2.689518217859644
100
AcDbArc
 50
355.0735348611448
 51
355.6818097674145
  0
ARC
  5
659
330
1F
100
AcDbEntity
  8
0
  6
Continuous
100
AcDbCircle
 10
2009.176778334807
 20
1525.983711392665
 30
0.0
 40
2.717181442161539
100
AcDbArc
 50
354.4563114111642
 51
355.0615805331625
  0
ARC
  5
65A
330
1F
100
AcDbEntity
  8
0
  6
Continuous
100
AcDbCircle
 10
2009.143821627375
 20
1525.986201651754
 30
0.0
 40
2.750224666523513
100
AcDbArc
 50
353.8696242900585
 51
354.4710021388628
  0
ARC
  5
65B
330
1F
100
AcDbEntity
  8
0
  6
Continuous
100
AcDbCircle
 10
2009.108904012228
 20
1525.990559780552
 30
0.0
 40
2.785408079570751
100
AcDbArc
 50
353.2594797911662
 51
353.8571935999528
  0
ARC
  5
65C
330
1F
100
AcDbEntity
  8
0
  6
Continuous
100
AcDbCircle
 10
2009.066295047187
 20
1525.994953440796
 30
0.0
 40
2.828238296176767
100
AcDbArc
 50
352.6796445744813
 51
353.272401758808
  0
ARC
  5
65D
330
1F
100
AcDbEntity
  8
0
  6
Continuous
100
AcDbCircle
 10
2009.021154985626
 20
1526.001211809626
 30
0.0
 40
2.873807890488778
100
AcDbArc
 50
352.0826337964911
 51
352.670558228474
  0
ARC
  5
65E
330
1F
100
AcDbEntity
  8
0
  6
Continuous
100
AcDbCircle
 10
2008.971982325295
 20
1526.007326705251
 30
0.0
 40
2.923354207835096
100
AcDbArc
 50
351.5139387974433
 51
352.0966800349226
  0
ARC
  5
65F
330
1F
100
AcDbEntity
  8
0
  6
Continuous
100
AcDbCircle
 10
2008.924764427604
 20
1526.01485519978
 30
0.0
 40
2.971166163591206
100
AcDbArc
 50
350.9260229800465
 51
351.5047175571877
  0
ARC
  5
660
330
1F
100
AcDbEntity
  8
0
  6
Continuous
100
AcDbCircle
 10
2008.856110133368
 20
1526.024903690106
 30
0.0
 40
3.040546164077912
100
AcDbArc
 50
350.3724058664679
 51
350.9430710864715
  0
ARC
  5
661
330
1F
100
AcDbEntity
  8
0
  6
Continuous
100
AcDbCircle
 10
2008.774785100338
 20
1526.039130430328
 30
0.0
 40
3.123105143340488
100
AcDbArc
 50
349.8034794440956
 51
350.3646038749049
  0
ARC
  5
662
330
1F
100
AcDbEntity
  8
0
  6
Continuous
100
AcDbCircle
 10
2008.728385577372
 20
1526.047095096257
 30
0.0
 40
3.170181815893191
100
AcDbArc
 50
349.2508800850511
 51
349.810256936272
  0
ARC
  5
663
330
1F
100
AcDbEntity
  8
0
  6
Continuous
100
AcDbCircle
 10
2008.717864755809
 20
1526.049556433756
 30
0.0
 40
3.180977125497062
100
AcDbArc
 50
348.677637805434
 51
349.2426680201124
  0
ARC
  5
664
330
1F
100
AcDbEntity
  8
0
  6
Continuous
100
AcDbCircle
 10
2008.548208139528
 20
1526.081024999104
 30
0.0
 40
3.353510987069263
100
AcDbArc
 50
348.1797452191362
 51
348.7195371792024
  0
ARC
  5
665
330
1F
100
AcDbEntity
  8
0
  6
Continuous
100
AcDbCircle
 10
2008.233001614164
 20
1526.146978028922
 30
0.0
 40
3.675543525206065
100
AcDbArc
 50
347.6844159949577
 51
348.1799488414214
  0
ARC
  5
666
330
1F
100
AcDbEntity
  8
0
  6
Continuous
100
AcDbCircle
 10
2008.444468091999
 20
1526.105090964306
 30
0.0
 40
3.460011577922973
100
AcDbArc
 50
347.0721353116194
 51
347.6151671695114
  0
ARC
  5
667
330
1F
100
AcDbEntity
  8
0
  6
Continuous
100
AcDbCircle
 10
2008.850754717917
 20
1526.012624232063
 30
0.0
 40
3.043336357530391
100
AcDbArc
 50
346.4152268338105
 51
347.0575786324998
  0
ARC
  5
668
330
1F
100
AcDbEntity
  8
0
  6
Continuous
100
AcDbCircle
 10
2007.985975024862
 20
1526.203190457236
 30
0.0
 40
3.928724146228733
100
AcDbArc
 50
346.2052789261862
 51
346.67610149622
  0
ARC
  5
669
330
1F
100
AcDbEntity
  8
0
  6
Continuous
100
AcDbCircle
 10
2000.507334186079
 20
1528.03284617566
 30
0.0
 40
11.62792509158269
100
AcDbArc
 50
346.0917224844616
 51
346.2365942477876
  0
ARC
  5
66A
330
1F
100
AcDbEntity
  8
0
  6
Continuous
100
AcDbCircle
 10
2008.540431011347
 20
1526.080438767474
 30
0.0
 40
3.361237639673638
100
AcDbArc
 50
344.8169955705342
 51
345.4825642321631
  0
ARC
  5
66B
330
1F
100
AcDbEntity
  8
0
  6
Continuous
100
AcDbCircle
 10
2008.688495191854
 20
1526.035800282065
 30
0.0
 40
3.206653690307676
100
AcDbArc
 50
343.7881920507503
 51
344.8938610619844
  0
ARC
  5
66C
330
1F
100
AcDbEntity
  8
0
  6
Continuous
100
AcDbCircle
 10
2002.923388683521
 20
1527.636459122118
 30
0.0
 40
9.189690161007076
100
AcDbArc
 50
343.7287279223051
 51
344.2404922638587
  0
ENDSEC
  0
SECTION
  2
OBJECTS
  0
DICTIONARY
  5
C
330
0
100
AcDbDictionary
281
     1
  3
ACAD_CIP_PREVIOUS_PRODUCT_INFO
350
216
  3
ACAD_COLOR
350
6B
  3
ACAD_DETAILVIEWSTYLE
350
21B
  3
ACAD_GROUP
350
D
  3
ACAD_LAYOUT
350
1A
  3
ACAD_MATERIAL
350
6A
  3
ACAD_MLEADERSTYLE
350
12D
  3
ACAD_MLINESTYLE
350
17
  3
ACAD_PLOTSETTINGS
350
19
  3
ACAD_PLOTSTYLENAME
350
E
  3
ACAD_SCALELIST
350
10C
  3
ACAD_SECTIONVIEWSTYLE
350
219
  3
ACAD_TABLESTYLE
350
7E
  3
ACAD_VISUALSTYLE
350
EF
  3
ACDB_RECOMPOSE_DATA
350
66F
  3
AcDbVariableDictionary
350
5E
  3
AcDsDecomposeData
350
675
  0
DICTIONARY
  5
1FF
330
2
100
AcDbDictionary
280
     1
281
     1
  3
ACAD_LAYERSTATES
360
200
  0
DICTIONARY
  5
13C
330
10
100
AcDbDictionary
280
     1
281
     1
  0
DICTIONARY
  5
260
330
25F
100
AcDbDictionary
280
     1
281
     1
  0
DICTIONARY
  5
1CE
330
1F
100
AcDbDictionary
280
     1
281
     1
  0
XRECORD
  5
216
102
{ACAD_REACTORS
330
C
102
}
330
C
100
AcDbXrecord
280
     1
300
ACD
300
2016
300
86445ACD_2016_0F
  0
DICTIONARY
  5
6B
102
{ACAD_REACTORS
330
C
102
}
330
C
100
AcDbDictionary
281
     1
  0
DICTIONARY
  5
21B
102
{ACAD_REACTORS
330
C
102
}
330
C
100
AcDbDictionary
281
     1
  3
Metric50
350
21C
  0
DICTIONARY
  5
D
102
{ACAD_REACTORS
330
C
102
}
330
C
100
AcDbDictionary
281
     1
  0
DICTIONARY
  5
1A
102
{ACAD_REACTORS
330
C
102
}
330
C
100
AcDbDictionary
281
     1
  3
Model
350
22
  3
Presentación1
350
D3
  3
Presentación2
350
D7
  0
DICTIONARY
  5
6A
102
{ACAD_REACTORS
330
C
102
}
330
C
100
AcDbDictionary
281
     1
  3
ByBlock
350
ED
  3
ByLayer
350
EC
  3
Global
350
EE
  0
DICTIONARY
  5
12D
102
{ACAD_REACTORS
330
C
102
}
330
C
100
AcDbDictionary
281
     1
  3
Anotativo
350
13B
  3
Standard
350
12E
  0
DICTIONARY
  5
17
102
{ACAD_REACTORS
330
C
102
}
330
C
100
AcDbDictionary
281
     1
  3
Standard
350
18
  0
DICTIONARY
  5
19
102
{ACAD_REACTORS
330
C
102
}
330
C
100
AcDbDictionary
281
     1
  0
ACDBDICTIONARYWDFLT
  5
E
102
{ACAD_REACTORS
330
C
102
}
330
C
100
AcDbDictionary
281
     1
  3
Normal
350
F
100
AcDbDictionaryWithDefault
340
F
  0
DICTIONARY
  5
10C
102
{ACAD_REACTORS
330
C
102
}
330
C
100
AcDbDictionary
281
     1
  3
A0
350
10D
  3
A1
350
1BE
  3
A2
350
1BF
  3
A3
350
1C0
  3
A4
350
1C1
  3
A5
350
1C2
  3
A6
350
1C3
  3
A7
350
1C4
  3
A8
350
1C5
  3
A9
350
1C6
  3
B0
350
1C7
  3
B1
350
1C8
  3
B2
350
1C9
  3
B3
350
1CA
  3
B4
350
1CB
  3
B5
350
1CC
  3
B6
350
1CD
  0
DICTIONARY
  5
219
102
{ACAD_REACTORS
330
C
102
}
330
C
100
AcDbDictionary
281
     1
  3
Metric50
350
21A
  0
DICTIONARY
  5
7E
102
{ACAD_REACTORS
330
C
102
}
330
C
100
AcDbDictionary
281
     1
  3
Standard
350
7F
  0
DICTIONARY
  5
EF
102
{ACAD_REACTORS
330
C
102
}
330
C
100
AcDbDictionary
281
     1
  3
2dWireframe
350
F5
  3
Basic
350
F4
  3
Brighten
350
FB
  3
ColorChange
350
FF
  3
Conceptual
350
F8
  3
Dim
350
FA
  3
EdgeColorOff
350
1E6
  3
Facepattern
350
FE
  3
Flat
350
F0
  3
FlatWithEdges
350
F1
  3
Gouraud
350
F2
  3
GouraudWithEdges
350
F3
  3
Hidden
350
F7
  3
JitterOff
350
1E4
  3
Linepattern
350
FD
  3
OverhangOff
350
1E5
  3
Realistic
350
F9
  3
Shaded
350
1F3
  3
Shaded with edges
350
1F2
  3
Shades of Gray
350
1EF
  3
Sketchy
350
1F0
  3
Thicken
350
FC
  3
Wireframe
350
F6
  3
X-Ray
350
1F1
  0
XRECORD
  5
66F
102
{ACAD_REACTORS
330
C
102
}
330
C
100
AcDbXrecord
280
     1
 90
        1
330
7F
  0
DICTIONARY
  5
5E
102
{ACAD_REACTORS
330
C
102
}
330
C
100
AcDbDictionary
281
     1
  3
CANNOSCALE
350
146
  3
CMLEADERSTYLE
350
145
  3
CTABLESTYLE
350
84
  3
CVIEWDETAILSTYLE
350
227
  3
CVIEWSECTIONSTYLE
350
228
  3
DIMASSOC
350
5F
  3
HIDETEXT
350
63
  3
LAYEREVAL
350
1AE
  3
LAYERNOTIFY
350
1AF
  3
XCLIPFRAME
350
66D
  0
DICTIONARY
  5
675
102
{ACAD_REACTORS
330
C
102
}
330
C
100
AcDbDictionary
281
     1
  3
AcDsRecords
350
677
  3
AcDsSchemas
350
676
1001
ACAD
1070
     2
  0
DICTIONARY
  5
200
102
{ACAD_REACTORS
330
1FF
102
}
330
1FF
100
AcDbDictionary
281
     1
  0
ACDBDETAILVIEWSTYLE
  5
21C
102
{ACAD_XDICTIONARY
360
236
102
}
102
{ACAD_REACTORS
330
21B
102
}
330
21B
100
AcDbModelDocViewStyle
 70
     0
  3
Metric50
290
     0
100
AcDbDetailViewStyle
 70
     0
 71
     0
 90
        3
 71
     1
340
11
 62
   256
 40
5.0
340
0
 62
   256
 40
5.0
300

 40
0.0
280
     1
 71
     2
340
16
 90
       25
 62
   256
 71
     3
340
11
 62
   256
 40
5.0
 90
        0
 40
15.0
 90
        1
300
%<\AcVar ViewDetailId>% (%<\AcVar ViewScale \f "%sn">%)
 71
     4
340
16
 90
       25
 62
   256
340
16
 90
       25
 62
   256
280
     0
  0
LAYOUT
  5
22
102
{ACAD_XDICTIONARY
360
205
102
}
102
{ACAD_REACTORS
330
1A
102
}
330
1A
100
AcDbPlotSettings
  1

  2
none_device
  4
ISO_A4_(210.00_x_297.00_MM)
  6

 40
7.5
 41
20.0
 42
7.5
 43
20.0
 44
210.0
 45
297.0
 46
11.54999923706054
 47
-13.65000009536743
 48
0.0
 49
0.0
140
0.0
141
0.0
142
1.0
143
8.704084754739808
 70
 11952
 72
     1
 73
     0
 74
     0
  7

 75
     0
147
0.1148885871608098
 76
     0
 77
     2
 78
   300
148
0.0
149
0.0
100
AcDbLayout
  1
Model
 70
     1
 71
     0
 10
0.0
 20
0.0
 11
12.0
 21
9.0
 12
0.0
 22
0.0
 32
0.0
 14
0.0
 24
0.0
 34
0.0
 15
0.0
 25
0.0
 35
0.0
146
0.0
 13
0.0
 23
0.0
 33
0.0
 16
1.0
 26
0.0
 36
0.0
 17
0.0
 27
1.0
 37
0.0
 76
     0
330
1F
331
EA
1001
ACAD_PSEXT
1000
None
1000
None
1000
Not applicable
1000
The layout will not be plotted unless a new plotter configuration name is selected.
1070
     0
  0
LAYOUT
  5
D3
102
{ACAD_REACTORS
330
1A
102
}
330
1A
100
AcDbPlotSettings
  1

  2
C:\Documents and Settings\basas\Application Data\Autodesk\AutoCAD 2005\R16.1\enu\plotters\Default Windows System Printer.pc3
  4

  6

 40
0.0
 41
0.0
 42
0.0
 43
0.0
 44
0.0
 45
0.0
 46
0.0
 47
0.0
 48
0.0
 49
0.0
140
0.0
141
0.0
142
1.0
143
1.0
 70
   688
 72
     0
 73
     0
 74
     5
  7

 75
    16
147
1.0
 76
     0
 77
     2
 78
   300
148
0.0
149
0.0
100
AcDbLayout
  1
Presentación1
 70
     1
 71
     1
 10
0.0
 20
0.0
 11
12.0
 21
9.0
 12
0.0
 22
0.0
 32
0.0
 14
0.0
 24
0.0
 34
0.0
 15
0.0
 25
0.0
 35
0.0
146
0.0
 13
0.0
 23
0.0
 33
0.0
 16
1.0
 26
0.0
 36
0.0
 17
0.0
 27
1.0
 37
0.0
 76
     0
330
D2
  0
LAYOUT
  5
D7
102
{ACAD_REACTORS
330
1A
102
}
330
1A
100
AcDbPlotSettings
  1

  2
C:\Documents and Settings\basas\Application Data\Autodesk\AutoCAD 2005\R16.1\enu\plotters\Default Windows System Printer.pc3
  4

  6

 40
0.0
 41
0.0
 42
0.0
 43
0.0
 44
0.0
 45
0.0
 46
0.0
 47
0.0
 48
0.0
 49
0.0
140
0.0
141
0.0
142
1.0
143
1.0
 70
   688
 72
     0
 73
     0
 74
     5
  7

 75
    16
147
1.0
 76
     0
 77
     2
 78
   300
148
0.0
149
0.0
100
AcDbLayout
  1
Presentación2
 70
     1
 71
     2
 10
0.0
 20
0.0
 11
12.0
 21
9.0
 12
0.0
 22
0.0
 32
0.0
 14
0.0
 24
0.0
 34
0.0
 15
0.0
 25
0.0
 35
0.0
146
0.0
 13
0.0
 23
0.0
 33
0.0
 16
1.0
 26
0.0
 36
0.0
 17
0.0
 27
1.0
 37
0.0
 76
     0
330
D6
  0
MATERIAL
  5
ED
102
{ACAD_XDICTIONARY
360
1F9
102
}
102
{ACAD_REACTORS
330
6A
102
}
330
6A
100
AcDbMaterial
  1
ByBlock
 94
       63
  0
MATERIAL
  5
EC
102
{ACAD_XDICTIONARY
360
1F7
102
}
102
{ACAD_REACTORS
330
6A
102
}
330
6A
100
AcDbMaterial
  1
ByLayer
 94
       63
  0
MATERIAL
  5
EE
102
{ACAD_XDICTIONARY
360
173
102
}
102
{ACAD_REACTORS
330
6A
102
}
330
6A
100
AcDbMaterial
  1
Global
 43
0.0007999999797903
 43
0.0
 43
0.0
 43
0.0
 43
0.0
 43
0.0007999999797903
 43
0.0
 43
0.0
 43
0.0
 43
0.0
 43
1.0
 43
0.0
 43
0.0
 43
0.0
 43
0.0
 43
1.0
 49
0.0007999999797903
 49
0.0
 49
0.0
 49
0.0
 49
0.0
 49
0.0007999999797903
 49
0.0
 49
0.0
 49
0.0
 49
0.0
 49
1.0
 49
0.0
 49
0.0
 49
0.0
 49
0.0
 49
1.0
142
0.0007999999797903
142
0.0
142
0.0
142
0.0
142
0.0
142
0.0007999999797903
142
0.0
142
0.0
142
0.0
142
0.0
142
1.0
142
0.0
142
0.0
142
0.0
142
0.0
142
1.0
144
0.0007999999797903
144
0.0
144
0.0
144
0.0
144
0.0
144
0.0007999999797903
144
0.0
144
0.0
144
0.0
144
0.0
144
1.0
144
0.0
144
0.0
144
0.0
144
0.0
144
1.0
 94
       63
1001
ACAD
1070
    -1
1070
     3
1070
     0
1000

1071
        0
1070
     0
  0
MLEADERSTYLE
  5
13B
102
{ACAD_REACTORS
330
12D
102
}
330
12D
100
AcDbMLeaderStyle
170
     2
171
     1
172
     0
 90
        2
 40
0.0
 41
0.0
173
     1
 91
-1056964608
340
14
 92
       -2
290
     1
 42
2.0
291
     1
 43
8.0
  3
Standard
 44
4.0
300

342
11
174
     1
178
     1
175
     1
176
     0
 93
-1056964608
 45
4.0
292
     0
297
     0
 46
4.0
 94
-1056964608
 47
1.0
 49
1.0
140
1.0
293
     1
141
0.0
294
     1
177
     0
142
1.0
295
     0
296
     1
143
3.75
1001
ACAD_MLEADERVER
1070
     2
  0
MLEADERSTYLE
  5
12E
102
{ACAD_REACTORS
330
12D
102
}
330
12D
100
AcDbMLeaderStyle
170
     2
171
     1
172
     0
 90
        2
 40
0.0
 41
0.0
173
     1
 91
-1056964608
340
14
 92
       -2
290
     1
 42
2.0
291
     1
 43
8.0
  3
Standard
 44
4.0
300

342
11
174
     1
178
     1
175
     1
176
     0
 93
-1056964608
 45
4.0
292
     0
297
     0
 46
4.0
 94
-1056964608
 47
1.0
 49
1.0
140
1.0
293
     1
141
0.0
294
     1
177
     0
142
1.0
295
     0
296
     0
143
3.75
1001
ACAD_MLEADERVER
1070
     2
  0
MLINESTYLE
  5
18
102
{ACAD_REACTORS
330
17
102
}
330
17
100
AcDbMlineStyle
  2
STANDARD
 70
     0
  3

 62
   256
 51
90.0
 52
90.0
 71
     2
 49
0.5
 62
   256
  6
BYLAYER
 49
-0.5
 62
   256
  6
BYLAYER
  0
ACDBPLACEHOLDER
  5
F
102
{ACAD_REACTORS
330
E
102
}
330
E
  0
SCALE
  5
10D
102
{ACAD_REACTORS
330
10C
102
}
330
10C
100
AcDbScale
 70
     0
300
1:1
140
1.0
141
1.0
290
     1
  0
SCALE
  5
1BE
102
{ACAD_REACTORS
330
10C
102
}
330
10C
100
AcDbScale
 70
     0
300
1:2
140
1.0
141
2.0
290
     0
  0
SCALE
  5
1BF
102
{ACAD_REACTORS
330
10C
102
}
330
10C
100
AcDbScale
 70
     0
300
1:4
140
1.0
141
4.0
290
     0
  0
SCALE
  5
1C0
102
{ACAD_REACTORS
330
10C
102
}
330
10C
100
AcDbScale
 70
     0
300
1:5
140
1.0
141
5.0
290
     0
  0
SCALE
  5
1C1
102
{ACAD_REACTORS
330
10C
102
}
330
10C
100
AcDbScale
 70
     0
300
1:8
140
1.0
141
8.0
290
     0
  0
SCALE
  5
1C2
102
{ACAD_REACTORS
330
10C
102
}
330
10C
100
AcDbScale
 70
     0
300
1:10
140
1.0
141
10.0
290
     0
  0
SCALE
  5
1C3
102
{ACAD_REACTORS
330
10C
102
}
330
10C
100
AcDbScale
 70
     0
300
1:16
140
1.0
141
16.0
290
     0
  0
SCALE
  5
1C4
102
{ACAD_REACTORS
330
10C
102
}
330
10C
100
AcDbScale
 70
     0
300
1:20
140
1.0
141
20.0
290
     0
  0
SCALE
  5
1C5
102
{ACAD_REACTORS
330
10C
102
}
330
10C
100
AcDbScale
 70
     0
300
1:30
140
1.0
141
30.0
290
     0
  0
SCALE
  5
1C6
102
{ACAD_REACTORS
330
10C
102
}
330
10C
100
AcDbScale
 70
     0
300
1:40
140
1.0
141
40.0
290
     0
  0
SCALE
  5
1C7
102
{ACAD_REACTORS
330
10C
102
}
330
10C
100
AcDbScale
 70
     0
300
1:50
140
1.0
141
50.0
290
     0
  0
SCALE
  5
1C8
102
{ACAD_REACTORS
330
10C
102
}
330
10C
100
AcDbScale
 70
     0
300
1:100
140
1.0
141
100.0
290
     0
  0
SCALE
  5
1C9
102
{ACAD_REACTORS
330
10C
102
}
330
10C
100
AcDbScale
 70
     0
300
2:1
140
2.0
141
1.0
290
     0
  0
SCALE
  5
1CA
102
{ACAD_REACTORS
330
10C
102
}
330
10C
100
AcDbScale
 70
     0
300
4:1
140
4.0
141
1.0
290
     0
  0
SCALE
  5
1CB
102
{ACAD_REACTORS
330
10C
102
}
330
10C
100
AcDbScale
 70
     0
300
8:1
140
8.0
141
1.0
290
     0
  0
SCALE
  5
1CC
102
{ACAD_REACTORS
330
10C
102
}
330
10C
100
AcDbScale
 70
     0
300
10:1
140
10.0
141
1.0
290
     0
  0
SCALE
  5
1CD
102
{ACAD_REACTORS
330
10C
102
}
330
10C
100
AcDbScale
 70
     0
300
100:1
140
100.0
141
1.0
290
     0
  0
ACDBSECTIONVIEWSTYLE
  5
21A
102
{ACAD_XDICTIONARY
360
234
102
}
102
{ACAD_REACTORS
330
219
102
}
330
219
100
AcDbModelDocViewStyle
 70
     0
  3
Metric50
290
     0
100
AcDbSectionViewStyle
 70
     0
 71
     0
 90
      102
 71
     1
340
11
 62
   256
 40
5.0
340
0
340
0
 62
   256
 40
5.0
300
I, O, Q, S, X, Z
 40
10.0
 90
        0
 40
2.5
 90
        0
 71
     2
340
16
 90
       25
 62
   256
340
16
 90
       50
 62
   256
 40
5.0
 40
2.5
 40
5.0
 71
     3
340
11
 62
   256
 40
5.0
 90
        0
 40
15.0
 90
        1
300
%<\AcVar ViewSectionStartId>%-%<\AcVar ViewSectionEndId>% (%<\AcVar ViewScale \f "%sn">%)
 71
     4
 62
   256
 62
   257
300
ANSI31
 40
1.0
 90
        0
290
     0
290
     0
 90
        6
 40
0.0
 40
1.570796326794896
 40
0.2617993877991494
 40
1.308996938995747
 40
-0.2617993877991494
 40
1.832595714594046
  0
TABLESTYLE
  5
7F
102
{ACAD_XDICTIONARY
360
162
102
}
102
{ACAD_REACTORS
330
7E
102
}
330
7E
100
AcDbTableStyle
  3
Standard
 70
     0
 71
     0
 40
1.5
 41
1.5
280
     0
281
     0
  7
Standard
140
4.5
170
     2
 62
     0
 63
     7
283
     0
 90
      512
 91
        0
  1

274
    -2
284
     1
 64
     0
275
    -2
285
     1
 65
     0
276
    -2
286
     1
 66
     0
277
    -2
287
     1
 67
     0
278
    -2
288
     1
 68
     0
279
    -2
289
     1
 69
     0
  7
Standard
140
6.0
170
     5
 62
     0
 63
     7
283
     0
 90
      512
 91
        0
  1

274
    -2
284
     1
 64
     0
275
    -2
285
     1
 65
     0
276
    -2
286
     1
 66
     0
277
    -2
287
     1
 67
     0
278
    -2
288
     1
 68
     0
279
    -2
289
     1
 69
     0
  7
Standard
140
4.5
170
     5
 62
     0
 63
     7
283
     0
 90
      512
 91
        0
  1

274
    -2
284
     1
 64
     0
275
    -2
285
     1
 65
     0
276
    -2
286
     1
 66
     0
277
    -2
287
     1
 67
     0
278
    -2
288
     1
 68
     0
279
    -2
289
     1
 69
     0
  0
VISUALSTYLE
  5
F5
102
{ACAD_XDICTIONARY
360
682
102
}
102
{ACAD_REACTORS
330
EF
102
}
330
EF
100
AcDbVisualStyle
  2
2dWireframe
 70
     4
 71
     0
 72
     2
 73
     1
 90
        0
 40
-0.6
 41
-30.0
 62
     5
 63
     7
421
 16777215
 74
     1
 91
        4
 64
     7
 65
   257
 75
     1
175
     1
 42
1.0
 92
        0
 66
   257
 43
1.0
 76
     1
 77
     6
 78
     2
 67
     7
 79
     5
170
     0
171
     0
290
     0
174
     0
 93
        1
 44
0.0
173
     0
291
     0
 45
0.0
1001
ACAD
1000
AcDbSavedByObjectVersion
1070
     0
  0
VISUALSTYLE
  5
F4
102
{ACAD_XDICTIONARY
360
680
102
}
102
{ACAD_REACTORS
330
EF
102
}
330
EF
100
AcDbVisualStyle
  2
Basic
 70
     7
 71
     1
 72
     0
 73
     1
 90
        0
 40
-0.6
 41
-30.0
 62
     5
 63
     7
421
 16777215
 74
     0
 91
        4
 64
     7
 65
   257
 75
     1
175
     1
 42
1.0
 92
        8
 66
     7
 43
1.0
 76
     1
 77
     6
 78
     2
 67
     7
 79
     5
170
     0
171
     0
290
     0
174
     0
 93
        1
 44
0.0
173
     0
291
     1
 45
0.0
1001
ACAD
1000
AcDbSavedByObjectVersion
1070
     0
  0
VISUALSTYLE
  5
FB
102
{ACAD_XDICTIONARY
360
68E
102
}
102
{ACAD_REACTORS
330
EF
102
}
330
EF
100
AcDbVisualStyle
  2
Brighten
 70
    12
 71
     2
 72
     2
 73
     1
 90
        0
 40
-0.6
 41
-30.0
 62
     5
 63
     7
421
 16777215
 74
     1
 91
        4
 64
     7
 65
   257
 75
     1
175
     1
 42
1.0
 92
        8
 66
     7
 43
1.0
 76
     1
 77
     6
 78
     2
 67
     7
 79
     5
170
     0
171
     0
290
     0
174
     0
 93
        1
 44
50.0
173
     0
291
     1
 45
0.0
1001
ACAD
1000
AcDbSavedByObjectVersion
1070
     0
  0
VISUALSTYLE
  5
FF
102
{ACAD_XDICTIONARY
360
696
102
}
102
{ACAD_REACTORS
330
EF
102
}
330
EF
100
AcDbVisualStyle
  2
ColorChange
 70
    16
 71
     2
 72
     2
 73
     3
 90
        0
 40
-0.6
 41
-30.0
 62
     5
 63
     8
421
  8421504
 74
     1
 91
        4
 64
     7
 65
   257
 75
     1
175
     1
 42
1.0
 92
        8
 66
     8
424
  8421504
 43
1.0
 76
     1
 77
     6
 78
     2
 67
     7
 79
     5
170
     0
171
     0
290
     0
174
     0
 93
        1
 44
0.0
173
     0
291
     1
 45
0.0
1001
ACAD
1000
AcDbSavedByObjectVersion
1070
     0
  0
VISUALSTYLE
  5
F8
102
{ACAD_XDICTIONARY
360
688
102
}
102
{ACAD_REACTORS
330
EF
102
}
330
EF
100
AcDbVisualStyle
  2
Conceptual
 70
     9
 71
     3
 72
     2
 73
     1
 90
        0
 40
-0.6
 41
-30.0
 62
     5
 63
     7
421
 16777215
 74
     2
 91
        2
 64
     7
 65
   257
 75
     1
175
     1
 42
40.0
 92
        8
 66
     7
 43
1.0
 76
     1
 77
     6
 78
     2
 67
     7
 79
     3
170
     0
171
     0
290
     0
174
     0
 93
        1
 44
0.0
173
     0
291
     0
 45
0.0
1001
ACAD
1000
AcDbSavedByObjectVersion
1070
     0
  0
VISUALSTYLE
  5
FA
102
{ACAD_XDICTIONARY
360
68C
102
}
102
{ACAD_REACTORS
330
EF
102
}
330
EF
100
AcDbVisualStyle
  2
Dim
 70
    11
 71
     2
 72
     2
 73
     1
 90
        0
 40
-0.6
 41
-30.0
 62
     5
 63
     7
421
 16777215
 74
     1
 91
        4
 64
     7
 65
   257
 75
     1
175
     1
 42
1.0
 92
        8
 66
     7
 43
1.0
 76
     1
 77
     6
 78
     2
 67
     7
 79
     5
170
     0
171
     0
290
     0
174
     0
 93
        1
 44
-50.0
173
     0
291
     1
 45
0.0
1001
ACAD
1000
AcDbSavedByObjectVersion
1070
     0
  0
VISUALSTYLE
  5
1E6
102
{ACAD_XDICTIONARY
360
69C
102
}
102
{ACAD_REACTORS
330
EF
102
}
330
EF
100
AcDbVisualStyle
  2
EdgeColorOff
 70
    22
 71
     2
 72
     2
 73
     0
 90
        0
 40
-0.6
 41
-30.0
 62
     5
 63
     7
421
 16777215
 74
     1
 91
        4
 64
     7
 65
   257
 75
     1
175
     1
 42
1.0
 92
        8
 66
     7
 43
1.0
 76
     1
 77
     6
 78
     2
 67
     7
 79
     5
170
     0
171
     0
290
     0
174
     0
 93
        1
 44
0.0
173
     0
291
     1
 45
0.0
1001
ACAD
1000
AcDbSavedByObjectVersion
1070
     0
  0
VISUALSTYLE
  5
FE
102
{ACAD_XDICTIONARY
360
694
102
}
102
{ACAD_REACTORS
330
EF
102
}
330
EF
100
AcDbVisualStyle
  2
Facepattern
 70
    15
 71
     2
 72
     2
 73
     1
 90
        0
 40
-0.6
 41
-30.0
 62
     5
 63
     7
421
 16777215
 74
     1
 91
        4
 64
     7
 65
   257
 75
     1
175
     1
 42
1.0
 92
        8
 66
     7
 43
1.0
 76
     1
 77
     6
 78
     2
 67
     7
 79
     5
170
     0
171
     0
290
     0
174
     0
 93
        1
 44
0.0
173
     0
291
     1
 45
0.0
1001
ACAD
1000
AcDbSavedByObjectVersion
1070
     0
  0
VISUALSTYLE
  5
F0
102
{ACAD_XDICTIONARY
360
678
102
}
102
{ACAD_REACTORS
330
EF
102
}
330
EF
100
AcDbVisualStyle
  2
Flat
 70
     0
 71
     2
 72
     1
 73
     1
 90
        2
 40
-0.6
 41
30.0
 62
     5
 63
     7
421
 16777215
 74
     0
 91
        0
 64
     7
 65
   257
 75
     1
175
     1
 42
1.0
 92
        8
 66
     7
 43
1.0
 76
     1
 77
     6
 78
     2
 67
     7
 79
     5
170
     0
171
     0
290
     0
174
     0
 93
       13
 44
0.0
173
     0
291
     1
 45
0.0
1001
ACAD
1000
AcDbSavedByObjectVersion
1070
     0
  0
VISUALSTYLE
  5
F1
102
{ACAD_XDICTIONARY
360
67A
102
}
102
{ACAD_REACTORS
330
EF
102
}
330
EF
100
AcDbVisualStyle
  2
FlatWithEdges
 70
     1
 71
     2
 72
     1
 73
     1
 90
        2
 40
-0.6
 41
30.0
 62
     5
 63
     7
421
 16777215
 74
     1
 91
        0
 64
     7
 65
   257
 75
     1
175
     1
 42
1.0
 92
        0
 66
   257
 43
1.0
 76
     1
 77
     6
 78
     2
 67
     7
 79
     5
170
     0
171
     0
290
     0
174
     0
 93
       13
 44
0.0
173
     0
291
     1
 45
0.0
1001
ACAD
1000
AcDbSavedByObjectVersion
1070
     0
  0
VISUALSTYLE
  5
F2
102
{ACAD_XDICTIONARY
360
67C
102
}
102
{ACAD_REACTORS
330
EF
102
}
330
EF
100
AcDbVisualStyle
  2
Gouraud
 70
     2
 71
     2
 72
     2
 73
     1
 90
        2
 40
-0.6
 41
30.0
 62
     5
 63
     7
421
 16777215
 74
     0
 91
        0
 64
     7
 65
   257
 75
     1
175
     1
 42
1.0
 92
        0
 66
     7
 43
1.0
 76
     1
 77
     6
 78
     2
 67
     7
 79
     5
170
     0
171
     0
290
     0
174
     0
 93
       13
 44
0.0
173
     0
291
     1
 45
0.0
1001
ACAD
1000
AcDbSavedByObjectVersion
1070
     0
  0
VISUALSTYLE
  5
F3
102
{ACAD_XDICTIONARY
360
67E
102
}
102
{ACAD_REACTORS
330
EF
102
}
330
EF
100
AcDbVisualStyle
  2
GouraudWithEdges
 70
     3
 71
     2
 72
     2
 73
     1
 90
        2
 40
-0.6
 41
30.0
 62
     5
 63
     7
421
 16777215
 74
     1
 91
        0
 64
     7
 65
   257
 75
     1
175
     1
 42
1.0
 92
        0
 66
   257
 43
1.0
 76
     1
 77
     6
 78
     2
 67
     7
 79
     5
170
     0
171
     0
290
     0
174
     0
 93
       13
 44
0.0
173
     0
291
     1
 45
0.0
1001
ACAD
1000
AcDbSavedByObjectVersion
1070
     0
  0
VISUALSTYLE
  5
F7
102
{ACAD_XDICTIONARY
360
686
102
}
102
{ACAD_REACTORS
330
EF
102
}
330
EF
100
AcDbVisualStyle
  2
Hidden
 70
     6
 71
     1
 72
     2
 73
     2
 90
        0
 40
-0.6
 41
-30.0
 62
     5
 63
     7
421
 16777215
 74
     2
 91
        2
 64
     7
 65
   257
 75
     2
175
     1
 42
40.0
 92
        0
 66
   257
 43
1.0
 76
     1
 77
     6
 78
     2
 67
     7
 79
     3
170
     0
171
     0
290
     0
174
     0
 93
        1
 44
0.0
173
     0
291
     0
 45
0.0
1001
ACAD
1000
AcDbSavedByObjectVersion
1070
     0
  0
VISUALSTYLE
  5
1E4
102
{ACAD_XDICTIONARY
360
698
102
}
102
{ACAD_REACTORS
330
EF
102
}
330
EF
100
AcDbVisualStyle
  2
JitterOff
 70
    20
 71
     2
 72
     2
 73
     0
 90
        0
 40
-0.6
 41
-30.0
 62
     5
 63
     7
421
 16777215
 74
     1
 91
        4
 64
     7
 65
   257
 75
     1
175
     1
 42
1.0
 92
       10
 66
     7
 43
1.0
 76
     1
 77
     6
 78
     2
 67
     7
 79
     5
170
     0
171
     0
290
     0
174
     0
 93
        1
 44
0.0
173
     0
291
     1
 45
0.0
1001
ACAD
1000
AcDbSavedByObjectVersion
1070
     0
  0
VISUALSTYLE
  5
FD
102
{ACAD_XDICTIONARY
360
692
102
}
102
{ACAD_REACTORS
330
EF
102
}
330
EF
100
AcDbVisualStyle
  2
Linepattern
 70
    14
 71
     2
 72
     2
 73
     1
 90
        0
 40
-0.6
 41
-30.0
 62
     5
 63
     7
421
 16777215
 74
     1
 91
        4
 64
     7
 65
   257
 75
     7
175
     7
 42
1.0
 92
        8
 66
     7
 43
1.0
 76
     1
 77
     6
 78
     2
 67
     7
 79
     5
170
     0
171
     0
290
     0
174
     0
 93
        1
 44
0.0
173
     0
291
     1
 45
0.0
1001
ACAD
1000
AcDbSavedByObjectVersion
1070
     0
  0
VISUALSTYLE
  5
1E5
102
{ACAD_XDICTIONARY
360
69A
102
}
102
{ACAD_REACTORS
330
EF
102
}
330
EF
100
AcDbVisualStyle
  2
OverhangOff
 70
    21
 71
     2
 72
     2
 73
     0
 90
        0
 40
-0.6
 41
-30.0
 62
     5
 63
     7
421
 16777215
 74
     1
 91
        4
 64
     7
 65
   257
 75
     1
175
     1
 42
1.0
 92
        9
 66
     7
 43
1.0
 76
     1
 77
     6
 78
     2
 67
     7
 79
     5
170
     0
171
     0
290
     0
174
     0
 93
        1
 44
0.0
173
     0
291
     1
 45
0.0
1001
ACAD
1000
AcDbSavedByObjectVersion
1070
     0
  0
VISUALSTYLE
  5
F9
102
{ACAD_XDICTIONARY
360
68A
102
}
102
{ACAD_REACTORS
330
EF
102
}
330
EF
100
AcDbVisualStyle
  2
Realistic
 70
     8
 71
     2
 72
     3
 73
     0
 90
        2
 40
-0.6
 41
30.0
 62
     5
 63
     7
421
 16777215
 74
     0
 91
        0
 64
     7
 65
   257
 75
     1
175
     1
 42
1.0
 92
        8
 66
   257
 43
1.0
 76
     1
 77
     6
 78
     2
 67
     7
 79
     3
170
     0
171
     0
290
     0
174
     0
 93
       13
 44
0.0
173
     0
291
     0
 45
0.0
1001
ACAD
1000
AcDbSavedByObjectVersion
1070
     0
  0
VISUALSTYLE
  5
1F3
102
{ACAD_XDICTIONARY
360
6A6
102
}
102
{ACAD_REACTORS
330
EF
102
}
330
EF
100
AcDbVisualStyle
  2
Shaded
 70
    27
 71
     2
 72
     2
 73
     1
 90
        2
 40
-0.6
 41
30.0
 62
     5
 63
     7
421
 16777215
 74
     0
 91
        4
 64
     7
 65
   257
 75
     1
175
     1
 42
1.0
 92
        8
 66
   257
 43
1.0
 76
     1
 77
     6
 78
     2
 67
     8
425
  7895160
 79
     3
170
     0
171
     0
290
     0
174
     0
 93
        5
 44
0.0
173
     0
291
     0
 45
0.0
1001
ACAD
1000
AcDbSavedByObjectVersion
1070
     0
  0
VISUALSTYLE
  5
1F2
102
{ACAD_XDICTIONARY
360
6A4
102
}
102
{ACAD_REACTORS
330
EF
102
}
330
EF
100
AcDbVisualStyle
  2
Shaded with edges
 70
    26
 71
     2
 72
     2
 73
     1
 90
        2
 40
-0.6
 41
30.0
 62
     5
 63
     7
421
 16777215
 74
     1
 91
       10
 64
     7
 65
   257
 75
     2
175
     1
 42
1.0
 92
        8
 66
   257
 43
1.0
 76
     1
 77
     6
 78
     2
 67
     7
 79
     3
170
     0
171
     0
290
     0
174
     0
 93
        5
 44
0.0
173
     0
291
     0
 45
0.0
1001
ACAD
1000
AcDbSavedByObjectVersion
1070
     0
  0
VISUALSTYLE
  5
1EF
102
{ACAD_XDICTIONARY
360
69E
102
}
102
{ACAD_REACTORS
330
EF
102
}
330
EF
100
AcDbVisualStyle
  2
Shades of Gray
 70
    23
 71
     2
 72
     2
 73
     3
 90
        0
 40
-0.6
 41
-30.0
 62
     5
 63
     7
421
 16777215
 74
     2
 91
        2
 64
     7
 65
     7
 75
     1
175
     1
 42
40.0
 92
        8
 66
     7
 43
1.0
 76
     1
 77
     6
 78
     2
 67
     7
 79
     3
170
     0
171
     0
290
     0
174
     0
 93
        1
 44
0.0
173
     0
291
     0
 45
0.0
1001
ACAD
1000
AcDbSavedByObjectVersion
1070
     0
  0
VISUALSTYLE
  5
1F0
102
{ACAD_XDICTIONARY
360
6A0
102
}
102
{ACAD_REACTORS
330
EF
102
}
330
EF
100
AcDbVisualStyle
  2
Sketchy
 70
    24
 71
     1
 72
     2
 73
     2
 90
        0
 40
-0.6
 41
-30.0
 62
     5
 63
     7
421
 16777215
 74
     2
 91
        2
 64
     7
 65
     7
 75
     1
175
     1
 42
40.0
 92
       11
 66
     7
 43
1.0
 76
     1
 77
     6
 78
     2
 67
     7
 79
     6
170
     0
171
     0
290
     0
174
     0
 93
        1
 44
0.0
173
     0
291
     0
 45
0.0
1001
ACAD
1000
AcDbSavedByObjectVersion
1070
     0
  0
VISUALSTYLE
  5
FC
102
{ACAD_XDICTIONARY
360
690
102
}
102
{ACAD_REACTORS
330
EF
102
}
330
EF
100
AcDbVisualStyle
  2
Thicken
 70
    13
 71
     2
 72
     2
 73
     1
 90
        0
 40
-0.6
 41
-30.0
 62
     5
 63
     7
421
 16777215
 74
     1
 91
        4
 64
     7
 65
   257
 75
     1
175
     1
 42
1.0
 92
       12
 66
     7
 43
1.0
 76
     1
 77
     6
 78
     2
 67
     7
 79
     5
170
     0
171
     0
290
     0
174
     0
 93
        1
 44
0.0
173
     0
291
     1
 45
0.0
1001
ACAD
1000
AcDbSavedByObjectVersion
1070
     0
  0
VISUALSTYLE
  5
F6
102
{ACAD_XDICTIONARY
360
684
102
}
102
{ACAD_REACTORS
330
EF
102
}
330
EF
100
AcDbVisualStyle
  2
Wireframe
 70
     5
 71
     0
 72
     2
 73
     0
 90
        0
 40
-0.6
 41
-30.0
 62
     5
 63
     7
421
 16777215
 74
     1
 91
        4
 64
     7
 65
   257
 75
     1
175
     1
 42
1.0
 92
        0
 66
   257
 43
1.0
 76
     1
 77
     6
 78
     2
 67
     7
 79
     3
170
     0
171
     0
290
     0
174
     0
 93
        1
 44
0.0
173
     0
291
     0
 45
0.0
1001
ACAD
1000
AcDbSavedByObjectVersion
1070
     0
  0
VISUALSTYLE
  5
1F1
102
{ACAD_XDICTIONARY
360
6A2
102
}
102
{ACAD_REACTORS
330
EF
102
}
330
EF
100
AcDbVisualStyle
  2
X-Ray
 70
    25
 71
     2
 72
     2
 73
     1
 90
        1
 40
0.5
 41
-30.0
 62
     5
 63
     7
421
 16777215
 74
     1
 91
        0
 64
     7
 65
   257
 75
     1
175
     1
 42
1.0
 92
        8
 66
     7
 43
1.0
 76
     1
 77
     6
 78
     2
 67
     7
 79
     3
170
     0
171
     0
290
     0
174
     0
 93
       13
 44
0.0
173
     0
291
     0
 45
0.0
1001
ACAD
1000
AcDbSavedByObjectVersion
1070
     0
  0
DICTIONARYVAR
  5
146
102
{ACAD_REACTORS
330
5E
102
}
330
5E
100
DictionaryVariables
280
     0
  1
1:1
  0
DICTIONARYVAR
  5
145
102
{ACAD_REACTORS
330
5E
102
}
330
5E
100
DictionaryVariables
280
     0
  1
STANDARD
  0
DICTIONARYVAR
  5
84
102
{ACAD_REACTORS
330
5E
102
}
330
5E
100
DictionaryVariables
280
     0
  1
STANDARD
  0
DICTIONARYVAR
  5
227
102
{ACAD_REACTORS
330
5E
102
}
330
5E
100
DictionaryVariables
280
     0
  1
Metric50
  0
DICTIONARYVAR
  5
228
102
{ACAD_REACTORS
330
5E
102
}
330
5E
100
DictionaryVariables
280
     0
  1
Metric50
  0
DICTIONARYVAR
  5
5F
102
{ACAD_REACTORS
330
5E
102
}
330
5E
100
DictionaryVariables
280
     0
  1
2
  0
DICTIONARYVAR
  5
63
102
{ACAD_REACTORS
330
5E
102
}
330
5E
100
DictionaryVariables
280
     0
  1
1
  0
DICTIONARYVAR
  5
1AE
102
{ACAD_REACTORS
330
5E
102
}
330
5E
100
DictionaryVariables
280
     0
  1
0
  0
DICTIONARYVAR
  5
1AF
102
{ACAD_REACTORS
330
5E
102
}
330
5E
100
DictionaryVariables
280
     0
  1
0
  0
DICTIONARYVAR
  5
66D
102
{ACAD_REACTORS
330
5E
102
}
330
5E
100
DictionaryVariables
280
     0
  1
2
  0
DICTIONARY
  5
677
102
{ACAD_REACTORS
330
675
102
}
330
675
100
AcDbDictionary
281
     1
  0
DICTIONARY
  5
676
102
{ACAD_REACTORS
330
675
102
}
330
675
100
AcDbDictionary
281
     1
  3
8796071314048
350
670
  3
8796071314064
350
671
  3
8796071314080
350
672
  3
8796071314096
350
673
  3
8796071314112
350
674
  0
DICTIONARY
  5
236
330
21C
100
AcDbDictionary
280
     1
281
     1
  3
ACAD_XREC_ROUNDTRIP
360
6A9
  0
DICTIONARY
  5
205
330
22
100
AcDbDictionary
280
     1
281
     1
  0
DICTIONARY
  5
1F9
330
ED
100
AcDbDictionary
280
     1
281
     1
  3
FBXASSET
360
1FA
  0
DICTIONARY
  5
1F7
330
EC
100
AcDbDictionary
280
     1
281
     1
  3
FBXASSET
360
1F8
  0
DICTIONARY
  5
173
330
EE
100
AcDbDictionary
280
     1
281
     1
  3
BUMPTILE
360
175
  3
DIFFUSETILE
360
174
  3
FBXASSET
360
1FB
  3
OPACITYTILE
360
176
  3
REFLECTIONTILE
360
177
  0
DICTIONARY
  5
234
330
21A
100
AcDbDictionary
280
     1
281
     1
  3
ACAD_XREC_ROUNDTRIP
360
6A8
  0
DICTIONARY
  5
162
330
7F
100
AcDbDictionary
280
     1
281
     1
  3
ACAD_ROUNDTRIP_2008_TABLESTYLE_CELLSTYLEMAP
360
66E
  0
DICTIONARY
  5
682
330
F5
100
AcDbDictionary
280
     1
281
     1
  3
ACAD_XREC_ROUNDTRIP
360
683
  0
DICTIONARY
  5
680
330
F4
100
AcDbDictionary
280
     1
281
     1
  3
ACAD_XREC_ROUNDTRIP
360
681
  0
DICTIONARY
  5
68E
330
FB
100
AcDbDictionary
280
     1
281
     1
  3
ACAD_XREC_ROUNDTRIP
360
68F
  0
DICTIONARY
  5
696
330
FF
100
AcDbDictionary
280
     1
281
     1
  3
ACAD_XREC_ROUNDTRIP
360
697
  0
DICTIONARY
  5
688
330
F8
100
AcDbDictionary
280
     1
281
     1
  3
ACAD_XREC_ROUNDTRIP
360
689
  0
DICTIONARY
  5
68C
330
FA
100
AcDbDictionary
280
     1
281
     1
  3
ACAD_XREC_ROUNDTRIP
360
68D
  0
DICTIONARY
  5
69C
330
1E6
100
AcDbDictionary
280
     1
281
     1
  3
ACAD_XREC_ROUNDTRIP
360
69D
  0
DICTIONARY
  5
694
330
FE
100
AcDbDictionary
280
     1
281
     1
  3
ACAD_XREC_ROUNDTRIP
360
695
  0
DICTIONARY
  5
678
330
F0
100
AcDbDictionary
280
     1
281
     1
  3
ACAD_XREC_ROUNDTRIP
360
679
  0
DICTIONARY
  5
67A
330
F1
100
AcDbDictionary
280
     1
281
     1
  3
ACAD_XREC_ROUNDTRIP
360
67B
  0
DICTIONARY
  5
67C
330
F2
100
AcDbDictionary
280
     1
281
     1
  3
ACAD_XREC_ROUNDTRIP
360
67D
  0
DICTIONARY
  5
67E
330
F3
100
AcDbDictionary
280
     1
281
     1
  3
ACAD_XREC_ROUNDTRIP
360
67F
  0
DICTIONARY
  5
686
330
F7
100
AcDbDictionary
280
     1
281
     1
  3
ACAD_XREC_ROUNDTRIP
360
687
  0
DICTIONARY
  5
698
330
1E4
100
AcDbDictionary
280
     1
281
     1
  3
ACAD_XREC_ROUNDTRIP
360
699
  0
DICTIONARY
  5
692
330
FD
100
AcDbDictionary
280
     1
281
     1
  3
ACAD_XREC_ROUNDTRIP
360
693
  0
DICTIONARY
  5
69A
330
1E5
100
AcDbDictionary
280
     1
281
     1
  3
ACAD_XREC_ROUNDTRIP
360
69B
  0
DICTIONARY
  5
68A
330
F9
100
AcDbDictionary
280
     1
281
     1
  3
ACAD_XREC_ROUNDTRIP
360
68B
  0
DICTIONARY
  5
6A6
330
1F3
100
AcDbDictionary
280
     1
281
     1
  3
ACAD_XREC_ROUNDTRIP
360
6A7
  0
DICTIONARY
  5
6A4
330
1F2
100
AcDbDictionary
280
     1
281
     1
  3
ACAD_XREC_ROUNDTRIP
360
6A5
  0
DICTIONARY
  5
69E
330
1EF
100
AcDbDictionary
280
     1
281
     1
  3
ACAD_XREC_ROUNDTRIP
360
69F
  0
DICTIONARY
  5
6A0
330
1F0
100
AcDbDictionary
280
     1
281
     1
  3
ACAD_XREC_ROUNDTRIP
360
6A1
  0
DICTIONARY
  5
690
330
FC
100
AcDbDictionary
280
     1
281
     1
  3
ACAD_XREC_ROUNDTRIP
360
691
  0
DICTIONARY
  5
684
330
F6
100
AcDbDictionary
280
     1
281
     1
  3
ACAD_XREC_ROUNDTRIP
360
685
  0
DICTIONARY
  5
6A2
330
1F1
100
AcDbDictionary
280
     1
281
     1
  3
ACAD_XREC_ROUNDTRIP
360
6A3
  0
XRECORD
  5
670
102
{ACAD_REACTORS
330
676
102
}
330
676
100
AcDbXrecord
280
     1
  1
AcDb_Thumbnail_Schema
102
{ATTRRECORD
341
671
  2
AcDbDs::TreatedAsObjectData
280
     1
291
     1
102
ATTRRECORD}
102
{ATTRRECORD
341
672
  2
AcDbDs::Legacy
280
     1
291
     1
102
ATTRRECORD}
  2
AcDbDs::ID
280
    10
 91
        8
102
{ATTRRECORD
341
673
  2
AcDs:Indexable
280
     1
291
     1
102
ATTRRECORD}
102
{ATTRRECORD
341
674
  2
AcDbDs::HandleAttribute
280
     7
282
     1
102
ATTRRECORD}
  2
Thumbnail_Data
280
    15
 91
        0
  0
XRECORD
  5
671
102
{ACAD_REACTORS
330
676
102
}
330
676
100
AcDbXrecord
280
     1
  1
AcDbDs::TreatedAsObjectDataSchema
  2
AcDbDs::TreatedAsObjectData
280
     1
 91
        0
  0
XRECORD
  5
672
102
{ACAD_REACTORS
330
676
102
}
330
676
100
AcDbXrecord
280
     1
  1
AcDbDs::LegacySchema
  2
AcDbDs::Legacy
280
     1
 91
        0
  0
XRECORD
  5
673
102
{ACAD_REACTORS
330
676
102
}
330
676
100
AcDbXrecord
280
     1
  1
AcDbDs::IndexedPropertySchema
  2
AcDs:Indexable
280
     1
 91
        0
  0
XRECORD
  5
674
102
{ACAD_REACTORS
330
676
102
}
330
676
100
AcDbXrecord
280
     1
  1
AcDbDs::HandleAttributeSchema
  2
AcDbDs::HandleAttribute
280
     7
 91
        1
284
     1
  0
XRECORD
  5
6A9
102
{ACAD_REACTORS
330
236
102
}
330
236
100
AcDbXrecord
280
     1
102
DISPLAYNAME
  1
Metric50
102
FLAGS
 90
        0
  0
XRECORD
  5
1FA
102
{ACAD_REACTORS
330
1F9
102
}
330
1F9
100
AcDbXrecord
280
     1
 70
     1
 90
429727718
  1
D62C5603-E3A1-4AEA-B7FB-FE5D8D0755AF
310
504B03040A0000080000CC70623B3DEE336E79000000790000001B0000006175746F6465736B2D64657369676E2D7061636B6167652E786D6C3C3F786D6C2076657273696F6E3D22312E302220656E636F64696E673D227574662D3822203F3E3C666F726D6174733E3C666F726D61743E687474703A2F2F736368656D612E
310
6175746F6465736B2E636F6D2F64657369676E2D7061636B6167652F323030393C2F666F726D61743E3C2F666F726D6174733E504B0304140006080800CC70623BD486FD9CA0000000F4000000130000005B436F6E74656E745F54797065735D2E786D6C7D8EC10E82300C865F65E91D8A1E8C310C0EEA1BF002731658846E
310
D98AC1B77784ABF1D8FE5FBFBF75BBCE937A534CCEB38643598122B6FEE978D0B0485F9C41B54DDD7D022595594E1A469170414C76A4D9A4D207E29CF43ECE46F218070CC6BECC4078ACAA135ACF422C856C0E68EA1BF5669944DDD7BCDE7B1F8E415D77AECB980613C2E4AC91FC167A2B244592486606FC29C8FD7F045B9A
310
EF7053A7E60B504B0304140006080800CC70623B853B8169EB0000007C01000008000000636F72652E786D6C8D90416EC3201045AF62CDB6C206821CC7C244919D9CA01740401C94182C03558F5F9C3852BBEB6A467FFE9B197D7EFC9E1EC5975982F5AE035262288C535E5B377690E21535501C055FBC8FBF6C503839990E
310
5619041F179FE64D52DE45E362569DD7661365082642A11EB9E920A89B99642953CC8E702F67A9EE7234257977194EC9EAE275C4EABCCF5EAD5940D4AC6F0E35A568B8F43562CD7046CD199FD07E60174276A7BE677B5EADB0E0D14EEFFB6A31321A0D82627C4084204C3F096B71DD52F6819B16635EADF63F509AF53FA164
310
5DDCD1EDDD17164090FCC8732078B56691CB33A85CD7DCC40F504B0304140006080800CC70623B55019EA25F0000007C00000007000000636E782E786D6C4DCB3B0E80201045D1AD90E915ED2CF8AC45050C11660C8261F98AB1B07AC9C97D42D718D865D3E909258CFD00CCE24AC6E326A164D74DC0B4128928FF32603847
310
2BA13128B1252AC747C6BAB984FC68F0B87FE8960A5C09FE86CFB69FBA01504B0304140006080800CC70623BDBABAAF470010000D40300000C0000006662782F636F72652E786D6CC553D16E823014FD95A6AF4B694182CC941A83FA05FB810A9511A125A5257EFE2E82712ECEB8A7F100CD39F7F69E734AF9FADC366850B6
310
AF8DCE7018308C942E4C59EB2AC3DE1D498AD15A706B8CFB56869196ADCAF00863C12B6B7C374385D14E6907A836A59A41D9F7CA615434B0C8705F7CAA5606D23BA8E84F41278B93AC54100640439DE0BDB320004D43C63716C7C399D30917DCFBBA9CD9BA8469F5B156168B24CED3F7248AC8769F27244EB73B92EED8862C
310
B7F13E0C179B3C8F979C8ECD82BBBABDAA2BAC924E9558448CBD9330242CFA08E3154B5651FCC6D215639C8EE5774DBE2B5F6CF2B5768B68963BB5F5588420E442FC700B1139D4CB01F450C1E918227C2E09DF070D8140C84E1E9AAB8F1340832A9CB13130A5F1376A908D57309505ECF2A0DF179C4E9D30F5B239B87E3823
310
7A79C6F31DE1A8A5AEC08474B03C7837EAE4938639B44E5932B833D2C6B6B279CDC613877FA26EE21F4A2A4C63EC7F29A2F301D1F9F7A0E37D145F504B0304140006080800CC70623B9C113CC27E0000009D0000000B0000006662782F636E782E786D6C4DCCDF0A83201C86E15B91DFB94BFB330DD428C8FB886521330DA7
310
6397BF1A1DECE883878F57749FCDA1B7892F1BBC047A23808C7F84D9FA55424E0BE6803A256208E9EF06C84F9B91703228B1C690F78B66B34CD9A5439DF5CF0BFBF65E35BCA1B8D6A5C6F540381E886698B5741C695F9503EBA150A2F8958E3DC3EA0B504B0304140006080800CC70623B7DF2F77C2A010000120200003100
310
00006662782F41393633353835312D344632462D344230382D423046372D3739314545314133324237412F636F72652E786D6C8D51DB8EC22014FC15C2939B0D2DB4B45643319AE817EC0F6041255A68B86CFCFC856D4D76DF7CE190393373060EDB3DC707F856CE6B6B7A480A0C81328395DA5C7B18C3057510EC3873D686
310
3F34088C18550F330C39BB3A1BA7051AAC09CA84841A2BD5020AEF55806078A44B0FFD7053A328440C89E1EFC52486BBB8AA8214A99D789CF9E05200300FC927E4FB4D5B375D43103D5527440FB843077C5AA3F5861C8F645F5787F59E95B390B318B55CE45AA638FAA2957BD7248B390B7A7CC51F9C124149C82B8C378810
310
84AB2F42B7B8DD56F413775B8C5999E9FF4471926F8AA236A1AE96B8B3CC434E5839373893369E1FAF30EA395917409EB7F26AF8801C171837A4A6AC9C89E9F9C9B1A58BA30FD6A5EF5DDDCF894B9AD9B6A59C957943A9FCAE2FD5BC4DFE03504B0304140006080800CC70623BAD7543B64E01000033030000300000006662
310
782F41393633353835312D344632462D344230382D423046372D3739314545314133324237412F636E782E786D6CD593CD6EC32010845F0571AD6CE3D48AD20813A9873E410FBD12D82434182C7EAAE6EDBB2424CD25871E7B41D6EC30B3FA84F9E67BB2E40B4234DE8DB46F1925E094D7C6ED479AD3AE5951B2113C789FEE
310
6C943839C1488B4C05DF079FE72A69D8C96C13AAD6B8631503449F83828872B949AC57D26200B826A308D316B4064D6E46FCDA41C05550DC9E483A00797BFD207EFB092A45DE9514C1BBD22178396BD39D891265658C238DEA00936C654E5E433CB65A26D9F6EDB5EBC14EBF49A45CB856E66048291F6939A9A81BB5C89177
310
38143CA680F4AA299D66A042CEB3354A2684DC9D8D178FE0D9B8B41CAAD720F880EE7EF93C0C18769E099ECC04D5A102C8049A8A05632F4DDF376CF1DE0F6BB65C2F8627B65A33C6BB62177CEBBDAD973006829F89F22E814B54F4BC2BE347F8AA8F681390B50FA73F804400B5F542E796F19FF974E7F78DB802FE05E20750
310
4B0304140006080800CC70623BE75B7789680500003C100000340000006662782F41393633353835312D344632462D344230382D423046372D3739314545314133324237412F6F626A656374732E786D6CAD575B8F9B3818FD2B887D06C22499CB8AA1CA655245D5B455A356FB305264C061D8018C6C3393D95FBFC7600890
310
A4CD5EF210B0B1BFEBF98E3F7B1FF6596ABC522E1296DF9BAE3D320D9A872C4AF2F8DE2CE5CEBA358D0FBEC719939D65A691938CDE9B6ADAF4BD98B3B2D05311DD91329583D9D5FC0F438434A7A611A644887B5384CF34233629258BA878B12322891DEFF6B66BD70BFB62634E8AE781D082709A4B588AF91C528CDA28B73F
310
1C998EEF39EABBEFA97FBD6A7C7E9553F9D3D79FE442923C3C523610337627CB87ABE99D359D4CC6D6E4FACAB5E6ABF9D2726FC6A3C5F56271377BB88362213924694B38DD99FE47C48627A1E7D49F5A8BB5E1A74C0A599ED3B0F21F1E56366B89112D681E218F0915D0D6F17AD41FBA2A369DCF6335D62ABBD39779D5DDD1
310
11D4D8DE3CBB96B2E04FB8202E41051754A1AA8E8F76B4C6DFE810B580B1547F4B84911149794252234D024EF8BBE963A95AE27B3D310A9D5C215C7960FAEE415ED75694C6AFB17BCACA5D99A60A9AA65F217B0BFC53292ACB92BF283FAD0D3621576592CB5BED907C2FA8E9DF794E35E97BEA31BED21FEB401ABB94C44839
310
DCACBF0E1C5DA8DA5B2F4DFFD32AD86F543D9E565E7056502E157C00AD2671CD534549AB752FCA9CDA00677A313F04E51B22FF19E57B300579E3C97EB29F682D92935CEC18CF901B7B54FD8C51F362B56FC72FE0B3C1EAE335EDCCBF5AEC39ADB17DC238973F804BA5E6F6BFE7AF1FB32E523BE9F3BD571418E3631DCA4D48
310
5250CF639223210A9446CA30052EDF057BD35F8329C1ECD84552BF0DC8D18BE7BCE23BFE6BD960AB4A7DE79923A103BEBD80F911CBAA2C60DB19B01CF164A5583B772EE6D3FFA56666CBCDA74DC97724A48F9A58967497E489C4D979006FD7A05E227A1EBDD0F737C623387A9C844D3709995625106D157315F8B8392CD4E0
310
A0B9A720C4BE9829CEF37EA1E13111214D53925356365ADA634861B52519DD27A00AEB808EAF0628E6F435519D446F45CF2C9CF5214F0A15B2F6D06B79DA3EE3CBF7F56780D2F4E7EF73A0F5E5B02A38D07DC852C6B7C1FBB6664213E0C39E3EBA7FF4E1AD23EA2829407C85E586727488B751B2DB9502BC7B228A3FD68B6E
310
A65A22397E690AA8D158D7E404EC8CDA235CC3B7D1898680131CEC2CDF2638C65196279577750F15884AEE19F94199155B92B13297978469D4F8D358DF0AEF7631E28DC8F0D9F437D5D39A83B2231A1D52D543813A824EF8D44BCFF2FA6A31BD1E8DAD87F1CCB526B3879935BF59CDADD5C37479BB1CDD4CA7B3556B516589
310
EF352754B706114D9C885EC9131DE6EFEB43D99AFE2391C2F958179413D7CFEF6B1B6DB1E7600F00DE6E5C67454A339A4BA2E0FBA85ED26F045D454F463DBFCE484C2F90F2E5E3666003662ED8F755951A7D1BECD5B30B550B2785C8E7320B7292A4838DDA71BBC863ED7613CAF659337A3354231D4FF4A182A54904C2898C
310
98B28C4AD0CE056CCF332A80986E571EE9DBC305BB5FEB7E509220A58D25CF042D712A806AC0AD0C657FDEF80D2D9CEAA2EE4D1C76F60BFE74219A06527D6F82DF6412526107381E55E353090704D085B52408A8913C4ED159D79BDA71BB4BC506F4831350EB6F975CD22D69BF7AC49B91A2C0A9DDA3D5CA36AD20FC478E37
310
E61844E2352865EBCB61A275A65283CAAA9DD27703B4102F5AF51EF5F573B75CBB5AD38BC845F7A49F82A0966A49C2E3EA5EA0ECD326CD965F1DB402C6FA8B51A4658C5C5E2EC9E214602E55810345408596591009A82E7E7FFACA19EEA299B14A0081A705CB3296EBC14CDF658DCD336EA6D1136881AAEB87B81AB9EE53D5
310
F5EB8BC8362082DA24122F98680A4E7930C01A0079749CEA14382A0783E5EBA5A10F8C098456A03D6A4AEB6BB881E2513747552A5DB22C7EDAF83BD5528081A365F7FF06504B0304140006080000CC70623B000000000000000000000000350000006662782F41393633353835312D344632462D344230382D423046372D37
310
39314545314133324237412F76657274696365732E62696E504B0304140006080800CC70623BF270F1330600000004000000360000006662782F41393633353835312D344632462D344230382D423046372D3739314545314133324237412F747269616E676C65732E62696E636660600000504B0304140006080000CC7062
310
3B000000000000000000000000370000006662782F41393633353835312D344632462D344230382D423046372D3739314545314133324237412F617474726962757465732E62696E504B0304140006080800CC70623B08DA0BD19000000041010000360000006662782F41393633353835312D344632462D344230382D4230
310
46372D3739314545314133324237412F6469726563746F72792E786D6C858F410AC3201045AF22B36F53E9A60B35CBEEBAE80D244E44489C6234F4F835464A48035D0DF398FF9F8AF63D0E6CC63039F212F8F9020C7D47C6792B21C5FE7403D62A1188E2E60C98D7234A5830286103A55745067B9D86B8A3CF9C7F90C11DE6
310
07FB144396D7B6A82D282E9A152AD114D5EF2CB866EEE831B8EEA07A7BB5A8D7D61A2BAAEB7FD5F70921FF497D00504B0304140006080800CC70623BEDD1DC58FD000000A00100003B0000006662782F41393633353835312D344632462D344230382D423046372D3739314545314133324237412F7265736F75726365732F
310
636F72652E786D6C8D504B6E833010BD0A9A6D65B00922041947112427E8052C33A156828DFCA97AFC9A40A576D7CDCCE87D344F8F9FBFE667F689CE6B6B3A6039850C8DB2A336530731DC4903D95970676DF82583CCC8193B5861107C72362E3BA4AC096842428D1D7107A5F7182053CF7474E0D507CE32973124857FE48B
310
540F3961CEF244279DE03EB81420DB9EAC1384436FA353E879B1B182C7A8C75DA3C7F453DF353A1075D537A7BA6464B8F535A99AE14A9A2BBD90E350DD183B5CFABE3AF262350B1EF4FC9351399401471025A527C218A1E53BAB5A5AB765F5469B96525EACF23FA6B88CFF34456DC2A1DCE36E360F82A5202F42F062ED2BAD
310
579969AFDD8A6F504B010214000A0000080000CC70623B3DEE336E79000000790000001B00000000000000000000000000000000006175746F6465736B2D64657369676E2D7061636B6167652E786D6C504B01021400140006080800CC70623BD486FD9CA0000000F40000001300000000000000000000000000B20000005B
310
436F6E74656E745F54797065735D2E786D6C504B01021400140006080800CC70623B853B8169EB0000007C010000080000000000000000000000000083010000636F72652E786D6C504B01021400140006080800CC70623B55019EA25F0000007C000000070000000000000000000000000094020000636E782E786D6C504B
310
01021400140006080800CC70623BDBABAAF470010000D40300000C00000000000000000000000000180300006662782F636F72652E786D6C504B01021400140006080800CC70623B9C113CC27E0000009D0000000B00000000000000000000000000B20400006662782F636E782E786D6C504B01021400140006080800CC70
310
623B7DF2F77C2A010000120200003100000000000000000000000000590500006662782F41393633353835312D344632462D344230382D423046372D3739314545314133324237412F636F72652E786D6C504B01021400140006080800CC70623BAD7543B64E010000330300003000000000000000000000000000D2060000
310
6662782F41393633353835312D344632462D344230382D423046372D3739314545314133324237412F636E782E786D6C504B01021400140006080800CC70623BE75B7789680500003C10000034000000000000000000000000006E0800006662782F41393633353835312D344632462D344230382D423046372D3739314545
310
314133324237412F6F626A656374732E786D6C504B01021400140006080000CC70623B0000000000000000000000003500000000000000000000000000280E00006662782F41393633353835312D344632462D344230382D423046372D3739314545314133324237412F76657274696365732E62696E504B01021400140006
310
080800CC70623BF270F133060000000400000036000000000000000000000000007B0E00006662782F41393633353835312D344632462D344230382D423046372D3739314545314133324237412F747269616E676C65732E62696E504B01021400140006080000CC70623B0000000000000000000000003700000000000000
310
000000000000D50E00006662782F41393633353835312D344632462D344230382D423046372D3739314545314133324237412F617474726962757465732E62696E504B01021400140006080800CC70623B08DA0BD1900000004101000036000000000000000000000000002A0F00006662782F41393633353835312D344632
310
462D344230382D423046372D3739314545314133324237412F6469726563746F72792E786D6C504B01021400140006080800CC70623BEDD1DC58FD000000A00100003B000000000000000000000000000E1000006662782F41393633353835312D344632462D344230382D423046372D3739314545314133324237412F7265
310
736F75726365732F636F72652E786D6C504B0506000000000E000E0080040000641100000000
  0
XRECORD
  5
1F8
102
{ACAD_REACTORS
330
1F7
102
}
330
1F7
100
AcDbXrecord
280
     1
 70
     1
 90
429727718
  1
30362254-06B7-45E0-A893-8CFA70E3D6BC
310
504B03040A0000080000CC70623B3DEE336E79000000790000001B0000006175746F6465736B2D64657369676E2D7061636B6167652E786D6C3C3F786D6C2076657273696F6E3D22312E302220656E636F64696E673D227574662D3822203F3E3C666F726D6174733E3C666F726D61743E687474703A2F2F736368656D612E
310
6175746F6465736B2E636F6D2F64657369676E2D7061636B6167652F323030393C2F666F726D61743E3C2F666F726D6174733E504B0304140006080800CC70623BD486FD9CA0000000F4000000130000005B436F6E74656E745F54797065735D2E786D6C7D8EC10E82300C865F65E91D8A1E8C310C0EEA1BF002731658846E
310
D98AC1B77784ABF1D8FE5FBFBF75BBCE937A534CCEB38643598122B6FEE978D0B0485F9C41B54DDD7D022595594E1A469170414C76A4D9A4D207E29CF43ECE46F218070CC6BECC4078ACAA135ACF422C856C0E68EA1BF5669944DDD7BCDE7B1F8E415D77AECB980613C2E4AC91FC167A2B244592486606FC29C8FD7F045B9A
310
EF7053A7E60B504B0304140006080800CC70623B1EC5D7A3EB0000007C01000008000000636F72652E786D6C8D90416EC3201045AF82665B6103C6756C6122AB4D4ED00B204C5C94182C03558F5F9C3852BBEB6A467FFE9B197D71FC9E6FE8CBACC17AD7032D0820E3B41FAD9B7A48F1820F808E52ACDEC75F36404ECDA687
310
4D0629A6D5A76597B477D1B89855E747B38B2A041301E95B6E7A08FAD3CCAA50296647B8168BD2573599823EBB0CA76447F43862C7BCCF5EAC59410E4DDD9C7973C2755553CCCFA4C603E3040F1565ED3B1FDE4E432BCA0D9622DAF9795FAF464533826484B498524CD807E51D79ED187F21878E10516EF63F505AC67F42C9
310
BA58B1FDDD071640D2FCC87D2045B96591CB3DA85CB7DCE40F504B0304140006080800CC70623B55019EA25F0000007C00000007000000636E782E786D6C4DCB3B0E80201045D1AD90E915ED2CF8AC45050C11660C8261F98AB1B07AC9C97D42D718D865D3E909258CFD00CCE24AC6E326A164D74DC0B4128928FF32603847
310
2BA13128B1252AC747C6BAB984FC68F0B87FE8960A5C09FE86CFB69FBA01504B0304140006080800CC70623B8C9102E971010000D40300000C0000006662782F636F72652E786D6CC5535B6E833010BC8AE5DF0A6C08340F1947A84D4ED00B38C6A128602363A31CBFCB234A53A551FA553EC09AD9F5CE8C31DB9E9B1AF5CA
310
7695D1198E428A91D2D214952E33ECDD315861B4E5CC1AE3BE9561A445A3323CC098B3D21ADFCE9034DA29ED00D5A6503328BA4E398C640D8B0C77F253352214DE4145770A5B214FA2546114020D759C75CE8200340D19DE981F0F6746269C33EFAB6266AB02A655C74A59CCF365BADC27CB5D902ED22848F6340DF238A141
310
BE88E2F57B92BFEDF23523433367AE6A2EEAA455C2A902F398D2751045018D3FA264435F3771F242571B4A1919CA6F9A7C5B3CD9E42BED16F12C776AEB308F40C848FC700B1139D4891EF410CEC810227CC6846F8386402064270EF5C5C709A05E49676C024C61FC95EA45ED154CA5211D1FF4FB8291A913A68E9B83EBBB33
310
E2A7673CDE118E5AE8124C0807CB8377834E366998436B950D7A7746DAD846D4CFD978E0F04FD455FC5D49D2D4C6FE9722321F10997F0F32DC47FE05504B0304140006080800CC70623BFFEA85907E0000009D0000000B0000006662782F636E782E786D6C4DCCD10A83201886E15B91FFDC95D95A811AB6F23E625948A6C3
310
E9D8E5AF46073BFAE0E1E365ED67B3E8ADC3CB78C7815C7240DA3DFC64DCC221C519D7805AC182F7F1EF06C88D9BE6703008B6049F9E274D7A1E938DBB5AE3D6131B2589BA0D3D965551E0B2EA732C9B9A624AAEB41E3A557677029960D9AFB4EF11165F504B0304140006080800CC70623B4FEEA4082C0100001202000031
310
0000006662782F39464131463745442D413632322D343644302D413938332D3331353338454246344243312F636F72652E786D6C8D515B6EC32010BC0AE2AB55850DD871ED0813254D72825EC00192A2C460F1A872FC42ED48ED5F7E00CDCECCCEB26C731F6FE05B39AFADE921293004CA082BB5B9F43086336A21D870E6AC
310
0D7F68109861543DCC30E4ECE26C9C164858139409093556AA051CBC570102714B8F1E7AF1A5C6A11862480C7F2DA6415C878B2A4891CA89C7990F2E050073937C42DE1DB7E4F87ED8A36D4329AA9B3D46DBAEAD504556557BD81DEBDD0761E52CE42C462D17B996298E3E6BE59E35C962CE821E1FF18553435012728A7187
310
0841987E927A8D9B35ADDF70BBC6989599FE4F1427F9A4286A132ABAC49D651EF234CD5CE04CDA78BA3DC2A8FB645D00B9DF8B57E215725C60BCA2A463E54C4CE327C7A65E1C7DB02E7DEFCBF594B864C5CA6CDBD49C957943E9FA5D5FBAF336F90F504B0304140006080800CC70623BAD7543B64E01000033030000300000
310
006662782F39464131463745442D413632322D343644302D413938332D3331353338454246344243312F636E782E786D6CD593CD6EC32010845F0571AD6CE3D48AD20813A9873E410FBD12D82434182C7EAAE6EDBB2424CD25871E7B41D6EC30B3FA84F9E67BB2E40B4234DE8DB46F1925E094D7C6ED479AD3AE5951B2113C
310
789FEE6C943839C1488B4C05DF079FE72A69D8C96C13AAD6B8631503449F83828872B949AC57D26200B826A308D316B4064D6E46FCDA41C05550DC9E483A00797BFD207EFB092A45DE9514C1BBD22178396BD39D891265658C238DEA00936C654E5E433CB65A26D9F6EDB5EBC14EBF49A45CB856E66048291F6939A9A81BB5
310
C8917738143CA680F4AA299D66A042CEB3354A2684DC9D8D178FE0D9B8B41CAAD720F880EE7EF93C0C18769E099ECC04D5A102C8049A8A05632F4DDF376CF1DE0F6BB65C2F8627B65A33C6BB62177CEBBDAD973006829F89F22E814B54F4BC2BE347F8AA8F681390B50FA73F804400B5F542E796F19FF974E7F78DB802FE05
310
E207504B0304140006080800CC70623B16AB87BA640500003C100000340000006662782F39464131463745442D413632322D343644302D413938332D3331353338454246344243312F6F626A656374732E786D6CAD575B6FA33818FD2B887DE6924B3BED8A326A92B68A663B534DD4D13E548A0C38942D60649B369D5FBFC7
310
600890A493BDE42160637FD7F31D7FF63E6FB3D478A55C242CBF3247B66B1A340F5994E4F19559CA8D75611A9F7D8F33263BCB4C232719BD32D5B4E97B316765A1A722BA21652A07B3B7B33F0D11D29C9A46981221AE4C113ED38CD8A4942CA2E2C58E882476BCD9DA23BB5ED8171B73523C0F841684D35CC252CCE79062D4
310
468DFA43D7747CCF51DF7D4FFDEB5593E3AB9CCA9FBEFE241792E4E19EB28198C968BAB8199F5D5A67D3E9C49A9E8F47D6EC76B6B0469F26EEFC7C3EBFBCBEB98462213924694B38DD98FE1D62C393D073EA4FADC5DAF04326852CCF6958F90F0F2B9BB5C48816348F90C7840A68EB78EDF68723159BCEE7891A6B95DDE9D3
310
BCEAEEE8086A6C6F9E5D4B59F0175C10A7A0820BAA5055C7473B5AE3CFDD452D602CD5DF12616444529E90D448938013FE6EFA58AA96F85E4F8C42275708571E98FE6827AF6B2B4AE3D7D83D64E5A64C53054DD3AF90BD06FEA9149565C94FCA0F6B834DC85599E4F2423B24DF0B6AFA979E534DFA9E7A4CC6FA631D486393
310
921829879BF5D781A373557BCB85E97FB90DB62B558F8795179C15944B051F40AB495CF35451D26A4727654E6D8033BD98EF82F21D91FF8AF2DD9982BCF1643BDD4EB516C9492E368C67C88DED563FC36D5EACF66DFF057C3658BDBFA69DF9578B3DA735B64F18C7F20770A9D45CFCF7FCF563D6456A277DBEF78A02637CA2
310
43B90A490AEAB94F72244481D24819A6C0E59B606BFA4B3025981DBB48EAB701D97BF19C577CC77F2D1B6C55A9EF3C732474C0B727303F625995056C3B02963D9EAC146BE78EC5FCEC7FA999EBC5EACBAAE41B12D27B4D2C0BBA49F244E2ECDC81B76B502F113D8F5EE8FB1BE3111CDD4FC2AA9B844CAB1288B68AB90A7CDC
310
1C166AB0D3DC5310625FCC14E779BFD0709F8890A629C9292B1B2DED31A4B0DA928CEE135085754027E3018A397D4D5427D15BD1330B677DC8934285AC3DF45A9EB68FF8F2B8FC0A509AFEECFD0FF2DE25CC6047F7214B195F07EFEB9A094D800F7BFAE8FED187B78EA8A3A400F115961BCAD1215E47C966530AF0EE8128FE
310
58CEBB996A8964FFA529A046635D9353B0336A8F700DDF46271A024E70B0B37C9DE01847591E54DED53D54202AB947E4076556AC49C6CA5C9E1226B7F1A7B1BE15DEED62C41B91E1B3E9AFAAA735036547343A925075041DF0A9979E893B391F8FCFA6967B3EFB644DCF6E5CEBFAE272625DCC6FAF3FB93793C5F90CE1EF57
310
407342756B10D1C489E8953CD1617E5CEECAD6F4EF8914CE5D5D504E5C3F1F9736DA62CFC11E00BCDDB8CC8A9466349744C1F75EBDA4DF09BA8A9E8C7A7E9991989E20E5DBDD6A6003664ED8F7A04A8DBE0DF6EAD9B9AA858342E47399053949D2C146EDB85DE4B176BB0965FBAC19BD19AA918E27FA50C1D22402E144464C
310
59462568E704B6E71915404CB72B8FF4EDE184DDAF753F284990D2C6926782963815403548A70C657FDEF80D2D9CEAA2AE4C1C76F60BFE74219A06527D6582DF6412526107381E55E353090704D085B52408D0933C4ED159D79BDA71BB4BC506F4831350EB6F979CD22D69BF7AC49B91A2C0A9DDA3D5CA36AD20FC478E37E6
310
1844E2352865EBCB6EA275A652E3836BE04EFB400BF1A2556F515F1FBB35B2AB35BD889C744FFA1004B5544B121E57F70215746DD2F5E2C1412B602CBF19455AC6C8E5E9922C4E01E65215385004546899059180EAFCF7A707CE7017CD8CDB0410789AB32C63B91E5CEBBBACB17AC6CD347A022D5075FD106377347AAABA7E
310
7D11590744509B44E205134DC1290F06580320F78E537D3D73540E06CB970B431F185308AD40BBD794D6D77003C5A36E8EAA54BA64597CD8F83BD552A080A365F7FF06504B0304140006080000CC70623B000000000000000000000000350000006662782F39464131463745442D413632322D343644302D413938332D3331
310
353338454246344243312F76657274696365732E62696E504B0304140006080800CC70623BF270F1330600000004000000360000006662782F39464131463745442D413632322D343644302D413938332D3331353338454246344243312F747269616E676C65732E62696E636660600000504B0304140006080000CC70623B
310
000000000000000000000000370000006662782F39464131463745442D413632322D343644302D413938332D3331353338454246344243312F617474726962757465732E62696E504B0304140006080800CC70623B08DA0BD19000000041010000360000006662782F39464131463745442D413632322D343644302D413938
310
332D3331353338454246344243312F6469726563746F72792E786D6C858F410AC3201045AF22B36F53E9A60B35CBEEBAE80D244E44489C6234F4F835464A48035D0DF398FF9F8AF63D0E6CC63039F212F8F9020C7D47C6792B21C5FE7403D62A1188E2E60C98D7234A5830286103A55745067B9D86B8A3CF9C7F90C11DE607
310
FB144396D7B6A82D282E9A152AD114D5EF2CB866EEE831B8EEA07A7BB5A8D7D61A2BAAEB7FD5F70921FF497D00504B0304140006080800CC70623B0D6EF93BFE000000A00100003B0000006662782F39464131463745442D413632322D343644302D413938332D3331353338454246344243312F7265736F75726365732F63
310
6F72652E786D6C8D50596E833010BD0A9ADFCA60B334011947A8694ED00B586642AC041B79A97AFC9A40A5F6AF3F33A3B7689E1E3F7DCD8FEC139DD7D6F4C0720A191A65476DA61E62B892236427C19DB5E1970C322367EC618541F0C9D9B8EC90B226A009093576C41D94DE63804C3DD2D18357379C652E63480A7FCF17A9
310
EE72C29CE5894E3AC17D702940B63D59270887DE46A7D0F36263058F518FBB468FE9A7BE6A7420864373B8D4873369AA8691FA421B3294352543C5CAF65C0F6FEF43CB8BD52C78D0F34F46E550061C419494B6843142CB0F5677F4B52BEB177AEC28E5C52AFF638ACBF84F53D42654E51E77B379102C05791282176B5F693D
310
CB4C7BED567C03504B010214000A0000080000CC70623B3DEE336E79000000790000001B00000000000000000000000000000000006175746F6465736B2D64657369676E2D7061636B6167652E786D6C504B01021400140006080800CC70623BD486FD9CA0000000F40000001300000000000000000000000000B20000005B
310
436F6E74656E745F54797065735D2E786D6C504B01021400140006080800CC70623B1EC5D7A3EB0000007C010000080000000000000000000000000083010000636F72652E786D6C504B01021400140006080800CC70623B55019EA25F0000007C000000070000000000000000000000000094020000636E782E786D6C504B
310
01021400140006080800CC70623B8C9102E971010000D40300000C00000000000000000000000000180300006662782F636F72652E786D6C504B01021400140006080800CC70623BFFEA85907E0000009D0000000B00000000000000000000000000B30400006662782F636E782E786D6C504B01021400140006080800CC70
310
623B4FEEA4082C0100001202000031000000000000000000000000005A0500006662782F39464131463745442D413632322D343644302D413938332D3331353338454246344243312F636F72652E786D6C504B01021400140006080800CC70623BAD7543B64E010000330300003000000000000000000000000000D5060000
310
6662782F39464131463745442D413632322D343644302D413938332D3331353338454246344243312F636E782E786D6C504B01021400140006080800CC70623B16AB87BA640500003C1000003400000000000000000000000000710800006662782F39464131463745442D413632322D343644302D413938332D3331353338
310
454246344243312F6F626A656374732E786D6C504B01021400140006080000CC70623B0000000000000000000000003500000000000000000000000000270E00006662782F39464131463745442D413632322D343644302D413938332D3331353338454246344243312F76657274696365732E62696E504B01021400140006
310
080800CC70623BF270F133060000000400000036000000000000000000000000007A0E00006662782F39464131463745442D413632322D343644302D413938332D3331353338454246344243312F747269616E676C65732E62696E504B01021400140006080000CC70623B0000000000000000000000003700000000000000
310
000000000000D40E00006662782F39464131463745442D413632322D343644302D413938332D3331353338454246344243312F617474726962757465732E62696E504B01021400140006080800CC70623B08DA0BD190000000410100003600000000000000000000000000290F00006662782F39464131463745442D413632
310
322D343644302D413938332D3331353338454246344243312F6469726563746F72792E786D6C504B01021400140006080800CC70623B0D6EF93BFE000000A00100003B000000000000000000000000000D1000006662782F39464131463745442D413632322D343644302D413938332D3331353338454246344243312F7265
310
736F75726365732F636F72652E786D6C504B0506000000000E000E0080040000641100000000
  0
XRECORD
  5
175
102
{ACAD_REACTORS
330
173
102
}
330
173
100
AcDbXrecord
280
     1
270
     1
271
     1
  0
XRECORD
  5
174
102
{ACAD_REACTORS
330
173
102
}
330
173
100
AcDbXrecord
280
     1
270
     1
271
     1
  0
XRECORD
  5
1FB
102
{ACAD_REACTORS
330
173
102
}
330
173
100
AcDbXrecord
280
     1
 70
     0
 90
1673772943
  1
ECE7A1D2-D628-4531-984C-D00F80459256
310
504B03040A0000080000CC70623B3DEE336E79000000790000001B0000006175746F6465736B2D64657369676E2D7061636B6167652E786D6C3C3F786D6C2076657273696F6E3D22312E302220656E636F64696E673D227574662D3822203F3E3C666F726D6174733E3C666F726D61743E687474703A2F2F736368656D612E
310
6175746F6465736B2E636F6D2F64657369676E2D7061636B6167652F323030393C2F666F726D61743E3C2F666F726D6174733E504B0304140006080800CC70623BD486FD9CA0000000F4000000130000005B436F6E74656E745F54797065735D2E786D6C7D8EC10E82300C865F65E91D8A1E8C310C0EEA1BF002731658846E
310
D98AC1B77784ABF1D8FE5FBFBF75BBCE937A534CCEB38643598122B6FEE978D0B0485F9C41B54DDD7D022595594E1A469170414C76A4D9A4D207E29CF43ECE46F218070CC6BECC4078ACAA135ACF422C856C0E68EA1BF5669944DDD7BCDE7B1F8E415D77AECB980613C2E4AC91FC167A2B244592486606FC29C8FD7F045B9A
310
EF7053A7E60B504B0304140006080800CC70623BD9DDAED0EC0000007C01000008000000636F72652E786D6C8D90416EC3201045AF82665B61836D9CD8C2444DD39CA01740405C94182C03558F5F9C3852BBEB6A467FFE9B197D7EF89E6EE8CB2CC17A37002D0820E394D7D68D03A478C17B4007C117EFE32F1B20272733C0
310
2A83E0E3E2D3BC49CABB685CCCAAF3DA6CA20CC14440EA969B0182FA34932C648AD911AEC52CD5558EA6A0CF2EC329598D1E47ACCEFBECC59A050463A7EA5833865FEBDD0E37353BE3EE8DBDE3F6786A48D375FBF6CC78B9C282473B3DEFABC5C86834888A900E538A49F5419B9EB47DD5BC907D4F082F57FB1F28CDFA9F50
310
B22ED6D5F6EE030B20687EE43E10BC5CB3C8E51E54AE6B6EE207504B0304140006080800CC70623B55019EA25F0000007C00000007000000636E782E786D6C4DCB3B0E80201045D1AD90E915ED2CF8AC45050C11660C8261F98AB1B07AC9C97D42D718D865D3E909258CFD00CCE24AC6E326A164D74DC0B4128928FF326038
310
472BA13128B1252AC747C6BAB984FC68F0B87FE8960A5C09FE86CFB69FBA01504B0304140006080800CC70623BA24EB22D72010000D40300000C0000006662782F636F72652E786D6CC5535B6E833010BC8AE5DF0A6C5E49888CA3A6694ED00B38E05014B091B1518EDFE511A5A9D228FD2A1F60CDEC7A67C6986DCE4D8D7A
310
69BA4AAB0C073EC548AA5C17952A33ECECD15B61B4E1CC686DBF9561A44423333CC098B3D268D7CE50AE9595CA02AA74216750749DB418E5352C32DCE59FB211BE70162ABA93DF8AFC244AE9073ED050C759670D0840D390E18DF9F1706664C23973AE2A66B62A605A75ACA4C13C4976E1364A12EF355A2EBD384AF65EFA96
310
BC7B8BED2EA6719AAE16FB8491A199335B351775B991C2CA02F390D2D40B028F861F41BCA68B7518BFD0D59A524686F29B26D7164F36B94AD9289CE54E6D1DE6010819891F6E21228B3AD1831EC219194284CF98F06DD01008846CC5A1BEF83801D4CBDC6A1303536877A57A513B0953A94FC707FDBE6064EA84A9E3E6E0FA
310
EE8CF0E9198F7784A316AA0413C2C2F2E0ECA0934D1AE6D05A69BCDE9E91D2A611F573361E38FC1375157F5752AE6B6DFE4B11990F88CCBF0719EE23FF02504B0304140006080800CC70623B408A7D3B7C0000009D0000000B0000006662782F636E782E786D6C4DCCD10A83201886E15B91FFDC552A92A0064DBC8F581632
310
D3703A76F9ABD1C18E3E78F878E5F0D9027ABBFCF2292AE86E2D20171F69F6715550CB827B40839639A5F2770314A7CD293819B45C73AAFB45B35BA61ACAA1C1C7E7855C58C15BC331339661262CC762340413D68D77DA5B42298546CBE6573AF60CEB2F504B0304140006080800CC70623B449FB9BD290100001202000031
310
0000006662782F36394639363044362D344446342D343946362D394244322D3234314243333846323333332F636F72652E786D6C8D515B6EC32010BC0AE22B55850D98B871848994463E412FE002495162B07854397EA176A4F62F3F2C9A9D991D587EB84F37F0AD7D30CEF6905418026DA553C65E7A98E219ED203808EE9D
310
8B7F6810D871D23D2C3014FCE25D9A57483A1BB58D19B54EE9151C43D0110279CB971E06F9A5A7B11A53CC8C70ADE6515EC78BAE4895DB992778883E0700CB907242D17643D7E2538BD869608875438BBAE38922CAC8F1BDD90DB4691A5E2F42C153326A951B95E398B3D1FE599322163C9AE9115F7A3D46ADA0A018778810
310
84E907617BDCEE297BC5BB3DC6BC2EF47FA234AB2745C9D8D8D035EE220B50105E2F0DC1954B9FB747187D9F9D8FA0CCDB042D5FA0C015C65B42DF78BD10F3F3B363CB56C7109DCFDFBBB97E662ED92EB62D13BC2E1BCAE5777DB9966D8A1F504B0304140006080800CC70623BAD7543B64E01000033030000300000006662
310
782F36394639363044362D344446342D343946362D394244322D3234314243333846323333332F636E782E786D6CD593CD6EC32010845F0571AD6CE3D48AD20813A9873E410FBD12D82434182C7EAAE6EDBB2424CD25871E7B41D6EC30B3FA84F9E67BB2E40B4234DE8DB46F1925E094D7C6ED479AD3AE5951B2113C789FEE
310
6C943839C1488B4C05DF079FE72A69D8C96C13AAD6B8631503449F83828872B949AC57D26200B826A308D316B4064D6E46FCDA41C05550DC9E483A00797BFD207EFB092A45DE9514C1BBD22178396BD39D891265658C238DEA00936C654E5E433CB65A26D9F6EDB5EBC14EBF49A45CB856E66048291F6939A9A81BB5C89177
310
38143CA680F4AA299D66A042CEB3354A2684DC9D8D178FE0D9B8B41CAAD720F880EE7EF93C0C18769E099ECC04D5A102C8049A8A05632F4DDF376CF1DE0F6BB65C2F8627B65A33C6BB62177CEBBDAD973006829F89F22E814B54F4BC2BE347F8AA8F681390B50FA73F804400B5F542E796F19FF974E7F78DB802FE05E20750
310
4B0304140006080800CC70623B8D05915C650500003B100000340000006662782F36394639363044362D344446342D343946362D394244322D3234314243333846323333332F6F626A656374732E786D6CAD575B6FA33814FE2B887D06429276DA1565D4266D158D3A339A6846FB502932E050B66023DB74D2FDF5FB190C01
310
9276B2973C046C8ECFF53B17071F77456EBD502133CEAE6CDF9DD81665314F32965ED995DA3A17B6F5310C04E7AA47665B8C14F4CAD6DB7618A48257A5D94AE89654B91AEDDEDDFC61C998326A5B714EA4BCB265FC440BE2924AF184CA6737218AB8E976E7FA6E4338649B0A523E8D98964450A6A029F619B8588D52FE7039
310
B1BD30F0F4F730D0FF866AF6369557DB33949F31A9088B0F848DD8CCFCF9F2767A76E99CCDE733677E3EF59D9BBB9BA5E37F984D16E78BC5E5F5ED25044B25C0C96822E8D60EEFE11B91C581D77CEA34368A1F5329E68CD1B8B61F16D63A1B8E092D294B10C78C4A48EB593D192E7DED9BDEE7995E1B91FDEDD3ACEA9FE831
310
6A756F9F7D4D79F4274C90A7A04248AA51D5F8C718DAE06FB2F75AC4796EBE65D22A88A22223B995679120E2D50E41AA49C260C046A35368846B0BECD0DFF3EBEB8AD4F835768F69B9ADF25C43D30E6B646F807FAA64AD59F61715C7A54127C4AACA98BA3006A9D792DAE165E0D59B61A01FB3A9F9D838D2DAE62445C86166
310
F37564E842E7DE6A69879FEEA2DD5AE7E371E1A5E025154AC307D06A03D73EB5978C58FFA4C8E9033066E0F3BD53BEC1F39F91BE7B55103791EDE6BBB991A2046172CB4581D8B893FA674DDA17A77B3B7C413D1B511FD2743BFF8A38F03A658705E3ADF8015C3A3417FF3D7E439FF591DA0B5F18BC20C1B8981957AE6392A3
310
F43C640C01D1A0B4728E2DD4F26DB4B3C3152A252A3B4E913CEC1C72F012782FF88EFF8637AA552DBEF76408E8A8DE9E50F9E1CB3A2DA0DB1B6039A893B56063DC5B3E3FFB5F72E67AB9FEB4AEC496C4F4C1149625DD662C53E89D7BF0F6151A046260D1337DFDC94502430F83B0EE07A130A224BCAD7DAE1D9FB6CD422FF6
310
920702629C4BB9AE79C12F243C6432A6794E18E5552BA56B431AAB5D91317302B2B071E86C3A42B1A02F999E24061403B5D0EB639195DA655DD3EBEAB4FB862DDF579F014AD0E73C22F99E28DA57FB98E75C6CA2D74D53086D600F4786E0FE3144B771A8A7B900F03594DB8A633CBC49B2EDB69228BB479CF863B5E807AAAB
310
23872F6DFEB4129B949CA33823F58830E86D65621E10047D9DB34D862E8EAC3C2ABC2F7B2C40D67CDFE01F5545B92105AF983AC54D93D69E56FB8E797F88913F898A9FEC705D3F9D1B54EC8426FB500D40A03BD0119B06E1B95DDC7EB8F6975367793EBD70E66733DFB9BC982F9CE564727731999F5D4ECFCE3B8D6A4DC2A0
310
6D50FD148437D110834A64C6CDDF57FBACB5C307A2A477DFE4939736CFEF2B175371E0E10CF0DD1D5C15654E0BCA14D1E87DD02FF93782A162C0A3D95F1524A52770F972BF1EE9809D13CE7DD599467F8ECE9ADD85CE85A34CD45355448C64F9E8A031DC2D596ACC6E5DD93D9B82DE2EF5CAF81363A8E47996A0DE24564A79
310
4115AACE09C55E14540231FDA13C319787134EBF34E3A022514E5B4D9E0826E25C02D5805B15ABE1BEF51B26383D445DD9E875EE33FE4C22DA16427D65A3BCA92CA6D28DD01DF5DC53330704308475351050232CCD31583787BA75774AFB06E5070DD0C8EF484E19968C5D83BA5B90B244D31E54D55A372320FE4786B7EA58
310
44E135AA5467CB7EA333A61683CC6A8C3257034C10CF46F40EF9F5BE59BE5BD30C3C72D235E95D10345C1D45445A5F0BB47E46A5EBE5570F9380B5FA629579952296A773720405982B9DE04011506178964401AA8BDF1FBF0A8EAB6861DD6580C0E38217056766716DAEB2D6FA0917D3E4116581EADB879C4E7CFFB11EFACD
310
3D641311495D92C8676CB409A72D18610D803CE8A626049E8EC1887CB5B44CC39883690DDA8399B4B9855B481E7D71D4A9D22F96E5BB73BF5793020C02137BF837504B0304140006080000CC70623B000000000000000000000000350000006662782F36394639363044362D344446342D343946362D394244322D32343142
310
43333846323333332F76657274696365732E62696E504B0304140006080800CC70623BF270F1330600000004000000360000006662782F36394639363044362D344446342D343946362D394244322D3234314243333846323333332F747269616E676C65732E62696E636660600000504B0304140006080000CC70623B0000
310
00000000000000000000370000006662782F36394639363044362D344446342D343946362D394244322D3234314243333846323333332F617474726962757465732E62696E504B0304140006080800CC70623B08DA0BD19000000041010000360000006662782F36394639363044362D344446342D343946362D394244322D
310
3234314243333846323333332F6469726563746F72792E786D6C858F410AC3201045AF22B36F53E9A60B35CBEEBAE80D244E44489C6234F4F835464A48035D0DF398FF9F8AF63D0E6CC63039F212F8F9020C7D47C6792B21C5FE7403D62A1188E2E60C98D7234A5830286103A55745067B9D86B8A3CF9C7F90C11DE607FB14
310
4396D7B6A82D282E9A152AD114D5EF2CB866EEE831B8EEA07A7BB5A8D7D61A2BAAEB7FD5F70921FF497D00504B0304140006080800CC70623BCA768048FE000000A00100003B0000006662782F36394639363044362D344446342D343946362D394244322D3234314243333846323333332F7265736F75726365732F636F72
310
652E786D6C8D50596E833010BD0A9ADFCA60D600328E9AA639412F609909B1126CE4A5EAF16B0295DABFFECC8CDEA2797AECF8353F924FB44E193D409E5248504B332A3D0D10FC95B4901C39B3C6F85F3248B49871801506CE266BC2B243D2688FDA47549B11775038871E12F988C7004EDE7016A9083E2ADC3D5D84BC8B09
310
D33C8D74D471E6BC8D0192EDC93A815B742658898E651BCB59086ADC356A8C3FD555A1055ED7E7E254D615792D0F075295F585746FF53B694EE78A565DD736979A65AB9933AFE69F8CD2A2F038022F28ED489E135A7CE4554F9BBEA85E68DB53CAB255FEC71496F19FA6A0B42F8B3DEE6673C0F318E4497096AD7DC5F52C33
310
EEB55BFE0D504B010214000A0000080000CC70623B3DEE336E79000000790000001B00000000000000000000000000000000006175746F6465736B2D64657369676E2D7061636B6167652E786D6C504B01021400140006080800CC70623BD486FD9CA0000000F40000001300000000000000000000000000B20000005B436F
310
6E74656E745F54797065735D2E786D6C504B01021400140006080800CC70623BD9DDAED0EC0000007C010000080000000000000000000000000083010000636F72652E786D6C504B01021400140006080800CC70623B55019EA25F0000007C000000070000000000000000000000000095020000636E782E786D6C504B0102
310
1400140006080800CC70623BA24EB22D72010000D40300000C00000000000000000000000000190300006662782F636F72652E786D6C504B01021400140006080800CC70623B408A7D3B7C0000009D0000000B00000000000000000000000000B50400006662782F636E782E786D6C504B01021400140006080800CC70623B
310
449FB9BD290100001202000031000000000000000000000000005A0500006662782F36394639363044362D344446342D343946362D394244322D3234314243333846323333332F636F72652E786D6C504B01021400140006080800CC70623BAD7543B64E010000330300003000000000000000000000000000D20600006662
310
782F36394639363044362D344446342D343946362D394244322D3234314243333846323333332F636E782E786D6C504B01021400140006080800CC70623B8D05915C650500003B10000034000000000000000000000000006E0800006662782F36394639363044362D344446342D343946362D394244322D32343142433338
310
46323333332F6F626A656374732E786D6C504B01021400140006080000CC70623B0000000000000000000000003500000000000000000000000000250E00006662782F36394639363044362D344446342D343946362D394244322D3234314243333846323333332F76657274696365732E62696E504B010214001400060808
310
00CC70623BF270F13306000000040000003600000000000000000000000000780E00006662782F36394639363044362D344446342D343946362D394244322D3234314243333846323333332F747269616E676C65732E62696E504B01021400140006080000CC70623B00000000000000000000000037000000000000000000
310
00000000D20E00006662782F36394639363044362D344446342D343946362D394244322D3234314243333846323333332F617474726962757465732E62696E504B01021400140006080800CC70623B08DA0BD190000000410100003600000000000000000000000000270F00006662782F36394639363044362D344446342D
310
343946362D394244322D3234314243333846323333332F6469726563746F72792E786D6C504B01021400140006080800CC70623BCA768048FE000000A00100003B000000000000000000000000000B1000006662782F36394639363044362D344446342D343946362D394244322D3234314243333846323333332F7265736F
310
75726365732F636F72652E786D6C504B0506000000000E000E0080040000621100000000
  0
XRECORD
  5
176
102
{ACAD_REACTORS
330
173
102
}
330
173
100
AcDbXrecord
280
     1
270
     1
271
     1
  0
XRECORD
  5
177
102
{ACAD_REACTORS
330
173
102
}
330
173
100
AcDbXrecord
280
     1
270
     1
271
     1
  0
XRECORD
  5
6A8
102
{ACAD_REACTORS
330
234
102
}
330
234
100
AcDbXrecord
280
     1
102
DISPLAYNAME
  1
Metric50
102
FLAGS
 90
        0
  0
CELLSTYLEMAP
  5
66E
102
{ACAD_REACTORS
330
162
102
}
330
162
100
AcDbCellStyleMap
 90
        3
300
CELLSTYLE
  1
TABLEFORMAT_BEGIN
 90
        5
170
     1
 91
        0
 92
    32768
 62
   257
 93
        1
300
CONTENTFORMAT
  1
CONTENTFORMAT_BEGIN
 90
        0
 91
        0
 92
      512
 93
        0
300

 40
0.0
140
1.0
 94
        5
 62
     0
340
11
144
6.0
309
CONTENTFORMAT_END
171
     1
301
MARGIN
  1
CELLMARGIN_BEGIN
 40
1.5
 40
1.5
 40
1.5
 40
1.5
 40
4.5
 40
4.5
309
CELLMARGIN_END
 94
        6
 95
        1
302
GRIDFORMAT
  1
GRIDFORMAT_BEGIN
 90
        0
 91
        1
 62
     0
 92
       -2
340
14
 93
        0
 40
1.125
309
GRIDFORMAT_END
 95
        2
302
GRIDFORMAT
  1
GRIDFORMAT_BEGIN
 90
        0
 91
        1
 62
     0
 92
       -2
340
14
 93
        0
 40
1.125
309
GRIDFORMAT_END
 95
        4
302
GRIDFORMAT
  1
GRIDFORMAT_BEGIN
 90
        0
 91
        1
 62
     0
 92
       -2
340
14
 93
        0
 40
1.125
309
GRIDFORMAT_END
 95
        8
302
GRIDFORMAT
  1
GRIDFORMAT_BEGIN
 90
        0
 91
        1
 62
     0
 92
       -2
340
14
 93
        0
 40
1.125
309
GRIDFORMAT_END
 95
       16
302
GRIDFORMAT
  1
GRIDFORMAT_BEGIN
 90
        0
 91
        1
 62
     0
 92
       -2
340
14
 93
        0
 40
1.125
309
GRIDFORMAT_END
 95
       32
302
GRIDFORMAT
  1
GRIDFORMAT_BEGIN
 90
        0
 91
        1
 62
     0
 92
       -2
340
14
 93
        0
 40
1.125
309
GRIDFORMAT_END
309
TABLEFORMAT_END
  1
CELLSTYLE_BEGIN
 90
        1
 91
        1
300
_TITLE
309
CELLSTYLE_END
300
CELLSTYLE
  1
TABLEFORMAT_BEGIN
 90
        5
170
     1
 91
        0
 92
        0
 62
   257
 93
        1
300
CONTENTFORMAT
  1
CONTENTFORMAT_BEGIN
 90
        0
 91
        0
 92
      512
 93
        0
300

 40
0.0
140
1.0
 94
        5
 62
     0
340
11
144
4.5
309
CONTENTFORMAT_END
171
     1
301
MARGIN
  1
CELLMARGIN_BEGIN
 40
1.5
 40
1.5
 40
1.5
 40
1.5
 40
4.5
 40
4.5
309
CELLMARGIN_END
 94
        6
 95
        1
302
GRIDFORMAT
  1
GRIDFORMAT_BEGIN
 90
        0
 91
        1
 62
     0
 92
       -2
340
14
 93
        0
 40
1.125
309
GRIDFORMAT_END
 95
        2
302
GRIDFORMAT
  1
GRIDFORMAT_BEGIN
 90
        0
 91
        1
 62
     0
 92
       -2
340
14
 93
        0
 40
1.125
309
GRIDFORMAT_END
 95
        4
302
GRIDFORMAT
  1
GRIDFORMAT_BEGIN
 90
        0
 91
        1
 62
     0
 92
       -2
340
14
 93
        0
 40
1.125
309
GRIDFORMAT_END
 95
        8
302
GRIDFORMAT
  1
GRIDFORMAT_BEGIN
 90
        0
 91
        1
 62
     0
 92
       -2
340
14
 93
        0
 40
1.125
309
GRIDFORMAT_END
 95
       16
302
GRIDFORMAT
  1
GRIDFORMAT_BEGIN
 90
        0
 91
        1
 62
     0
 92
       -2
340
14
 93
        0
 40
1.125
309
GRIDFORMAT_END
 95
       32
302
GRIDFORMAT
  1
GRIDFORMAT_BEGIN
 90
        0
 91
        1
 62
     0
 92
       -2
340
14
 93
        0
 40
1.125
309
GRIDFORMAT_END
309
TABLEFORMAT_END
  1
CELLSTYLE_BEGIN
 90
        2
 91
        1
300
_HEADER
309
CELLSTYLE_END
300
CELLSTYLE
  1
TABLEFORMAT_BEGIN
 90
        5
170
     1
 91
        0
 92
        0
 62
   257
 93
        1
300
CONTENTFORMAT
  1
CONTENTFORMAT_BEGIN
 90
        0
 91
        0
 92
      512
 93
        0
300

 40
0.0
140
1.0
 94
        2
 62
     0
340
11
144
4.5
309
CONTENTFORMAT_END
171
     1
301
MARGIN
  1
CELLMARGIN_BEGIN
 40
1.5
 40
1.5
 40
1.5
 40
1.5
 40
4.5
 40
4.5
309
CELLMARGIN_END
 94
        6
 95
        1
302
GRIDFORMAT
  1
GRIDFORMAT_BEGIN
 90
        0
 91
        1
 62
     0
 92
       -2
340
14
 93
        0
 40
1.125
309
GRIDFORMAT_END
 95
        2
302
GRIDFORMAT
  1
GRIDFORMAT_BEGIN
 90
        0
 91
        1
 62
     0
 92
       -2
340
14
 93
        0
 40
1.125
309
GRIDFORMAT_END
 95
        4
302
GRIDFORMAT
  1
GRIDFORMAT_BEGIN
 90
        0
 91
        1
 62
     0
 92
       -2
340
14
 93
        0
 40
1.125
309
GRIDFORMAT_END
 95
        8
302
GRIDFORMAT
  1
GRIDFORMAT_BEGIN
 90
        0
 91
        1
 62
     0
 92
       -2
340
14
 93
        0
 40
1.125
309
GRIDFORMAT_END
 95
       16
302
GRIDFORMAT
  1
GRIDFORMAT_BEGIN
 90
        0
 91
        1
 62
     0
 92
       -2
340
14
 93
        0
 40
1.125
309
GRIDFORMAT_END
 95
       32
302
GRIDFORMAT
  1
GRIDFORMAT_BEGIN
 90
        0
 91
        1
 62
     0
 92
       -2
340
14
 93
        0
 40
1.125
309
GRIDFORMAT_END
309
TABLEFORMAT_END
  1
CELLSTYLE_BEGIN
 90
        3
 91
        2
300
_DATA
309
CELLSTYLE_END
  0
XRECORD
  5
683
102
{ACAD_REACTORS
330
682
102
}
330
682
100
AcDbXrecord
280
     1
102
RTVSPost2010Prop28
280
     1
102
RTVSPost2010PropOp28
 70
     1
102
RTVSPost2010Prop29
280
     1
102
RTVSPost2010PropOp29
 70
     1
102
RTVSPost2010Prop30
280
     0
102
RTVSPost2010PropOp30
 70
     1
102
RTVSPost2010Prop31
280
     0
102
RTVSPost2010PropOp31
 70
     1
102
RTVSPost2010Prop32
280
     0
102
RTVSPost2010PropOp32
 70
     1
102
RTVSPost2010Prop33
280
     0
102
RTVSPost2010PropOp33
 70
     1
102
RTVSPost2010Prop34
280
     0
102
RTVSPost2010PropOp34
 70
     1
102
RTVSPost2010Prop35
280
     0
102
RTVSPost2010PropOp35
 70
     1
102
RTVSPost2010Prop36
280
     0
102
RTVSPost2010PropOp36
 70
     1
102
RTVSPost2010Prop37
 90
       50
102
RTVSPost2010PropOp37
 70
     1
102
RTVSPost2010Prop38
140
0.0
102
RTVSPost2010PropOp38
 70
     1
102
RTVSPost2010Prop39
140
1.0
102
RTVSPost2010PropOp39
 70
     1
102
RTVSPost2010Prop40
 90
        0
102
RTVSPost2010PropOp40
 70
     1
102
RTVSPost2010Prop41ColorIndex
 90
       18
102
RTVSPost2010Prop41ColorRGB
 90
        0
102
RTVSPost2010PropOp41
 70
     1
102
RTVSPost2010Prop42
 90
       50
102
RTVSPost2010PropOp42
 70
     1
102
RTVSPost2010Prop43
 90
        3
102
RTVSPost2010PropOp43
 70
     1
102
RTVSPost2010Prop44ColorIndex
 90
        5
102
RTVSPost2010Prop44ColorRGB
 90
      255
102
RTVSPost2010PropOp44
 70
     1
102
RTVSPost2010Prop45
280
     0
102
RTVSPost2010PropOp45
 70
     1
102
RTVSPost2010Prop46
 90
       50
102
RTVSPost2010PropOp46
 70
     1
102
RTVSPost2010Prop47
 90
       50
102
RTVSPost2010PropOp47
 70
     1
102
RTVSPost2010Prop48
 90
       50
102
RTVSPost2010PropOp48
 70
     1
102
RTVSPost2010Prop49
280
     0
102
RTVSPost2010PropOp49
 70
     1
102
RTVSPost2010Prop50
 90
       50
102
RTVSPost2010PropOp50
 70
     1
102
RTVSPost2010Prop51ColorIndex
 90
      256
102
RTVSPost2010Prop51ColorRGB
 90
-16777216
102
RTVSPost2010PropOp51
 70
     0
102
RTVSPost2010Prop52
140
1.0
102
RTVSPost2010PropOp52
 70
     0
102
RTVSPost2010Prop53
 90
        2
102
RTVSPost2010PropOp53
 70
     1
102
RTVSPost2010Prop54
  1
strokes_ogs.tif
102
RTVSPost2010PropOp54
 70
     1
102
RTVSPost2010Prop55
280
     0
102
RTVSPost2010PropOp55
 70
     1
102
RTVSPost2010Prop56
140
1.0
102
RTVSPost2010PropOp56
 70
     1
102
RTVSPost2010Prop57
140
1.0
102
RTVSPost2010PropOp57
 70
     1
102
RTVSPropertyOp0
 70
     1
102
RTVSPropertyOp1
 70
     1
102
RTVSPropertyOp2
 70
     1
102
RTVSPropertyOp3
 70
     1
102
RTVSPropertyOp4
 70
     1
102
RTVSPropertyOp5
 70
     1
102
RTVSPropertyOp6
 70
     1
102
RTVSPropertyOp7
 70
     1
102
RTVSPropertyOp8
 70
     1
102
RTVSPropertyOp9
 70
     1
102
RTVSPropertyOp10
 70
     1
102
RTVSPropertyOp11
 70
     1
102
RTVSPropertyOp12
 70
     1
102
RTVSPropertyOp13
 70
     1
102
RTVSPropertyOp14
 70
     1
102
RTVSPropertyOp15
 70
     1
102
RTVSPropertyOp16
 70
     1
102
RTVSPropertyOp17
 70
     1
102
RTVSPropertyOp18
 70
     1
102
RTVSPropertyOp19
 70
     1
102
RTVSPropertyOp20
 70
     1
102
RTVSPropertyOp21
 70
     1
102
RTVSPropertyOp22
 70
     1
102
RTVSPropertyOp23
 70
     1
102
RTVSPropertyOp24
 70
     1
102
RTVSPropertyOp25
 70
     1
102
RTVSPropertyOp26
 70
     1
102
RTVSPropertyOp27
 70
     1
102
RTVSPropertyOp28
 70
     1
102
RTVSPropertyOp29
 70
     1
102
RTVSPropertyOp30
 70
     1
102
RTVSPropertyOp31
 70
     1
102
RTVSPropertyOp32
 70
     1
102
RTVSPropertyOp33
 70
     1
102
RTVSPropertyOp34
 70
     1
102
RTVSPropertyOp35
 70
     1
102
RTVSPropertyOp36
 70
     1
102
RTVSPropertyOp37
 70
     1
102
RTVSPropertyOp38
 70
     1
102
RTVSPropertyOp39
 70
     1
102
RTVSPropertyOp40
 70
     1
102
RTVSPropertyOp41
 70
     1
102
RTVSPropertyOp42
 70
     1
102
RTVSPropertyOp43
 70
     1
102
RTVSPropertyOp44
 70
     1
102
RTVSPropertyOp45
 70
     1
102
RTVSPropertyOp46
 70
     1
102
RTVSPropertyOp47
 70
     1
102
RTVSPropertyOp48
 70
     1
102
RTVSPropertyOp49
 70
     1
102
RTVSPropertyOp50
 70
     1
102
RTVSPropertyOp51
 70
     0
102
RTVSPropertyOp52
 70
     0
102
RTVSPropertyOp53
 70
     1
102
RTVSPropertyOp54
 70
     1
102
RTVSPropertyOp55
 70
     1
102
RTVSPropertyOp56
 70
     1
102
RTVSPropertyOp57
 70
     1
102
RTVSPropertyOp58
 70
     1
102
RTVSPropertyOp59
 70
     1
102
RTVSPropertyOp60
 70
     1
102
RTVSPropertyOp61
 70
     1
102
RTVSPropertyOp62
 70
     1
  0
XRECORD
  5
681
102
{ACAD_REACTORS
330
680
102
}
330
680
100
AcDbXrecord
280
     1
102
RTVSPost2010Prop28
280
     0
102
RTVSPost2010PropOp28
 70
     1
102
RTVSPost2010Prop29
280
     1
102
RTVSPost2010PropOp29
 70
     1
102
RTVSPost2010Prop30
280
     1
102
RTVSPost2010PropOp30
 70
     1
102
RTVSPost2010Prop31
280
     0
102
RTVSPost2010PropOp31
 70
     1
102
RTVSPost2010Prop32
280
     0
102
RTVSPost2010PropOp32
 70
     1
102
RTVSPost2010Prop33
280
     0
102
RTVSPost2010PropOp33
 70
     1
102
RTVSPost2010Prop34
280
     0
102
RTVSPost2010PropOp34
 70
     1
102
RTVSPost2010Prop35
280
     0
102
RTVSPost2010PropOp35
 70
     1
102
RTVSPost2010Prop36
280
     0
102
RTVSPost2010PropOp36
 70
     1
102
RTVSPost2010Prop37
 90
       50
102
RTVSPost2010PropOp37
 70
     1
102
RTVSPost2010Prop38
140
0.0
102
RTVSPost2010PropOp38
 70
     1
102
RTVSPost2010Prop39
140
1.0
102
RTVSPost2010PropOp39
 70
     1
102
RTVSPost2010Prop40
 90
        0
102
RTVSPost2010PropOp40
 70
     1
102
RTVSPost2010Prop41ColorIndex
 90
       18
102
RTVSPost2010Prop41ColorRGB
 90
        0
102
RTVSPost2010PropOp41
 70
     1
102
RTVSPost2010Prop42
 90
       50
102
RTVSPost2010PropOp42
 70
     1
102
RTVSPost2010Prop43
 90
        3
102
RTVSPost2010PropOp43
 70
     1
102
RTVSPost2010Prop44ColorIndex
 90
        5
102
RTVSPost2010Prop44ColorRGB
 90
      255
102
RTVSPost2010PropOp44
 70
     1
102
RTVSPost2010Prop45
280
     0
102
RTVSPost2010PropOp45
 70
     1
102
RTVSPost2010Prop46
 90
       50
102
RTVSPost2010PropOp46
 70
     1
102
RTVSPost2010Prop47
 90
       50
102
RTVSPost2010PropOp47
 70
     1
102
RTVSPost2010Prop48
 90
       50
102
RTVSPost2010PropOp48
 70
     1
102
RTVSPost2010Prop49
280
     0
102
RTVSPost2010PropOp49
 70
     1
102
RTVSPost2010Prop50
 90
       50
102
RTVSPost2010PropOp50
 70
     1
102
RTVSPost2010Prop51ColorIndex
 90
      256
102
RTVSPost2010Prop51ColorRGB
 90
-16777216
102
RTVSPost2010PropOp51
 70
     0
102
RTVSPost2010Prop52
140
1.0
102
RTVSPost2010PropOp52
 70
     0
102
RTVSPost2010Prop53
 90
        2
102
RTVSPost2010PropOp53
 70
     1
102
RTVSPost2010Prop54
  1
strokes_ogs.tif
102
RTVSPost2010PropOp54
 70
     1
102
RTVSPost2010Prop55
280
     0
102
RTVSPost2010PropOp55
 70
     1
102
RTVSPost2010Prop56
140
1.0
102
RTVSPost2010PropOp56
 70
     1
102
RTVSPost2010Prop57
140
1.0
102
RTVSPost2010PropOp57
 70
     1
102
RTVSPropertyOp0
 70
     1
102
RTVSPropertyOp1
 70
     1
102
RTVSPropertyOp2
 70
     1
102
RTVSPropertyOp3
 70
     1
102
RTVSPropertyOp4
 70
     1
102
RTVSPropertyOp5
 70
     1
102
RTVSPropertyOp6
 70
     1
102
RTVSPropertyOp7
 70
     1
102
RTVSPropertyOp8
 70
     1
102
RTVSPropertyOp9
 70
     1
102
RTVSPropertyOp10
 70
     1
102
RTVSPropertyOp11
 70
     1
102
RTVSPropertyOp12
 70
     1
102
RTVSPropertyOp13
 70
     1
102
RTVSPropertyOp14
 70
     1
102
RTVSPropertyOp15
 70
     1
102
RTVSPropertyOp16
 70
     1
102
RTVSPropertyOp17
 70
     1
102
RTVSPropertyOp18
 70
     1
102
RTVSPropertyOp19
 70
     1
102
RTVSPropertyOp20
 70
     1
102
RTVSPropertyOp21
 70
     1
102
RTVSPropertyOp22
 70
     1
102
RTVSPropertyOp23
 70
     1
102
RTVSPropertyOp24
 70
     1
102
RTVSPropertyOp25
 70
     1
102
RTVSPropertyOp26
 70
     1
102
RTVSPropertyOp27
 70
     1
102
RTVSPropertyOp28
 70
     1
102
RTVSPropertyOp29
 70
     1
102
RTVSPropertyOp30
 70
     1
102
RTVSPropertyOp31
 70
     1
102
RTVSPropertyOp32
 70
     1
102
RTVSPropertyOp33
 70
     1
102
RTVSPropertyOp34
 70
     1
102
RTVSPropertyOp35
 70
     1
102
RTVSPropertyOp36
 70
     1
102
RTVSPropertyOp37
 70
     1
102
RTVSPropertyOp38
 70
     1
102
RTVSPropertyOp39
 70
     1
102
RTVSPropertyOp40
 70
     1
102
RTVSPropertyOp41
 70
     1
102
RTVSPropertyOp42
 70
     1
102
RTVSPropertyOp43
 70
     1
102
RTVSPropertyOp44
 70
     1
102
RTVSPropertyOp45
 70
     1
102
RTVSPropertyOp46
 70
     1
102
RTVSPropertyOp47
 70
     1
102
RTVSPropertyOp48
 70
     1
102
RTVSPropertyOp49
 70
     1
102
RTVSPropertyOp50
 70
     1
102
RTVSPropertyOp51
 70
     0
102
RTVSPropertyOp52
 70
     0
102
RTVSPropertyOp53
 70
     1
102
RTVSPropertyOp54
 70
     1
102
RTVSPropertyOp55
 70
     1
102
RTVSPropertyOp56
 70
     1
102
RTVSPropertyOp57
 70
     1
102
RTVSPropertyOp58
 70
     1
102
RTVSPropertyOp59
 70
     1
102
RTVSPropertyOp60
 70
     1
102
RTVSPropertyOp61
 70
     1
102
RTVSPropertyOp62
 70
     1
  0
XRECORD
  5
68F
102
{ACAD_REACTORS
330
68E
102
}
330
68E
100
AcDbXrecord
280
     1
102
RTVSPost2010Prop28
280
     0
102
RTVSPost2010PropOp28
 70
     1
102
RTVSPost2010Prop29
280
     1
102
RTVSPost2010PropOp29
 70
     1
102
RTVSPost2010Prop30
280
     1
102
RTVSPost2010PropOp30
 70
     1
102
RTVSPost2010Prop31
280
     0
102
RTVSPost2010PropOp31
 70
     1
102
RTVSPost2010Prop32
280
     0
102
RTVSPost2010PropOp32
 70
     1
102
RTVSPost2010Prop33
280
     0
102
RTVSPost2010PropOp33
 70
     1
102
RTVSPost2010Prop34
280
     0
102
RTVSPost2010PropOp34
 70
     1
102
RTVSPost2010Prop35
280
     0
102
RTVSPost2010PropOp35
 70
     1
102
RTVSPost2010Prop36
280
     0
102
RTVSPost2010PropOp36
 70
     1
102
RTVSPost2010Prop37
 90
       50
102
RTVSPost2010PropOp37
 70
     1
102
RTVSPost2010Prop38
140
0.0
102
RTVSPost2010PropOp38
 70
     1
102
RTVSPost2010Prop39
140
1.0
102
RTVSPost2010PropOp39
 70
     1
102
RTVSPost2010Prop40
 90
        0
102
RTVSPost2010PropOp40
 70
     1
102
RTVSPost2010Prop41ColorIndex
 90
       18
102
RTVSPost2010Prop41ColorRGB
 90
        0
102
RTVSPost2010PropOp41
 70
     1
102
RTVSPost2010Prop42
 90
       50
102
RTVSPost2010PropOp42
 70
     1
102
RTVSPost2010Prop43
 90
        3
102
RTVSPost2010PropOp43
 70
     1
102
RTVSPost2010Prop44ColorIndex
 90
        5
102
RTVSPost2010Prop44ColorRGB
 90
      255
102
RTVSPost2010PropOp44
 70
     1
102
RTVSPost2010Prop45
280
     0
102
RTVSPost2010PropOp45
 70
     1
102
RTVSPost2010Prop46
 90
       50
102
RTVSPost2010PropOp46
 70
     1
102
RTVSPost2010Prop47
 90
       50
102
RTVSPost2010PropOp47
 70
     1
102
RTVSPost2010Prop48
 90
       50
102
RTVSPost2010PropOp48
 70
     1
102
RTVSPost2010Prop49
280
     0
102
RTVSPost2010PropOp49
 70
     1
102
RTVSPost2010Prop50
 90
       50
102
RTVSPost2010PropOp50
 70
     1
102
RTVSPost2010Prop51ColorIndex
 90
      256
102
RTVSPost2010Prop51ColorRGB
 90
-16777216
102
RTVSPost2010PropOp51
 70
     0
102
RTVSPost2010Prop52
140
1.0
102
RTVSPost2010PropOp52
 70
     0
102
RTVSPost2010Prop53
 90
        2
102
RTVSPost2010PropOp53
 70
     1
102
RTVSPost2010Prop54
  1
strokes_ogs.tif
102
RTVSPost2010PropOp54
 70
     1
102
RTVSPost2010Prop55
280
     0
102
RTVSPost2010PropOp55
 70
     1
102
RTVSPost2010Prop56
140
1.0
102
RTVSPost2010PropOp56
 70
     1
102
RTVSPost2010Prop57
140
1.0
102
RTVSPost2010PropOp57
 70
     1
102
RTVSPropertyOp0
 70
     1
102
RTVSPropertyOp1
 70
     1
102
RTVSPropertyOp2
 70
     1
102
RTVSPropertyOp3
 70
     1
102
RTVSPropertyOp4
 70
     1
102
RTVSPropertyOp5
 70
     1
102
RTVSPropertyOp6
 70
     1
102
RTVSPropertyOp7
 70
     1
102
RTVSPropertyOp8
 70
     1
102
RTVSPropertyOp9
 70
     1
102
RTVSPropertyOp10
 70
     1
102
RTVSPropertyOp11
 70
     1
102
RTVSPropertyOp12
 70
     1
102
RTVSPropertyOp13
 70
     1
102
RTVSPropertyOp14
 70
     1
102
RTVSPropertyOp15
 70
     1
102
RTVSPropertyOp16
 70
     1
102
RTVSPropertyOp17
 70
     1
102
RTVSPropertyOp18
 70
     1
102
RTVSPropertyOp19
 70
     1
102
RTVSPropertyOp20
 70
     1
102
RTVSPropertyOp21
 70
     1
102
RTVSPropertyOp22
 70
     1
102
RTVSPropertyOp23
 70
     1
102
RTVSPropertyOp24
 70
     1
102
RTVSPropertyOp25
 70
     1
102
RTVSPropertyOp26
 70
     1
102
RTVSPropertyOp27
 70
     1
102
RTVSPropertyOp28
 70
     1
102
RTVSPropertyOp29
 70
     1
102
RTVSPropertyOp30
 70
     1
102
RTVSPropertyOp31
 70
     1
102
RTVSPropertyOp32
 70
     1
102
RTVSPropertyOp33
 70
     1
102
RTVSPropertyOp34
 70
     1
102
RTVSPropertyOp35
 70
     1
102
RTVSPropertyOp36
 70
     1
102
RTVSPropertyOp37
 70
     1
102
RTVSPropertyOp38
 70
     1
102
RTVSPropertyOp39
 70
     1
102
RTVSPropertyOp40
 70
     1
102
RTVSPropertyOp41
 70
     1
102
RTVSPropertyOp42
 70
     1
102
RTVSPropertyOp43
 70
     1
102
RTVSPropertyOp44
 70
     1
102
RTVSPropertyOp45
 70
     1
102
RTVSPropertyOp46
 70
     1
102
RTVSPropertyOp47
 70
     1
102
RTVSPropertyOp48
 70
     1
102
RTVSPropertyOp49
 70
     1
102
RTVSPropertyOp50
 70
     1
102
RTVSPropertyOp51
 70
     0
102
RTVSPropertyOp52
 70
     0
102
RTVSPropertyOp53
 70
     1
102
RTVSPropertyOp54
 70
     1
102
RTVSPropertyOp55
 70
     1
102
RTVSPropertyOp56
 70
     1
102
RTVSPropertyOp57
 70
     1
102
RTVSPropertyOp58
 70
     1
102
RTVSPropertyOp59
 70
     1
102
RTVSPropertyOp60
 70
     1
102
RTVSPropertyOp61
 70
     1
102
RTVSPropertyOp62
 70
     1
  0
XRECORD
  5
697
102
{ACAD_REACTORS
330
696
102
}
330
696
100
AcDbXrecord
280
     1
102
RTVSPost2010Prop28
280
     0
102
RTVSPost2010PropOp28
 70
     1
102
RTVSPost2010Prop29
280
     1
102
RTVSPost2010PropOp29
 70
     1
102
RTVSPost2010Prop30
280
     1
102
RTVSPost2010PropOp30
 70
     1
102
RTVSPost2010Prop31
280
     0
102
RTVSPost2010PropOp31
 70
     1
102
RTVSPost2010Prop32
280
     0
102
RTVSPost2010PropOp32
 70
     1
102
RTVSPost2010Prop33
280
     0
102
RTVSPost2010PropOp33
 70
     1
102
RTVSPost2010Prop34
280
     0
102
RTVSPost2010PropOp34
 70
     1
102
RTVSPost2010Prop35
280
     0
102
RTVSPost2010PropOp35
 70
     1
102
RTVSPost2010Prop36
280
     0
102
RTVSPost2010PropOp36
 70
     1
102
RTVSPost2010Prop37
 90
       50
102
RTVSPost2010PropOp37
 70
     1
102
RTVSPost2010Prop38
140
0.0
102
RTVSPost2010PropOp38
 70
     1
102
RTVSPost2010Prop39
140
1.0
102
RTVSPost2010PropOp39
 70
     1
102
RTVSPost2010Prop40
 90
        0
102
RTVSPost2010PropOp40
 70
     1
102
RTVSPost2010Prop41ColorIndex
 90
       18
102
RTVSPost2010Prop41ColorRGB
 90
        0
102
RTVSPost2010PropOp41
 70
     1
102
RTVSPost2010Prop42
 90
       50
102
RTVSPost2010PropOp42
 70
     1
102
RTVSPost2010Prop43
 90
        3
102
RTVSPost2010PropOp43
 70
     1
102
RTVSPost2010Prop44ColorIndex
 90
        5
102
RTVSPost2010Prop44ColorRGB
 90
      255
102
RTVSPost2010PropOp44
 70
     1
102
RTVSPost2010Prop45
280
     0
102
RTVSPost2010PropOp45
 70
     1
102
RTVSPost2010Prop46
 90
       50
102
RTVSPost2010PropOp46
 70
     1
102
RTVSPost2010Prop47
 90
       50
102
RTVSPost2010PropOp47
 70
     1
102
RTVSPost2010Prop48
 90
       50
102
RTVSPost2010PropOp48
 70
     1
102
RTVSPost2010Prop49
280
     0
102
RTVSPost2010PropOp49
 70
     1
102
RTVSPost2010Prop50
 90
       50
102
RTVSPost2010PropOp50
 70
     1
102
RTVSPost2010Prop51ColorIndex
 90
      256
102
RTVSPost2010Prop51ColorRGB
 90
-16777216
102
RTVSPost2010PropOp51
 70
     0
102
RTVSPost2010Prop52
140
1.0
102
RTVSPost2010PropOp52
 70
     0
102
RTVSPost2010Prop53
 90
        2
102
RTVSPost2010PropOp53
 70
     1
102
RTVSPost2010Prop54
  1
strokes_ogs.tif
102
RTVSPost2010PropOp54
 70
     1
102
RTVSPost2010Prop55
280
     0
102
RTVSPost2010PropOp55
 70
     1
102
RTVSPost2010Prop56
140
1.0
102
RTVSPost2010PropOp56
 70
     1
102
RTVSPost2010Prop57
140
1.0
102
RTVSPost2010PropOp57
 70
     1
102
RTVSPropertyOp0
 70
     1
102
RTVSPropertyOp1
 70
     1
102
RTVSPropertyOp2
 70
     1
102
RTVSPropertyOp3
 70
     1
102
RTVSPropertyOp4
 70
     1
102
RTVSPropertyOp5
 70
     1
102
RTVSPropertyOp6
 70
     1
102
RTVSPropertyOp7
 70
     1
102
RTVSPropertyOp8
 70
     1
102
RTVSPropertyOp9
 70
     1
102
RTVSPropertyOp10
 70
     1
102
RTVSPropertyOp11
 70
     1
102
RTVSPropertyOp12
 70
     1
102
RTVSPropertyOp13
 70
     1
102
RTVSPropertyOp14
 70
     1
102
RTVSPropertyOp15
 70
     1
102
RTVSPropertyOp16
 70
     1
102
RTVSPropertyOp17
 70
     1
102
RTVSPropertyOp18
 70
     1
102
RTVSPropertyOp19
 70
     1
102
RTVSPropertyOp20
 70
     1
102
RTVSPropertyOp21
 70
     1
102
RTVSPropertyOp22
 70
     1
102
RTVSPropertyOp23
 70
     1
102
RTVSPropertyOp24
 70
     1
102
RTVSPropertyOp25
 70
     1
102
RTVSPropertyOp26
 70
     1
102
RTVSPropertyOp27
 70
     1
102
RTVSPropertyOp28
 70
     1
102
RTVSPropertyOp29
 70
     1
102
RTVSPropertyOp30
 70
     1
102
RTVSPropertyOp31
 70
     1
102
RTVSPropertyOp32
 70
     1
102
RTVSPropertyOp33
 70
     1
102
RTVSPropertyOp34
 70
     1
102
RTVSPropertyOp35
 70
     1
102
RTVSPropertyOp36
 70
     1
102
RTVSPropertyOp37
 70
     1
102
RTVSPropertyOp38
 70
     1
102
RTVSPropertyOp39
 70
     1
102
RTVSPropertyOp40
 70
     1
102
RTVSPropertyOp41
 70
     1
102
RTVSPropertyOp42
 70
     1
102
RTVSPropertyOp43
 70
     1
102
RTVSPropertyOp44
 70
     1
102
RTVSPropertyOp45
 70
     1
102
RTVSPropertyOp46
 70
     1
102
RTVSPropertyOp47
 70
     1
102
RTVSPropertyOp48
 70
     1
102
RTVSPropertyOp49
 70
     1
102
RTVSPropertyOp50
 70
     1
102
RTVSPropertyOp51
 70
     0
102
RTVSPropertyOp52
 70
     0
102
RTVSPropertyOp53
 70
     1
102
RTVSPropertyOp54
 70
     1
102
RTVSPropertyOp55
 70
     1
102
RTVSPropertyOp56
 70
     1
102
RTVSPropertyOp57
 70
     1
102
RTVSPropertyOp58
 70
     1
102
RTVSPropertyOp59
 70
     1
102
RTVSPropertyOp60
 70
     1
102
RTVSPropertyOp61
 70
     1
102
RTVSPropertyOp62
 70
     1
  0
XRECORD
  5
689
102
{ACAD_REACTORS
330
688
102
}
330
688
100
AcDbXrecord
280
     1
102
RTVSPost2010Prop28
280
     0
102
RTVSPost2010PropOp28
 70
     1
102
RTVSPost2010Prop29
280
     1
102
RTVSPost2010PropOp29
 70
     1
102
RTVSPost2010Prop30
280
     1
102
RTVSPost2010PropOp30
 70
     1
102
RTVSPost2010Prop31
280
     0
102
RTVSPost2010PropOp31
 70
     1
102
RTVSPost2010Prop32
280
     0
102
RTVSPost2010PropOp32
 70
     1
102
RTVSPost2010Prop33
280
     0
102
RTVSPost2010PropOp33
 70
     1
102
RTVSPost2010Prop34
280
     0
102
RTVSPost2010PropOp34
 70
     1
102
RTVSPost2010Prop35
280
     0
102
RTVSPost2010PropOp35
 70
     1
102
RTVSPost2010Prop36
280
     0
102
RTVSPost2010PropOp36
 70
     1
102
RTVSPost2010Prop37
 90
       50
102
RTVSPost2010PropOp37
 70
     1
102
RTVSPost2010Prop38
140
0.0
102
RTVSPost2010PropOp38
 70
     1
102
RTVSPost2010Prop39
140
1.0
102
RTVSPost2010PropOp39
 70
     1
102
RTVSPost2010Prop40
 90
        0
102
RTVSPost2010PropOp40
 70
     1
102
RTVSPost2010Prop41ColorIndex
 90
       18
102
RTVSPost2010Prop41ColorRGB
 90
        0
102
RTVSPost2010PropOp41
 70
     1
102
RTVSPost2010Prop42
 90
       50
102
RTVSPost2010PropOp42
 70
     1
102
RTVSPost2010Prop43
 90
        3
102
RTVSPost2010PropOp43
 70
     1
102
RTVSPost2010Prop44ColorIndex
 90
        5
102
RTVSPost2010Prop44ColorRGB
 90
      255
102
RTVSPost2010PropOp44
 70
     1
102
RTVSPost2010Prop45
280
     0
102
RTVSPost2010PropOp45
 70
     1
102
RTVSPost2010Prop46
 90
       50
102
RTVSPost2010PropOp46
 70
     1
102
RTVSPost2010Prop47
 90
       50
102
RTVSPost2010PropOp47
 70
     1
102
RTVSPost2010Prop48
 90
       50
102
RTVSPost2010PropOp48
 70
     1
102
RTVSPost2010Prop49
280
     0
102
RTVSPost2010PropOp49
 70
     1
102
RTVSPost2010Prop50
 90
       50
102
RTVSPost2010PropOp50
 70
     1
102
RTVSPost2010Prop51ColorIndex
 90
      256
102
RTVSPost2010Prop51ColorRGB
 90
-16777216
102
RTVSPost2010PropOp51
 70
     0
102
RTVSPost2010Prop52
140
1.0
102
RTVSPost2010PropOp52
 70
     0
102
RTVSPost2010Prop53
 90
        2
102
RTVSPost2010PropOp53
 70
     1
102
RTVSPost2010Prop54
  1
strokes_ogs.tif
102
RTVSPost2010PropOp54
 70
     1
102
RTVSPost2010Prop55
280
     0
102
RTVSPost2010PropOp55
 70
     1
102
RTVSPost2010Prop56
140
1.0
102
RTVSPost2010PropOp56
 70
     1
102
RTVSPost2010Prop57
140
1.0
102
RTVSPost2010PropOp57
 70
     1
102
RTVSPropertyOp0
 70
     1
102
RTVSPropertyOp1
 70
     1
102
RTVSPropertyOp2
 70
     1
102
RTVSPropertyOp3
 70
     1
102
RTVSPropertyOp4
 70
     1
102
RTVSPropertyOp5
 70
     1
102
RTVSPropertyOp6
 70
     1
102
RTVSPropertyOp7
 70
     1
102
RTVSPropertyOp8
 70
     1
102
RTVSPropertyOp9
 70
     1
102
RTVSPropertyOp10
 70
     1
102
RTVSPropertyOp11
 70
     1
102
RTVSPropertyOp12
 70
     1
102
RTVSPropertyOp13
 70
     1
102
RTVSPropertyOp14
 70
     1
102
RTVSPropertyOp15
 70
     1
102
RTVSPropertyOp16
 70
     1
102
RTVSPropertyOp17
 70
     1
102
RTVSPropertyOp18
 70
     1
102
RTVSPropertyOp19
 70
     1
102
RTVSPropertyOp20
 70
     1
102
RTVSPropertyOp21
 70
     1
102
RTVSPropertyOp22
 70
     1
102
RTVSPropertyOp23
 70
     1
102
RTVSPropertyOp24
 70
     1
102
RTVSPropertyOp25
 70
     1
102
RTVSPropertyOp26
 70
     1
102
RTVSPropertyOp27
 70
     1
102
RTVSPropertyOp28
 70
     1
102
RTVSPropertyOp29
 70
     1
102
RTVSPropertyOp30
 70
     1
102
RTVSPropertyOp31
 70
     1
102
RTVSPropertyOp32
 70
     1
102
RTVSPropertyOp33
 70
     1
102
RTVSPropertyOp34
 70
     1
102
RTVSPropertyOp35
 70
     1
102
RTVSPropertyOp36
 70
     1
102
RTVSPropertyOp37
 70
     1
102
RTVSPropertyOp38
 70
     1
102
RTVSPropertyOp39
 70
     1
102
RTVSPropertyOp40
 70
     1
102
RTVSPropertyOp41
 70
     1
102
RTVSPropertyOp42
 70
     1
102
RTVSPropertyOp43
 70
     1
102
RTVSPropertyOp44
 70
     1
102
RTVSPropertyOp45
 70
     1
102
RTVSPropertyOp46
 70
     1
102
RTVSPropertyOp47
 70
     1
102
RTVSPropertyOp48
 70
     1
102
RTVSPropertyOp49
 70
     1
102
RTVSPropertyOp50
 70
     1
102
RTVSPropertyOp51
 70
     0
102
RTVSPropertyOp52
 70
     0
102
RTVSPropertyOp53
 70
     1
102
RTVSPropertyOp54
 70
     1
102
RTVSPropertyOp55
 70
     1
102
RTVSPropertyOp56
 70
     1
102
RTVSPropertyOp57
 70
     1
102
RTVSPropertyOp58
 70
     1
102
RTVSPropertyOp59
 70
     1
102
RTVSPropertyOp60
 70
     1
102
RTVSPropertyOp61
 70
     1
102
RTVSPropertyOp62
 70
     1
  0
XRECORD
  5
68D
102
{ACAD_REACTORS
330
68C
102
}
330
68C
100
AcDbXrecord
280
     1
102
RTVSPost2010Prop28
280
     0
102
RTVSPost2010PropOp28
 70
     1
102
RTVSPost2010Prop29
280
     1
102
RTVSPost2010PropOp29
 70
     1
102
RTVSPost2010Prop30
280
     1
102
RTVSPost2010PropOp30
 70
     1
102
RTVSPost2010Prop31
280
     0
102
RTVSPost2010PropOp31
 70
     1
102
RTVSPost2010Prop32
280
     0
102
RTVSPost2010PropOp32
 70
     1
102
RTVSPost2010Prop33
280
     0
102
RTVSPost2010PropOp33
 70
     1
102
RTVSPost2010Prop34
280
     0
102
RTVSPost2010PropOp34
 70
     1
102
RTVSPost2010Prop35
280
     0
102
RTVSPost2010PropOp35
 70
     1
102
RTVSPost2010Prop36
280
     0
102
RTVSPost2010PropOp36
 70
     1
102
RTVSPost2010Prop37
 90
       50
102
RTVSPost2010PropOp37
 70
     1
102
RTVSPost2010Prop38
140
0.0
102
RTVSPost2010PropOp38
 70
     1
102
RTVSPost2010Prop39
140
1.0
102
RTVSPost2010PropOp39
 70
     1
102
RTVSPost2010Prop40
 90
        0
102
RTVSPost2010PropOp40
 70
     1
102
RTVSPost2010Prop41ColorIndex
 90
       18
102
RTVSPost2010Prop41ColorRGB
 90
        0
102
RTVSPost2010PropOp41
 70
     1
102
RTVSPost2010Prop42
 90
       50
102
RTVSPost2010PropOp42
 70
     1
102
RTVSPost2010Prop43
 90
        3
102
RTVSPost2010PropOp43
 70
     1
102
RTVSPost2010Prop44ColorIndex
 90
        5
102
RTVSPost2010Prop44ColorRGB
 90
      255
102
RTVSPost2010PropOp44
 70
     1
102
RTVSPost2010Prop45
280
     0
102
RTVSPost2010PropOp45
 70
     1
102
RTVSPost2010Prop46
 90
       50
102
RTVSPost2010PropOp46
 70
     1
102
RTVSPost2010Prop47
 90
       50
102
RTVSPost2010PropOp47
 70
     1
102
RTVSPost2010Prop48
 90
       50
102
RTVSPost2010PropOp48
 70
     1
102
RTVSPost2010Prop49
280
     0
102
RTVSPost2010PropOp49
 70
     1
102
RTVSPost2010Prop50
 90
       50
102
RTVSPost2010PropOp50
 70
     1
102
RTVSPost2010Prop51ColorIndex
 90
      256
102
RTVSPost2010Prop51ColorRGB
 90
-16777216
102
RTVSPost2010PropOp51
 70
     0
102
RTVSPost2010Prop52
140
1.0
102
RTVSPost2010PropOp52
 70
     0
102
RTVSPost2010Prop53
 90
        2
102
RTVSPost2010PropOp53
 70
     1
102
RTVSPost2010Prop54
  1
strokes_ogs.tif
102
RTVSPost2010PropOp54
 70
     1
102
RTVSPost2010Prop55
280
     0
102
RTVSPost2010PropOp55
 70
     1
102
RTVSPost2010Prop56
140
1.0
102
RTVSPost2010PropOp56
 70
     1
102
RTVSPost2010Prop57
140
1.0
102
RTVSPost2010PropOp57
 70
     1
102
RTVSPropertyOp0
 70
     1
102
RTVSPropertyOp1
 70
     1
102
RTVSPropertyOp2
 70
     1
102
RTVSPropertyOp3
 70
     1
102
RTVSPropertyOp4
 70
     1
102
RTVSPropertyOp5
 70
     1
102
RTVSPropertyOp6
 70
     1
102
RTVSPropertyOp7
 70
     1
102
RTVSPropertyOp8
 70
     1
102
RTVSPropertyOp9
 70
     1
102
RTVSPropertyOp10
 70
     1
102
RTVSPropertyOp11
 70
     1
102
RTVSPropertyOp12
 70
     1
102
RTVSPropertyOp13
 70
     1
102
RTVSPropertyOp14
 70
     1
102
RTVSPropertyOp15
 70
     1
102
RTVSPropertyOp16
 70
     1
102
RTVSPropertyOp17
 70
     1
102
RTVSPropertyOp18
 70
     1
102
RTVSPropertyOp19
 70
     1
102
RTVSPropertyOp20
 70
     1
102
RTVSPropertyOp21
 70
     1
102
RTVSPropertyOp22
 70
     1
102
RTVSPropertyOp23
 70
     1
102
RTVSPropertyOp24
 70
     1
102
RTVSPropertyOp25
 70
     1
102
RTVSPropertyOp26
 70
     1
102
RTVSPropertyOp27
 70
     1
102
RTVSPropertyOp28
 70
     1
102
RTVSPropertyOp29
 70
     1
102
RTVSPropertyOp30
 70
     1
102
RTVSPropertyOp31
 70
     1
102
RTVSPropertyOp32
 70
     1
102
RTVSPropertyOp33
 70
     1
102
RTVSPropertyOp34
 70
     1
102
RTVSPropertyOp35
 70
     1
102
RTVSPropertyOp36
 70
     1
102
RTVSPropertyOp37
 70
     1
102
RTVSPropertyOp38
 70
     1
102
RTVSPropertyOp39
 70
     1
102
RTVSPropertyOp40
 70
     1
102
RTVSPropertyOp41
 70
     1
102
RTVSPropertyOp42
 70
     1
102
RTVSPropertyOp43
 70
     1
102
RTVSPropertyOp44
 70
     1
102
RTVSPropertyOp45
 70
     1
102
RTVSPropertyOp46
 70
     1
102
RTVSPropertyOp47
 70
     1
102
RTVSPropertyOp48
 70
     1
102
RTVSPropertyOp49
 70
     1
102
RTVSPropertyOp50
 70
     1
102
RTVSPropertyOp51
 70
     0
102
RTVSPropertyOp52
 70
     0
102
RTVSPropertyOp53
 70
     1
102
RTVSPropertyOp54
 70
     1
102
RTVSPropertyOp55
 70
     1
102
RTVSPropertyOp56
 70
     1
102
RTVSPropertyOp57
 70
     1
102
RTVSPropertyOp58
 70
     1
102
RTVSPropertyOp59
 70
     1
102
RTVSPropertyOp60
 70
     1
102
RTVSPropertyOp61
 70
     1
102
RTVSPropertyOp62
 70
     1
  0
XRECORD
  5
69D
102
{ACAD_REACTORS
330
69C
102
}
330
69C
100
AcDbXrecord
280
     1
102
RTVSPost2010Prop28
280
     0
102
RTVSPost2010PropOp28
 70
     1
102
RTVSPost2010Prop29
280
     1
102
RTVSPost2010PropOp29
 70
     1
102
RTVSPost2010Prop30
280
     1
102
RTVSPost2010PropOp30
 70
     1
102
RTVSPost2010Prop31
280
     0
102
RTVSPost2010PropOp31
 70
     1
102
RTVSPost2010Prop32
280
     0
102
RTVSPost2010PropOp32
 70
     1
102
RTVSPost2010Prop33
280
     0
102
RTVSPost2010PropOp33
 70
     1
102
RTVSPost2010Prop34
280
     0
102
RTVSPost2010PropOp34
 70
     1
102
RTVSPost2010Prop35
280
     0
102
RTVSPost2010PropOp35
 70
     1
102
RTVSPost2010Prop36
280
     0
102
RTVSPost2010PropOp36
 70
     1
102
RTVSPost2010Prop37
 90
       50
102
RTVSPost2010PropOp37
 70
     1
102
RTVSPost2010Prop38
140
0.0
102
RTVSPost2010PropOp38
 70
     1
102
RTVSPost2010Prop39
140
1.0
102
RTVSPost2010PropOp39
 70
     1
102
RTVSPost2010Prop40
 90
        0
102
RTVSPost2010PropOp40
 70
     1
102
RTVSPost2010Prop41ColorIndex
 90
       18
102
RTVSPost2010Prop41ColorRGB
 90
        0
102
RTVSPost2010PropOp41
 70
     1
102
RTVSPost2010Prop42
 90
       50
102
RTVSPost2010PropOp42
 70
     1
102
RTVSPost2010Prop43
 90
        3
102
RTVSPost2010PropOp43
 70
     1
102
RTVSPost2010Prop44ColorIndex
 90
        5
102
RTVSPost2010Prop44ColorRGB
 90
      255
102
RTVSPost2010PropOp44
 70
     1
102
RTVSPost2010Prop45
280
     0
102
RTVSPost2010PropOp45
 70
     1
102
RTVSPost2010Prop46
 90
       50
102
RTVSPost2010PropOp46
 70
     1
102
RTVSPost2010Prop47
 90
       50
102
RTVSPost2010PropOp47
 70
     1
102
RTVSPost2010Prop48
 90
       50
102
RTVSPost2010PropOp48
 70
     1
102
RTVSPost2010Prop49
280
     0
102
RTVSPost2010PropOp49
 70
     1
102
RTVSPost2010Prop50
 90
       50
102
RTVSPost2010PropOp50
 70
     1
102
RTVSPost2010Prop51ColorIndex
 90
      256
102
RTVSPost2010Prop51ColorRGB
 90
-16777216
102
RTVSPost2010PropOp51
 70
     0
102
RTVSPost2010Prop52
140
1.0
102
RTVSPost2010PropOp52
 70
     0
102
RTVSPost2010Prop53
 90
        2
102
RTVSPost2010PropOp53
 70
     1
102
RTVSPost2010Prop54
  1
strokes_ogs.tif
102
RTVSPost2010PropOp54
 70
     1
102
RTVSPost2010Prop55
280
     0
102
RTVSPost2010PropOp55
 70
     1
102
RTVSPost2010Prop56
140
1.0
102
RTVSPost2010PropOp56
 70
     1
102
RTVSPost2010Prop57
140
1.0
102
RTVSPost2010PropOp57
 70
     1
102
RTVSPropertyOp0
 70
     0
102
RTVSPropertyOp1
 70
     0
102
RTVSPropertyOp2
 70
     0
102
RTVSPropertyOp3
 70
     0
102
RTVSPropertyOp4
 70
     0
102
RTVSPropertyOp5
 70
     0
102
RTVSPropertyOp6
 70
     0
102
RTVSPropertyOp7
 70
     0
102
RTVSPropertyOp8
 70
     0
102
RTVSPropertyOp9
 70
     0
102
RTVSPropertyOp10
 70
     0
102
RTVSPropertyOp11
 70
     0
102
RTVSPropertyOp12
 70
     0
102
RTVSPropertyOp13
 70
     0
102
RTVSPropertyOp14
 70
     2
102
RTVSPropertyOp15
 70
     0
102
RTVSPropertyOp16
 70
     0
102
RTVSPropertyOp17
 70
     0
102
RTVSPropertyOp18
 70
     0
102
RTVSPropertyOp19
 70
     0
102
RTVSPropertyOp20
 70
     0
102
RTVSPropertyOp21
 70
     0
102
RTVSPropertyOp22
 70
     0
102
RTVSPropertyOp23
 70
     0
102
RTVSPropertyOp24
 70
     0
102
RTVSPropertyOp25
 70
     0
102
RTVSPropertyOp26
 70
     0
102
RTVSPropertyOp27
 70
     0
102
RTVSPropertyOp28
 70
     1
102
RTVSPropertyOp29
 70
     1
102
RTVSPropertyOp30
 70
     1
102
RTVSPropertyOp31
 70
     1
102
RTVSPropertyOp32
 70
     1
102
RTVSPropertyOp33
 70
     1
102
RTVSPropertyOp34
 70
     1
102
RTVSPropertyOp35
 70
     1
102
RTVSPropertyOp36
 70
     1
102
RTVSPropertyOp37
 70
     1
102
RTVSPropertyOp38
 70
     1
102
RTVSPropertyOp39
 70
     1
102
RTVSPropertyOp40
 70
     1
102
RTVSPropertyOp41
 70
     1
102
RTVSPropertyOp42
 70
     1
102
RTVSPropertyOp43
 70
     1
102
RTVSPropertyOp44
 70
     1
102
RTVSPropertyOp45
 70
     1
102
RTVSPropertyOp46
 70
     1
102
RTVSPropertyOp47
 70
     1
102
RTVSPropertyOp48
 70
     1
102
RTVSPropertyOp49
 70
     1
102
RTVSPropertyOp50
 70
     1
102
RTVSPropertyOp51
 70
     0
102
RTVSPropertyOp52
 70
     0
102
RTVSPropertyOp53
 70
     1
102
RTVSPropertyOp54
 70
     1
102
RTVSPropertyOp55
 70
     1
102
RTVSPropertyOp56
 70
     1
102
RTVSPropertyOp57
 70
     1
102
RTVSPropertyOp58
 70
     1
102
RTVSPropertyOp59
 70
     1
102
RTVSPropertyOp60
 70
     1
102
RTVSPropertyOp61
 70
     1
102
RTVSPropertyOp62
 70
     1
  0
XRECORD
  5
695
102
{ACAD_REACTORS
330
694
102
}
330
694
100
AcDbXrecord
280
     1
102
RTVSPost2010Prop28
280
     0
102
RTVSPost2010PropOp28
 70
     1
102
RTVSPost2010Prop29
280
     1
102
RTVSPost2010PropOp29
 70
     1
102
RTVSPost2010Prop30
280
     1
102
RTVSPost2010PropOp30
 70
     1
102
RTVSPost2010Prop31
280
     0
102
RTVSPost2010PropOp31
 70
     1
102
RTVSPost2010Prop32
280
     0
102
RTVSPost2010PropOp32
 70
     1
102
RTVSPost2010Prop33
280
     0
102
RTVSPost2010PropOp33
 70
     1
102
RTVSPost2010Prop34
280
     0
102
RTVSPost2010PropOp34
 70
     1
102
RTVSPost2010Prop35
280
     0
102
RTVSPost2010PropOp35
 70
     1
102
RTVSPost2010Prop36
280
     0
102
RTVSPost2010PropOp36
 70
     1
102
RTVSPost2010Prop37
 90
       50
102
RTVSPost2010PropOp37
 70
     1
102
RTVSPost2010Prop38
140
0.0
102
RTVSPost2010PropOp38
 70
     1
102
RTVSPost2010Prop39
140
1.0
102
RTVSPost2010PropOp39
 70
     1
102
RTVSPost2010Prop40
 90
        0
102
RTVSPost2010PropOp40
 70
     1
102
RTVSPost2010Prop41ColorIndex
 90
       18
102
RTVSPost2010Prop41ColorRGB
 90
        0
102
RTVSPost2010PropOp41
 70
     1
102
RTVSPost2010Prop42
 90
       50
102
RTVSPost2010PropOp42
 70
     1
102
RTVSPost2010Prop43
 90
        3
102
RTVSPost2010PropOp43
 70
     1
102
RTVSPost2010Prop44ColorIndex
 90
        5
102
RTVSPost2010Prop44ColorRGB
 90
      255
102
RTVSPost2010PropOp44
 70
     1
102
RTVSPost2010Prop45
280
     0
102
RTVSPost2010PropOp45
 70
     1
102
RTVSPost2010Prop46
 90
       50
102
RTVSPost2010PropOp46
 70
     1
102
RTVSPost2010Prop47
 90
       50
102
RTVSPost2010PropOp47
 70
     1
102
RTVSPost2010Prop48
 90
       50
102
RTVSPost2010PropOp48
 70
     1
102
RTVSPost2010Prop49
280
     0
102
RTVSPost2010PropOp49
 70
     1
102
RTVSPost2010Prop50
 90
       50
102
RTVSPost2010PropOp50
 70
     1
102
RTVSPost2010Prop51ColorIndex
 90
      256
102
RTVSPost2010Prop51ColorRGB
 90
-16777216
102
RTVSPost2010PropOp51
 70
     0
102
RTVSPost2010Prop52
140
1.0
102
RTVSPost2010PropOp52
 70
     0
102
RTVSPost2010Prop53
 90
        2
102
RTVSPost2010PropOp53
 70
     1
102
RTVSPost2010Prop54
  1
strokes_ogs.tif
102
RTVSPost2010PropOp54
 70
     1
102
RTVSPost2010Prop55
280
     0
102
RTVSPost2010PropOp55
 70
     1
102
RTVSPost2010Prop56
140
1.0
102
RTVSPost2010PropOp56
 70
     1
102
RTVSPost2010Prop57
140
1.0
102
RTVSPost2010PropOp57
 70
     1
102
RTVSPropertyOp0
 70
     1
102
RTVSPropertyOp1
 70
     1
102
RTVSPropertyOp2
 70
     1
102
RTVSPropertyOp3
 70
     1
102
RTVSPropertyOp4
 70
     1
102
RTVSPropertyOp5
 70
     1
102
RTVSPropertyOp6
 70
     1
102
RTVSPropertyOp7
 70
     1
102
RTVSPropertyOp8
 70
     1
102
RTVSPropertyOp9
 70
     1
102
RTVSPropertyOp10
 70
     1
102
RTVSPropertyOp11
 70
     1
102
RTVSPropertyOp12
 70
     1
102
RTVSPropertyOp13
 70
     1
102
RTVSPropertyOp14
 70
     1
102
RTVSPropertyOp15
 70
     1
102
RTVSPropertyOp16
 70
     1
102
RTVSPropertyOp17
 70
     1
102
RTVSPropertyOp18
 70
     1
102
RTVSPropertyOp19
 70
     1
102
RTVSPropertyOp20
 70
     1
102
RTVSPropertyOp21
 70
     1
102
RTVSPropertyOp22
 70
     1
102
RTVSPropertyOp23
 70
     1
102
RTVSPropertyOp24
 70
     1
102
RTVSPropertyOp25
 70
     1
102
RTVSPropertyOp26
 70
     1
102
RTVSPropertyOp27
 70
     1
102
RTVSPropertyOp28
 70
     1
102
RTVSPropertyOp29
 70
     1
102
RTVSPropertyOp30
 70
     1
102
RTVSPropertyOp31
 70
     1
102
RTVSPropertyOp32
 70
     1
102
RTVSPropertyOp33
 70
     1
102
RTVSPropertyOp34
 70
     1
102
RTVSPropertyOp35
 70
     1
102
RTVSPropertyOp36
 70
     1
102
RTVSPropertyOp37
 70
     1
102
RTVSPropertyOp38
 70
     1
102
RTVSPropertyOp39
 70
     1
102
RTVSPropertyOp40
 70
     1
102
RTVSPropertyOp41
 70
     1
102
RTVSPropertyOp42
 70
     1
102
RTVSPropertyOp43
 70
     1
102
RTVSPropertyOp44
 70
     1
102
RTVSPropertyOp45
 70
     1
102
RTVSPropertyOp46
 70
     1
102
RTVSPropertyOp47
 70
     1
102
RTVSPropertyOp48
 70
     1
102
RTVSPropertyOp49
 70
     1
102
RTVSPropertyOp50
 70
     1
102
RTVSPropertyOp51
 70
     0
102
RTVSPropertyOp52
 70
     0
102
RTVSPropertyOp53
 70
     1
102
RTVSPropertyOp54
 70
     1
102
RTVSPropertyOp55
 70
     1
102
RTVSPropertyOp56
 70
     1
102
RTVSPropertyOp57
 70
     1
102
RTVSPropertyOp58
 70
     1
102
RTVSPropertyOp59
 70
     1
102
RTVSPropertyOp60
 70
     1
102
RTVSPropertyOp61
 70
     1
102
RTVSPropertyOp62
 70
     1
  0
XRECORD
  5
679
102
{ACAD_REACTORS
330
678
102
}
330
678
100
AcDbXrecord
280
     1
102
RTVSPost2010Prop28
280
     0
102
RTVSPost2010PropOp28
 70
     1
102
RTVSPost2010Prop29
280
     1
102
RTVSPost2010PropOp29
 70
     1
102
RTVSPost2010Prop30
280
     1
102
RTVSPost2010PropOp30
 70
     1
102
RTVSPost2010Prop31
280
     0
102
RTVSPost2010PropOp31
 70
     1
102
RTVSPost2010Prop32
280
     0
102
RTVSPost2010PropOp32
 70
     1
102
RTVSPost2010Prop33
280
     0
102
RTVSPost2010PropOp33
 70
     1
102
RTVSPost2010Prop34
280
     0
102
RTVSPost2010PropOp34
 70
     1
102
RTVSPost2010Prop35
280
     0
102
RTVSPost2010PropOp35
 70
     1
102
RTVSPost2010Prop36
280
     0
102
RTVSPost2010PropOp36
 70
     1
102
RTVSPost2010Prop37
 90
       50
102
RTVSPost2010PropOp37
 70
     1
102
RTVSPost2010Prop38
140
0.0
102
RTVSPost2010PropOp38
 70
     1
102
RTVSPost2010Prop39
140
1.0
102
RTVSPost2010PropOp39
 70
     1
102
RTVSPost2010Prop40
 90
        0
102
RTVSPost2010PropOp40
 70
     1
102
RTVSPost2010Prop41ColorIndex
 90
       18
102
RTVSPost2010Prop41ColorRGB
 90
        0
102
RTVSPost2010PropOp41
 70
     1
102
RTVSPost2010Prop42
 90
       50
102
RTVSPost2010PropOp42
 70
     1
102
RTVSPost2010Prop43
 90
        3
102
RTVSPost2010PropOp43
 70
     1
102
RTVSPost2010Prop44ColorIndex
 90
        5
102
RTVSPost2010Prop44ColorRGB
 90
      255
102
RTVSPost2010PropOp44
 70
     1
102
RTVSPost2010Prop45
280
     0
102
RTVSPost2010PropOp45
 70
     1
102
RTVSPost2010Prop46
 90
       50
102
RTVSPost2010PropOp46
 70
     1
102
RTVSPost2010Prop47
 90
       50
102
RTVSPost2010PropOp47
 70
     1
102
RTVSPost2010Prop48
 90
       50
102
RTVSPost2010PropOp48
 70
     1
102
RTVSPost2010Prop49
280
     0
102
RTVSPost2010PropOp49
 70
     1
102
RTVSPost2010Prop50
 90
       50
102
RTVSPost2010PropOp50
 70
     1
102
RTVSPost2010Prop51ColorIndex
 90
      256
102
RTVSPost2010Prop51ColorRGB
 90
-16777216
102
RTVSPost2010PropOp51
 70
     0
102
RTVSPost2010Prop52
140
1.0
102
RTVSPost2010PropOp52
 70
     0
102
RTVSPost2010Prop53
 90
        2
102
RTVSPost2010PropOp53
 70
     1
102
RTVSPost2010Prop54
  1
strokes_ogs.tif
102
RTVSPost2010PropOp54
 70
     1
102
RTVSPost2010Prop55
280
     0
102
RTVSPost2010PropOp55
 70
     1
102
RTVSPost2010Prop56
140
1.0
102
RTVSPost2010PropOp56
 70
     1
102
RTVSPost2010Prop57
140
1.0
102
RTVSPost2010PropOp57
 70
     1
102
RTVSPropertyOp0
 70
     1
102
RTVSPropertyOp1
 70
     1
102
RTVSPropertyOp2
 70
     1
102
RTVSPropertyOp3
 70
     1
102
RTVSPropertyOp4
 70
     1
102
RTVSPropertyOp5
 70
     1
102
RTVSPropertyOp6
 70
     1
102
RTVSPropertyOp7
 70
     1
102
RTVSPropertyOp8
 70
     1
102
RTVSPropertyOp9
 70
     1
102
RTVSPropertyOp10
 70
     1
102
RTVSPropertyOp11
 70
     1
102
RTVSPropertyOp12
 70
     1
102
RTVSPropertyOp13
 70
     1
102
RTVSPropertyOp14
 70
     1
102
RTVSPropertyOp15
 70
     1
102
RTVSPropertyOp16
 70
     1
102
RTVSPropertyOp17
 70
     1
102
RTVSPropertyOp18
 70
     1
102
RTVSPropertyOp19
 70
     1
102
RTVSPropertyOp20
 70
     1
102
RTVSPropertyOp21
 70
     1
102
RTVSPropertyOp22
 70
     1
102
RTVSPropertyOp23
 70
     1
102
RTVSPropertyOp24
 70
     1
102
RTVSPropertyOp25
 70
     1
102
RTVSPropertyOp26
 70
     1
102
RTVSPropertyOp27
 70
     1
102
RTVSPropertyOp28
 70
     1
102
RTVSPropertyOp29
 70
     1
102
RTVSPropertyOp30
 70
     1
102
RTVSPropertyOp31
 70
     1
102
RTVSPropertyOp32
 70
     1
102
RTVSPropertyOp33
 70
     1
102
RTVSPropertyOp34
 70
     1
102
RTVSPropertyOp35
 70
     1
102
RTVSPropertyOp36
 70
     1
102
RTVSPropertyOp37
 70
     1
102
RTVSPropertyOp38
 70
     1
102
RTVSPropertyOp39
 70
     1
102
RTVSPropertyOp40
 70
     1
102
RTVSPropertyOp41
 70
     1
102
RTVSPropertyOp42
 70
     1
102
RTVSPropertyOp43
 70
     1
102
RTVSPropertyOp44
 70
     1
102
RTVSPropertyOp45
 70
     1
102
RTVSPropertyOp46
 70
     1
102
RTVSPropertyOp47
 70
     1
102
RTVSPropertyOp48
 70
     1
102
RTVSPropertyOp49
 70
     1
102
RTVSPropertyOp50
 70
     1
102
RTVSPropertyOp51
 70
     0
102
RTVSPropertyOp52
 70
     0
102
RTVSPropertyOp53
 70
     1
102
RTVSPropertyOp54
 70
     1
102
RTVSPropertyOp55
 70
     1
102
RTVSPropertyOp56
 70
     1
102
RTVSPropertyOp57
 70
     1
102
RTVSPropertyOp58
 70
     1
102
RTVSPropertyOp59
 70
     1
102
RTVSPropertyOp60
 70
     1
102
RTVSPropertyOp61
 70
     1
102
RTVSPropertyOp62
 70
     1
  0
XRECORD
  5
67B
102
{ACAD_REACTORS
330
67A
102
}
330
67A
100
AcDbXrecord
280
     1
102
RTVSPost2010Prop28
280
     0
102
RTVSPost2010PropOp28
 70
     1
102
RTVSPost2010Prop29
280
     1
102
RTVSPost2010PropOp29
 70
     1
102
RTVSPost2010Prop30
280
     1
102
RTVSPost2010PropOp30
 70
     1
102
RTVSPost2010Prop31
280
     0
102
RTVSPost2010PropOp31
 70
     1
102
RTVSPost2010Prop32
280
     0
102
RTVSPost2010PropOp32
 70
     1
102
RTVSPost2010Prop33
280
     0
102
RTVSPost2010PropOp33
 70
     1
102
RTVSPost2010Prop34
280
     0
102
RTVSPost2010PropOp34
 70
     1
102
RTVSPost2010Prop35
280
     0
102
RTVSPost2010PropOp35
 70
     1
102
RTVSPost2010Prop36
280
     0
102
RTVSPost2010PropOp36
 70
     1
102
RTVSPost2010Prop37
 90
       50
102
RTVSPost2010PropOp37
 70
     1
102
RTVSPost2010Prop38
140
0.0
102
RTVSPost2010PropOp38
 70
     1
102
RTVSPost2010Prop39
140
1.0
102
RTVSPost2010PropOp39
 70
     1
102
RTVSPost2010Prop40
 90
        0
102
RTVSPost2010PropOp40
 70
     1
102
RTVSPost2010Prop41ColorIndex
 90
       18
102
RTVSPost2010Prop41ColorRGB
 90
        0
102
RTVSPost2010PropOp41
 70
     1
102
RTVSPost2010Prop42
 90
       50
102
RTVSPost2010PropOp42
 70
     1
102
RTVSPost2010Prop43
 90
        3
102
RTVSPost2010PropOp43
 70
     1
102
RTVSPost2010Prop44ColorIndex
 90
        5
102
RTVSPost2010Prop44ColorRGB
 90
      255
102
RTVSPost2010PropOp44
 70
     1
102
RTVSPost2010Prop45
280
     0
102
RTVSPost2010PropOp45
 70
     1
102
RTVSPost2010Prop46
 90
       50
102
RTVSPost2010PropOp46
 70
     1
102
RTVSPost2010Prop47
 90
       50
102
RTVSPost2010PropOp47
 70
     1
102
RTVSPost2010Prop48
 90
       50
102
RTVSPost2010PropOp48
 70
     1
102
RTVSPost2010Prop49
280
     0
102
RTVSPost2010PropOp49
 70
     1
102
RTVSPost2010Prop50
 90
       50
102
RTVSPost2010PropOp50
 70
     1
102
RTVSPost2010Prop51ColorIndex
 90
      256
102
RTVSPost2010Prop51ColorRGB
 90
-16777216
102
RTVSPost2010PropOp51
 70
     0
102
RTVSPost2010Prop52
140
1.0
102
RTVSPost2010PropOp52
 70
     0
102
RTVSPost2010Prop53
 90
        2
102
RTVSPost2010PropOp53
 70
     1
102
RTVSPost2010Prop54
  1
strokes_ogs.tif
102
RTVSPost2010PropOp54
 70
     1
102
RTVSPost2010Prop55
280
     0
102
RTVSPost2010PropOp55
 70
     1
102
RTVSPost2010Prop56
140
1.0
102
RTVSPost2010PropOp56
 70
     1
102
RTVSPost2010Prop57
140
1.0
102
RTVSPost2010PropOp57
 70
     1
102
RTVSPropertyOp0
 70
     1
102
RTVSPropertyOp1
 70
     1
102
RTVSPropertyOp2
 70
     1
102
RTVSPropertyOp3
 70
     1
102
RTVSPropertyOp4
 70
     1
102
RTVSPropertyOp5
 70
     1
102
RTVSPropertyOp6
 70
     1
102
RTVSPropertyOp7
 70
     1
102
RTVSPropertyOp8
 70
     1
102
RTVSPropertyOp9
 70
     1
102
RTVSPropertyOp10
 70
     1
102
RTVSPropertyOp11
 70
     1
102
RTVSPropertyOp12
 70
     1
102
RTVSPropertyOp13
 70
     1
102
RTVSPropertyOp14
 70
     1
102
RTVSPropertyOp15
 70
     1
102
RTVSPropertyOp16
 70
     1
102
RTVSPropertyOp17
 70
     1
102
RTVSPropertyOp18
 70
     1
102
RTVSPropertyOp19
 70
     1
102
RTVSPropertyOp20
 70
     1
102
RTVSPropertyOp21
 70
     1
102
RTVSPropertyOp22
 70
     1
102
RTVSPropertyOp23
 70
     1
102
RTVSPropertyOp24
 70
     1
102
RTVSPropertyOp25
 70
     1
102
RTVSPropertyOp26
 70
     1
102
RTVSPropertyOp27
 70
     1
102
RTVSPropertyOp28
 70
     1
102
RTVSPropertyOp29
 70
     1
102
RTVSPropertyOp30
 70
     1
102
RTVSPropertyOp31
 70
     1
102
RTVSPropertyOp32
 70
     1
102
RTVSPropertyOp33
 70
     1
102
RTVSPropertyOp34
 70
     1
102
RTVSPropertyOp35
 70
     1
102
RTVSPropertyOp36
 70
     1
102
RTVSPropertyOp37
 70
     1
102
RTVSPropertyOp38
 70
     1
102
RTVSPropertyOp39
 70
     1
102
RTVSPropertyOp40
 70
     1
102
RTVSPropertyOp41
 70
     1
102
RTVSPropertyOp42
 70
     1
102
RTVSPropertyOp43
 70
     1
102
RTVSPropertyOp44
 70
     1
102
RTVSPropertyOp45
 70
     1
102
RTVSPropertyOp46
 70
     1
102
RTVSPropertyOp47
 70
     1
102
RTVSPropertyOp48
 70
     1
102
RTVSPropertyOp49
 70
     1
102
RTVSPropertyOp50
 70
     1
102
RTVSPropertyOp51
 70
     0
102
RTVSPropertyOp52
 70
     0
102
RTVSPropertyOp53
 70
     1
102
RTVSPropertyOp54
 70
     1
102
RTVSPropertyOp55
 70
     1
102
RTVSPropertyOp56
 70
     1
102
RTVSPropertyOp57
 70
     1
102
RTVSPropertyOp58
 70
     1
102
RTVSPropertyOp59
 70
     1
102
RTVSPropertyOp60
 70
     1
102
RTVSPropertyOp61
 70
     1
102
RTVSPropertyOp62
 70
     1
  0
XRECORD
  5
67D
102
{ACAD_REACTORS
330
67C
102
}
330
67C
100
AcDbXrecord
280
     1
102
RTVSPost2010Prop28
280
     0
102
RTVSPost2010PropOp28
 70
     1
102
RTVSPost2010Prop29
280
     1
102
RTVSPost2010PropOp29
 70
     1
102
RTVSPost2010Prop30
280
     1
102
RTVSPost2010PropOp30
 70
     1
102
RTVSPost2010Prop31
280
     0
102
RTVSPost2010PropOp31
 70
     1
102
RTVSPost2010Prop32
280
     0
102
RTVSPost2010PropOp32
 70
     1
102
RTVSPost2010Prop33
280
     0
102
RTVSPost2010PropOp33
 70
     1
102
RTVSPost2010Prop34
280
     0
102
RTVSPost2010PropOp34
 70
     1
102
RTVSPost2010Prop35
280
     0
102
RTVSPost2010PropOp35
 70
     1
102
RTVSPost2010Prop36
280
     0
102
RTVSPost2010PropOp36
 70
     1
102
RTVSPost2010Prop37
 90
       50
102
RTVSPost2010PropOp37
 70
     1
102
RTVSPost2010Prop38
140
0.0
102
RTVSPost2010PropOp38
 70
     1
102
RTVSPost2010Prop39
140
1.0
102
RTVSPost2010PropOp39
 70
     1
102
RTVSPost2010Prop40
 90
        0
102
RTVSPost2010PropOp40
 70
     1
102
RTVSPost2010Prop41ColorIndex
 90
       18
102
RTVSPost2010Prop41ColorRGB
 90
        0
102
RTVSPost2010PropOp41
 70
     1
102
RTVSPost2010Prop42
 90
       50
102
RTVSPost2010PropOp42
 70
     1
102
RTVSPost2010Prop43
 90
        3
102
RTVSPost2010PropOp43
 70
     1
102
RTVSPost2010Prop44ColorIndex
 90
        5
102
RTVSPost2010Prop44ColorRGB
 90
      255
102
RTVSPost2010PropOp44
 70
     1
102
RTVSPost2010Prop45
280
     0
102
RTVSPost2010PropOp45
 70
     1
102
RTVSPost2010Prop46
 90
       50
102
RTVSPost2010PropOp46
 70
     1
102
RTVSPost2010Prop47
 90
       50
102
RTVSPost2010PropOp47
 70
     1
102
RTVSPost2010Prop48
 90
       50
102
RTVSPost2010PropOp48
 70
     1
102
RTVSPost2010Prop49
280
     0
102
RTVSPost2010PropOp49
 70
     1
102
RTVSPost2010Prop50
 90
       50
102
RTVSPost2010PropOp50
 70
     1
102
RTVSPost2010Prop51ColorIndex
 90
      256
102
RTVSPost2010Prop51ColorRGB
 90
-16777216
102
RTVSPost2010PropOp51
 70
     0
102
RTVSPost2010Prop52
140
1.0
102
RTVSPost2010PropOp52
 70
     0
102
RTVSPost2010Prop53
 90
        2
102
RTVSPost2010PropOp53
 70
     1
102
RTVSPost2010Prop54
  1
strokes_ogs.tif
102
RTVSPost2010PropOp54
 70
     1
102
RTVSPost2010Prop55
280
     0
102
RTVSPost2010PropOp55
 70
     1
102
RTVSPost2010Prop56
140
1.0
102
RTVSPost2010PropOp56
 70
     1
102
RTVSPost2010Prop57
140
1.0
102
RTVSPost2010PropOp57
 70
     1
102
RTVSPropertyOp0
 70
     1
102
RTVSPropertyOp1
 70
     1
102
RTVSPropertyOp2
 70
     1
102
RTVSPropertyOp3
 70
     1
102
RTVSPropertyOp4
 70
     1
102
RTVSPropertyOp5
 70
     1
102
RTVSPropertyOp6
 70
     1
102
RTVSPropertyOp7
 70
     1
102
RTVSPropertyOp8
 70
     1
102
RTVSPropertyOp9
 70
     1
102
RTVSPropertyOp10
 70
     1
102
RTVSPropertyOp11
 70
     1
102
RTVSPropertyOp12
 70
     1
102
RTVSPropertyOp13
 70
     1
102
RTVSPropertyOp14
 70
     1
102
RTVSPropertyOp15
 70
     1
102
RTVSPropertyOp16
 70
     1
102
RTVSPropertyOp17
 70
     1
102
RTVSPropertyOp18
 70
     1
102
RTVSPropertyOp19
 70
     1
102
RTVSPropertyOp20
 70
     1
102
RTVSPropertyOp21
 70
     1
102
RTVSPropertyOp22
 70
     1
102
RTVSPropertyOp23
 70
     1
102
RTVSPropertyOp24
 70
     1
102
RTVSPropertyOp25
 70
     1
102
RTVSPropertyOp26
 70
     1
102
RTVSPropertyOp27
 70
     1
102
RTVSPropertyOp28
 70
     1
102
RTVSPropertyOp29
 70
     1
102
RTVSPropertyOp30
 70
     1
102
RTVSPropertyOp31
 70
     1
102
RTVSPropertyOp32
 70
     1
102
RTVSPropertyOp33
 70
     1
102
RTVSPropertyOp34
 70
     1
102
RTVSPropertyOp35
 70
     1
102
RTVSPropertyOp36
 70
     1
102
RTVSPropertyOp37
 70
     1
102
RTVSPropertyOp38
 70
     1
102
RTVSPropertyOp39
 70
     1
102
RTVSPropertyOp40
 70
     1
102
RTVSPropertyOp41
 70
     1
102
RTVSPropertyOp42
 70
     1
102
RTVSPropertyOp43
 70
     1
102
RTVSPropertyOp44
 70
     1
102
RTVSPropertyOp45
 70
     1
102
RTVSPropertyOp46
 70
     1
102
RTVSPropertyOp47
 70
     1
102
RTVSPropertyOp48
 70
     1
102
RTVSPropertyOp49
 70
     1
102
RTVSPropertyOp50
 70
     1
102
RTVSPropertyOp51
 70
     0
102
RTVSPropertyOp52
 70
     0
102
RTVSPropertyOp53
 70
     1
102
RTVSPropertyOp54
 70
     1
102
RTVSPropertyOp55
 70
     1
102
RTVSPropertyOp56
 70
     1
102
RTVSPropertyOp57
 70
     1
102
RTVSPropertyOp58
 70
     1
102
RTVSPropertyOp59
 70
     1
102
RTVSPropertyOp60
 70
     1
102
RTVSPropertyOp61
 70
     1
102
RTVSPropertyOp62
 70
     1
  0
XRECORD
  5
67F
102
{ACAD_REACTORS
330
67E
102
}
330
67E
100
AcDbXrecord
280
     1
102
RTVSPost2010Prop28
280
     0
102
RTVSPost2010PropOp28
 70
     1
102
RTVSPost2010Prop29
280
     1
102
RTVSPost2010PropOp29
 70
     1
102
RTVSPost2010Prop30
280
     1
102
RTVSPost2010PropOp30
 70
     1
102
RTVSPost2010Prop31
280
     0
102
RTVSPost2010PropOp31
 70
     1
102
RTVSPost2010Prop32
280
     0
102
RTVSPost2010PropOp32
 70
     1
102
RTVSPost2010Prop33
280
     0
102
RTVSPost2010PropOp33
 70
     1
102
RTVSPost2010Prop34
280
     0
102
RTVSPost2010PropOp34
 70
     1
102
RTVSPost2010Prop35
280
     0
102
RTVSPost2010PropOp35
 70
     1
102
RTVSPost2010Prop36
280
     0
102
RTVSPost2010PropOp36
 70
     1
102
RTVSPost2010Prop37
 90
       50
102
RTVSPost2010PropOp37
 70
     1
102
RTVSPost2010Prop38
140
0.0
102
RTVSPost2010PropOp38
 70
     1
102
RTVSPost2010Prop39
140
1.0
102
RTVSPost2010PropOp39
 70
     1
102
RTVSPost2010Prop40
 90
        0
102
RTVSPost2010PropOp40
 70
     1
102
RTVSPost2010Prop41ColorIndex
 90
       18
102
RTVSPost2010Prop41ColorRGB
 90
        0
102
RTVSPost2010PropOp41
 70
     1
102
RTVSPost2010Prop42
 90
       50
102
RTVSPost2010PropOp42
 70
     1
102
RTVSPost2010Prop43
 90
        3
102
RTVSPost2010PropOp43
 70
     1
102
RTVSPost2010Prop44ColorIndex
 90
        5
102
RTVSPost2010Prop44ColorRGB
 90
      255
102
RTVSPost2010PropOp44
 70
     1
102
RTVSPost2010Prop45
280
     0
102
RTVSPost2010PropOp45
 70
     1
102
RTVSPost2010Prop46
 90
       50
102
RTVSPost2010PropOp46
 70
     1
102
RTVSPost2010Prop47
 90
       50
102
RTVSPost2010PropOp47
 70
     1
102
RTVSPost2010Prop48
 90
       50
102
RTVSPost2010PropOp48
 70
     1
102
RTVSPost2010Prop49
280
     0
102
RTVSPost2010PropOp49
 70
     1
102
RTVSPost2010Prop50
 90
       50
102
RTVSPost2010PropOp50
 70
     1
102
RTVSPost2010Prop51ColorIndex
 90
      256
102
RTVSPost2010Prop51ColorRGB
 90
-16777216
102
RTVSPost2010PropOp51
 70
     0
102
RTVSPost2010Prop52
140
1.0
102
RTVSPost2010PropOp52
 70
     0
102
RTVSPost2010Prop53
 90
        2
102
RTVSPost2010PropOp53
 70
     1
102
RTVSPost2010Prop54
  1
strokes_ogs.tif
102
RTVSPost2010PropOp54
 70
     1
102
RTVSPost2010Prop55
280
     0
102
RTVSPost2010PropOp55
 70
     1
102
RTVSPost2010Prop56
140
1.0
102
RTVSPost2010PropOp56
 70
     1
102
RTVSPost2010Prop57
140
1.0
102
RTVSPost2010PropOp57
 70
     1
102
RTVSPropertyOp0
 70
     1
102
RTVSPropertyOp1
 70
     1
102
RTVSPropertyOp2
 70
     1
102
RTVSPropertyOp3
 70
     1
102
RTVSPropertyOp4
 70
     1
102
RTVSPropertyOp5
 70
     1
102
RTVSPropertyOp6
 70
     1
102
RTVSPropertyOp7
 70
     1
102
RTVSPropertyOp8
 70
     1
102
RTVSPropertyOp9
 70
     1
102
RTVSPropertyOp10
 70
     1
102
RTVSPropertyOp11
 70
     1
102
RTVSPropertyOp12
 70
     1
102
RTVSPropertyOp13
 70
     1
102
RTVSPropertyOp14
 70
     1
102
RTVSPropertyOp15
 70
     1
102
RTVSPropertyOp16
 70
     1
102
RTVSPropertyOp17
 70
     1
102
RTVSPropertyOp18
 70
     1
102
RTVSPropertyOp19
 70
     1
102
RTVSPropertyOp20
 70
     1
102
RTVSPropertyOp21
 70
     1
102
RTVSPropertyOp22
 70
     1
102
RTVSPropertyOp23
 70
     1
102
RTVSPropertyOp24
 70
     1
102
RTVSPropertyOp25
 70
     1
102
RTVSPropertyOp26
 70
     1
102
RTVSPropertyOp27
 70
     1
102
RTVSPropertyOp28
 70
     1
102
RTVSPropertyOp29
 70
     1
102
RTVSPropertyOp30
 70
     1
102
RTVSPropertyOp31
 70
     1
102
RTVSPropertyOp32
 70
     1
102
RTVSPropertyOp33
 70
     1
102
RTVSPropertyOp34
 70
     1
102
RTVSPropertyOp35
 70
     1
102
RTVSPropertyOp36
 70
     1
102
RTVSPropertyOp37
 70
     1
102
RTVSPropertyOp38
 70
     1
102
RTVSPropertyOp39
 70
     1
102
RTVSPropertyOp40
 70
     1
102
RTVSPropertyOp41
 70
     1
102
RTVSPropertyOp42
 70
     1
102
RTVSPropertyOp43
 70
     1
102
RTVSPropertyOp44
 70
     1
102
RTVSPropertyOp45
 70
     1
102
RTVSPropertyOp46
 70
     1
102
RTVSPropertyOp47
 70
     1
102
RTVSPropertyOp48
 70
     1
102
RTVSPropertyOp49
 70
     1
102
RTVSPropertyOp50
 70
     1
102
RTVSPropertyOp51
 70
     0
102
RTVSPropertyOp52
 70
     0
102
RTVSPropertyOp53
 70
     1
102
RTVSPropertyOp54
 70
     1
102
RTVSPropertyOp55
 70
     1
102
RTVSPropertyOp56
 70
     1
102
RTVSPropertyOp57
 70
     1
102
RTVSPropertyOp58
 70
     1
102
RTVSPropertyOp59
 70
     1
102
RTVSPropertyOp60
 70
     1
102
RTVSPropertyOp61
 70
     1
102
RTVSPropertyOp62
 70
     1
  0
XRECORD
  5
687
102
{ACAD_REACTORS
330
686
102
}
330
686
100
AcDbXrecord
280
     1
102
RTVSPost2010Prop28
280
     0
102
RTVSPost2010PropOp28
 70
     1
102
RTVSPost2010Prop29
280
     1
102
RTVSPost2010PropOp29
 70
     1
102
RTVSPost2010Prop30
280
     1
102
RTVSPost2010PropOp30
 70
     1
102
RTVSPost2010Prop31
280
     0
102
RTVSPost2010PropOp31
 70
     1
102
RTVSPost2010Prop32
280
     0
102
RTVSPost2010PropOp32
 70
     1
102
RTVSPost2010Prop33
280
     0
102
RTVSPost2010PropOp33
 70
     1
102
RTVSPost2010Prop34
280
     0
102
RTVSPost2010PropOp34
 70
     1
102
RTVSPost2010Prop35
280
     0
102
RTVSPost2010PropOp35
 70
     1
102
RTVSPost2010Prop36
280
     0
102
RTVSPost2010PropOp36
 70
     1
102
RTVSPost2010Prop37
 90
       50
102
RTVSPost2010PropOp37
 70
     1
102
RTVSPost2010Prop38
140
0.0
102
RTVSPost2010PropOp38
 70
     1
102
RTVSPost2010Prop39
140
1.0
102
RTVSPost2010PropOp39
 70
     1
102
RTVSPost2010Prop40
 90
        0
102
RTVSPost2010PropOp40
 70
     1
102
RTVSPost2010Prop41ColorIndex
 90
       18
102
RTVSPost2010Prop41ColorRGB
 90
        0
102
RTVSPost2010PropOp41
 70
     1
102
RTVSPost2010Prop42
 90
       50
102
RTVSPost2010PropOp42
 70
     1
102
RTVSPost2010Prop43
 90
        3
102
RTVSPost2010PropOp43
 70
     1
102
RTVSPost2010Prop44ColorIndex
 90
        5
102
RTVSPost2010Prop44ColorRGB
 90
      255
102
RTVSPost2010PropOp44
 70
     1
102
RTVSPost2010Prop45
280
     0
102
RTVSPost2010PropOp45
 70
     1
102
RTVSPost2010Prop46
 90
       50
102
RTVSPost2010PropOp46
 70
     1
102
RTVSPost2010Prop47
 90
       50
102
RTVSPost2010PropOp47
 70
     1
102
RTVSPost2010Prop48
 90
       50
102
RTVSPost2010PropOp48
 70
     1
102
RTVSPost2010Prop49
280
     0
102
RTVSPost2010PropOp49
 70
     1
102
RTVSPost2010Prop50
 90
       50
102
RTVSPost2010PropOp50
 70
     1
102
RTVSPost2010Prop51ColorIndex
 90
      256
102
RTVSPost2010Prop51ColorRGB
 90
-16777216
102
RTVSPost2010PropOp51
 70
     0
102
RTVSPost2010Prop52
140
1.0
102
RTVSPost2010PropOp52
 70
     0
102
RTVSPost2010Prop53
 90
        2
102
RTVSPost2010PropOp53
 70
     1
102
RTVSPost2010Prop54
  1
strokes_ogs.tif
102
RTVSPost2010PropOp54
 70
     1
102
RTVSPost2010Prop55
280
     0
102
RTVSPost2010PropOp55
 70
     1
102
RTVSPost2010Prop56
140
1.0
102
RTVSPost2010PropOp56
 70
     1
102
RTVSPost2010Prop57
140
1.0
102
RTVSPost2010PropOp57
 70
     1
102
RTVSPropertyOp0
 70
     1
102
RTVSPropertyOp1
 70
     1
102
RTVSPropertyOp2
 70
     1
102
RTVSPropertyOp3
 70
     1
102
RTVSPropertyOp4
 70
     1
102
RTVSPropertyOp5
 70
     1
102
RTVSPropertyOp6
 70
     1
102
RTVSPropertyOp7
 70
     1
102
RTVSPropertyOp8
 70
     1
102
RTVSPropertyOp9
 70
     1
102
RTVSPropertyOp10
 70
     1
102
RTVSPropertyOp11
 70
     1
102
RTVSPropertyOp12
 70
     1
102
RTVSPropertyOp13
 70
     1
102
RTVSPropertyOp14
 70
     1
102
RTVSPropertyOp15
 70
     1
102
RTVSPropertyOp16
 70
     1
102
RTVSPropertyOp17
 70
     1
102
RTVSPropertyOp18
 70
     1
102
RTVSPropertyOp19
 70
     1
102
RTVSPropertyOp20
 70
     1
102
RTVSPropertyOp21
 70
     1
102
RTVSPropertyOp22
 70
     1
102
RTVSPropertyOp23
 70
     1
102
RTVSPropertyOp24
 70
     1
102
RTVSPropertyOp25
 70
     1
102
RTVSPropertyOp26
 70
     1
102
RTVSPropertyOp27
 70
     1
102
RTVSPropertyOp28
 70
     1
102
RTVSPropertyOp29
 70
     1
102
RTVSPropertyOp30
 70
     1
102
RTVSPropertyOp31
 70
     1
102
RTVSPropertyOp32
 70
     1
102
RTVSPropertyOp33
 70
     1
102
RTVSPropertyOp34
 70
     1
102
RTVSPropertyOp35
 70
     1
102
RTVSPropertyOp36
 70
     1
102
RTVSPropertyOp37
 70
     1
102
RTVSPropertyOp38
 70
     1
102
RTVSPropertyOp39
 70
     1
102
RTVSPropertyOp40
 70
     1
102
RTVSPropertyOp41
 70
     1
102
RTVSPropertyOp42
 70
     1
102
RTVSPropertyOp43
 70
     1
102
RTVSPropertyOp44
 70
     1
102
RTVSPropertyOp45
 70
     1
102
RTVSPropertyOp46
 70
     1
102
RTVSPropertyOp47
 70
     1
102
RTVSPropertyOp48
 70
     1
102
RTVSPropertyOp49
 70
     1
102
RTVSPropertyOp50
 70
     1
102
RTVSPropertyOp51
 70
     0
102
RTVSPropertyOp52
 70
     0
102
RTVSPropertyOp53
 70
     1
102
RTVSPropertyOp54
 70
     1
102
RTVSPropertyOp55
 70
     1
102
RTVSPropertyOp56
 70
     1
102
RTVSPropertyOp57
 70
     1
102
RTVSPropertyOp58
 70
     1
102
RTVSPropertyOp59
 70
     1
102
RTVSPropertyOp60
 70
     1
102
RTVSPropertyOp61
 70
     1
102
RTVSPropertyOp62
 70
     1
  0
XRECORD
  5
699
102
{ACAD_REACTORS
330
698
102
}
330
698
100
AcDbXrecord
280
     1
102
RTVSPost2010Prop28
280
     0
102
RTVSPost2010PropOp28
 70
     1
102
RTVSPost2010Prop29
280
     1
102
RTVSPost2010PropOp29
 70
     1
102
RTVSPost2010Prop30
280
     1
102
RTVSPost2010PropOp30
 70
     1
102
RTVSPost2010Prop31
280
     0
102
RTVSPost2010PropOp31
 70
     1
102
RTVSPost2010Prop32
280
     0
102
RTVSPost2010PropOp32
 70
     1
102
RTVSPost2010Prop33
280
     0
102
RTVSPost2010PropOp33
 70
     1
102
RTVSPost2010Prop34
280
     0
102
RTVSPost2010PropOp34
 70
     1
102
RTVSPost2010Prop35
280
     0
102
RTVSPost2010PropOp35
 70
     1
102
RTVSPost2010Prop36
280
     0
102
RTVSPost2010PropOp36
 70
     1
102
RTVSPost2010Prop37
 90
       50
102
RTVSPost2010PropOp37
 70
     1
102
RTVSPost2010Prop38
140
0.0
102
RTVSPost2010PropOp38
 70
     1
102
RTVSPost2010Prop39
140
1.0
102
RTVSPost2010PropOp39
 70
     1
102
RTVSPost2010Prop40
 90
        0
102
RTVSPost2010PropOp40
 70
     1
102
RTVSPost2010Prop41ColorIndex
 90
       18
102
RTVSPost2010Prop41ColorRGB
 90
        0
102
RTVSPost2010PropOp41
 70
     1
102
RTVSPost2010Prop42
 90
       50
102
RTVSPost2010PropOp42
 70
     1
102
RTVSPost2010Prop43
 90
        3
102
RTVSPost2010PropOp43
 70
     1
102
RTVSPost2010Prop44ColorIndex
 90
        5
102
RTVSPost2010Prop44ColorRGB
 90
      255
102
RTVSPost2010PropOp44
 70
     1
102
RTVSPost2010Prop45
280
     0
102
RTVSPost2010PropOp45
 70
     1
102
RTVSPost2010Prop46
 90
       50
102
RTVSPost2010PropOp46
 70
     1
102
RTVSPost2010Prop47
 90
       50
102
RTVSPost2010PropOp47
 70
     1
102
RTVSPost2010Prop48
 90
       50
102
RTVSPost2010PropOp48
 70
     1
102
RTVSPost2010Prop49
280
     0
102
RTVSPost2010PropOp49
 70
     1
102
RTVSPost2010Prop50
 90
       50
102
RTVSPost2010PropOp50
 70
     1
102
RTVSPost2010Prop51ColorIndex
 90
      256
102
RTVSPost2010Prop51ColorRGB
 90
-16777216
102
RTVSPost2010PropOp51
 70
     0
102
RTVSPost2010Prop52
140
1.0
102
RTVSPost2010PropOp52
 70
     0
102
RTVSPost2010Prop53
 90
        2
102
RTVSPost2010PropOp53
 70
     1
102
RTVSPost2010Prop54
  1
strokes_ogs.tif
102
RTVSPost2010PropOp54
 70
     1
102
RTVSPost2010Prop55
280
     0
102
RTVSPost2010PropOp55
 70
     1
102
RTVSPost2010Prop56
140
1.0
102
RTVSPost2010PropOp56
 70
     1
102
RTVSPost2010Prop57
140
1.0
102
RTVSPost2010PropOp57
 70
     1
102
RTVSPropertyOp0
 70
     0
102
RTVSPropertyOp1
 70
     0
102
RTVSPropertyOp2
 70
     0
102
RTVSPropertyOp3
 70
     0
102
RTVSPropertyOp4
 70
     0
102
RTVSPropertyOp5
 70
     0
102
RTVSPropertyOp6
 70
     0
102
RTVSPropertyOp7
 70
     0
102
RTVSPropertyOp8
 70
     0
102
RTVSPropertyOp9
 70
     0
102
RTVSPropertyOp10
 70
     0
102
RTVSPropertyOp11
 70
     0
102
RTVSPropertyOp12
 70
     0
102
RTVSPropertyOp13
 70
     0
102
RTVSPropertyOp14
 70
     2
102
RTVSPropertyOp15
 70
     0
102
RTVSPropertyOp16
 70
     0
102
RTVSPropertyOp17
 70
     0
102
RTVSPropertyOp18
 70
     0
102
RTVSPropertyOp19
 70
     0
102
RTVSPropertyOp20
 70
     0
102
RTVSPropertyOp21
 70
     0
102
RTVSPropertyOp22
 70
     0
102
RTVSPropertyOp23
 70
     0
102
RTVSPropertyOp24
 70
     0
102
RTVSPropertyOp25
 70
     0
102
RTVSPropertyOp26
 70
     0
102
RTVSPropertyOp27
 70
     0
102
RTVSPropertyOp28
 70
     1
102
RTVSPropertyOp29
 70
     1
102
RTVSPropertyOp30
 70
     1
102
RTVSPropertyOp31
 70
     1
102
RTVSPropertyOp32
 70
     1
102
RTVSPropertyOp33
 70
     1
102
RTVSPropertyOp34
 70
     1
102
RTVSPropertyOp35
 70
     1
102
RTVSPropertyOp36
 70
     1
102
RTVSPropertyOp37
 70
     1
102
RTVSPropertyOp38
 70
     1
102
RTVSPropertyOp39
 70
     1
102
RTVSPropertyOp40
 70
     1
102
RTVSPropertyOp41
 70
     1
102
RTVSPropertyOp42
 70
     1
102
RTVSPropertyOp43
 70
     1
102
RTVSPropertyOp44
 70
     1
102
RTVSPropertyOp45
 70
     1
102
RTVSPropertyOp46
 70
     1
102
RTVSPropertyOp47
 70
     1
102
RTVSPropertyOp48
 70
     1
102
RTVSPropertyOp49
 70
     1
102
RTVSPropertyOp50
 70
     1
102
RTVSPropertyOp51
 70
     0
102
RTVSPropertyOp52
 70
     0
102
RTVSPropertyOp53
 70
     1
102
RTVSPropertyOp54
 70
     1
102
RTVSPropertyOp55
 70
     1
102
RTVSPropertyOp56
 70
     1
102
RTVSPropertyOp57
 70
     1
102
RTVSPropertyOp58
 70
     1
102
RTVSPropertyOp59
 70
     1
102
RTVSPropertyOp60
 70
     1
102
RTVSPropertyOp61
 70
     1
102
RTVSPropertyOp62
 70
     1
  0
XRECORD
  5
693
102
{ACAD_REACTORS
330
692
102
}
330
692
100
AcDbXrecord
280
     1
102
RTVSPost2010Prop28
280
     0
102
RTVSPost2010PropOp28
 70
     1
102
RTVSPost2010Prop29
280
     1
102
RTVSPost2010PropOp29
 70
     1
102
RTVSPost2010Prop30
280
     1
102
RTVSPost2010PropOp30
 70
     1
102
RTVSPost2010Prop31
280
     0
102
RTVSPost2010PropOp31
 70
     1
102
RTVSPost2010Prop32
280
     0
102
RTVSPost2010PropOp32
 70
     1
102
RTVSPost2010Prop33
280
     0
102
RTVSPost2010PropOp33
 70
     1
102
RTVSPost2010Prop34
280
     0
102
RTVSPost2010PropOp34
 70
     1
102
RTVSPost2010Prop35
280
     0
102
RTVSPost2010PropOp35
 70
     1
102
RTVSPost2010Prop36
280
     0
102
RTVSPost2010PropOp36
 70
     1
102
RTVSPost2010Prop37
 90
       50
102
RTVSPost2010PropOp37
 70
     1
102
RTVSPost2010Prop38
140
0.0
102
RTVSPost2010PropOp38
 70
     1
102
RTVSPost2010Prop39
140
1.0
102
RTVSPost2010PropOp39
 70
     1
102
RTVSPost2010Prop40
 90
        0
102
RTVSPost2010PropOp40
 70
     1
102
RTVSPost2010Prop41ColorIndex
 90
       18
102
RTVSPost2010Prop41ColorRGB
 90
        0
102
RTVSPost2010PropOp41
 70
     1
102
RTVSPost2010Prop42
 90
       50
102
RTVSPost2010PropOp42
 70
     1
102
RTVSPost2010Prop43
 90
        3
102
RTVSPost2010PropOp43
 70
     1
102
RTVSPost2010Prop44ColorIndex
 90
        5
102
RTVSPost2010Prop44ColorRGB
 90
      255
102
RTVSPost2010PropOp44
 70
     1
102
RTVSPost2010Prop45
280
     0
102
RTVSPost2010PropOp45
 70
     1
102
RTVSPost2010Prop46
 90
       50
102
RTVSPost2010PropOp46
 70
     1
102
RTVSPost2010Prop47
 90
       50
102
RTVSPost2010PropOp47
 70
     1
102
RTVSPost2010Prop48
 90
       50
102
RTVSPost2010PropOp48
 70
     1
102
RTVSPost2010Prop49
280
     0
102
RTVSPost2010PropOp49
 70
     1
102
RTVSPost2010Prop50
 90
       50
102
RTVSPost2010PropOp50
 70
     1
102
RTVSPost2010Prop51ColorIndex
 90
      256
102
RTVSPost2010Prop51ColorRGB
 90
-16777216
102
RTVSPost2010PropOp51
 70
     0
102
RTVSPost2010Prop52
140
1.0
102
RTVSPost2010PropOp52
 70
     0
102
RTVSPost2010Prop53
 90
        2
102
RTVSPost2010PropOp53
 70
     1
102
RTVSPost2010Prop54
  1
strokes_ogs.tif
102
RTVSPost2010PropOp54
 70
     1
102
RTVSPost2010Prop55
280
     0
102
RTVSPost2010PropOp55
 70
     1
102
RTVSPost2010Prop56
140
1.0
102
RTVSPost2010PropOp56
 70
     1
102
RTVSPost2010Prop57
140
1.0
102
RTVSPost2010PropOp57
 70
     1
102
RTVSPropertyOp0
 70
     1
102
RTVSPropertyOp1
 70
     1
102
RTVSPropertyOp2
 70
     1
102
RTVSPropertyOp3
 70
     1
102
RTVSPropertyOp4
 70
     1
102
RTVSPropertyOp5
 70
     1
102
RTVSPropertyOp6
 70
     1
102
RTVSPropertyOp7
 70
     1
102
RTVSPropertyOp8
 70
     1
102
RTVSPropertyOp9
 70
     1
102
RTVSPropertyOp10
 70
     1
102
RTVSPropertyOp11
 70
     1
102
RTVSPropertyOp12
 70
     1
102
RTVSPropertyOp13
 70
     1
102
RTVSPropertyOp14
 70
     1
102
RTVSPropertyOp15
 70
     1
102
RTVSPropertyOp16
 70
     1
102
RTVSPropertyOp17
 70
     1
102
RTVSPropertyOp18
 70
     1
102
RTVSPropertyOp19
 70
     1
102
RTVSPropertyOp20
 70
     1
102
RTVSPropertyOp21
 70
     1
102
RTVSPropertyOp22
 70
     1
102
RTVSPropertyOp23
 70
     1
102
RTVSPropertyOp24
 70
     1
102
RTVSPropertyOp25
 70
     1
102
RTVSPropertyOp26
 70
     1
102
RTVSPropertyOp27
 70
     1
102
RTVSPropertyOp28
 70
     1
102
RTVSPropertyOp29
 70
     1
102
RTVSPropertyOp30
 70
     1
102
RTVSPropertyOp31
 70
     1
102
RTVSPropertyOp32
 70
     1
102
RTVSPropertyOp33
 70
     1
102
RTVSPropertyOp34
 70
     1
102
RTVSPropertyOp35
 70
     1
102
RTVSPropertyOp36
 70
     1
102
RTVSPropertyOp37
 70
     1
102
RTVSPropertyOp38
 70
     1
102
RTVSPropertyOp39
 70
     1
102
RTVSPropertyOp40
 70
     1
102
RTVSPropertyOp41
 70
     1
102
RTVSPropertyOp42
 70
     1
102
RTVSPropertyOp43
 70
     1
102
RTVSPropertyOp44
 70
     1
102
RTVSPropertyOp45
 70
     1
102
RTVSPropertyOp46
 70
     1
102
RTVSPropertyOp47
 70
     1
102
RTVSPropertyOp48
 70
     1
102
RTVSPropertyOp49
 70
     1
102
RTVSPropertyOp50
 70
     1
102
RTVSPropertyOp51
 70
     0
102
RTVSPropertyOp52
 70
     0
102
RTVSPropertyOp53
 70
     1
102
RTVSPropertyOp54
 70
     1
102
RTVSPropertyOp55
 70
     1
102
RTVSPropertyOp56
 70
     1
102
RTVSPropertyOp57
 70
     1
102
RTVSPropertyOp58
 70
     1
102
RTVSPropertyOp59
 70
     1
102
RTVSPropertyOp60
 70
     1
102
RTVSPropertyOp61
 70
     1
102
RTVSPropertyOp62
 70
     1
  0
XRECORD
  5
69B
102
{ACAD_REACTORS
330
69A
102
}
330
69A
100
AcDbXrecord
280
     1
102
RTVSPost2010Prop28
280
     0
102
RTVSPost2010PropOp28
 70
     1
102
RTVSPost2010Prop29
280
     1
102
RTVSPost2010PropOp29
 70
     1
102
RTVSPost2010Prop30
280
     1
102
RTVSPost2010PropOp30
 70
     1
102
RTVSPost2010Prop31
280
     0
102
RTVSPost2010PropOp31
 70
     1
102
RTVSPost2010Prop32
280
     0
102
RTVSPost2010PropOp32
 70
     1
102
RTVSPost2010Prop33
280
     0
102
RTVSPost2010PropOp33
 70
     1
102
RTVSPost2010Prop34
280
     0
102
RTVSPost2010PropOp34
 70
     1
102
RTVSPost2010Prop35
280
     0
102
RTVSPost2010PropOp35
 70
     1
102
RTVSPost2010Prop36
280
     0
102
RTVSPost2010PropOp36
 70
     1
102
RTVSPost2010Prop37
 90
       50
102
RTVSPost2010PropOp37
 70
     1
102
RTVSPost2010Prop38
140
0.0
102
RTVSPost2010PropOp38
 70
     1
102
RTVSPost2010Prop39
140
1.0
102
RTVSPost2010PropOp39
 70
     1
102
RTVSPost2010Prop40
 90
        0
102
RTVSPost2010PropOp40
 70
     1
102
RTVSPost2010Prop41ColorIndex
 90
       18
102
RTVSPost2010Prop41ColorRGB
 90
        0
102
RTVSPost2010PropOp41
 70
     1
102
RTVSPost2010Prop42
 90
       50
102
RTVSPost2010PropOp42
 70
     1
102
RTVSPost2010Prop43
 90
        3
102
RTVSPost2010PropOp43
 70
     1
102
RTVSPost2010Prop44ColorIndex
 90
        5
102
RTVSPost2010Prop44ColorRGB
 90
      255
102
RTVSPost2010PropOp44
 70
     1
102
RTVSPost2010Prop45
280
     0
102
RTVSPost2010PropOp45
 70
     1
102
RTVSPost2010Prop46
 90
       50
102
RTVSPost2010PropOp46
 70
     1
102
RTVSPost2010Prop47
 90
       50
102
RTVSPost2010PropOp47
 70
     1
102
RTVSPost2010Prop48
 90
       50
102
RTVSPost2010PropOp48
 70
     1
102
RTVSPost2010Prop49
280
     0
102
RTVSPost2010PropOp49
 70
     1
102
RTVSPost2010Prop50
 90
       50
102
RTVSPost2010PropOp50
 70
     1
102
RTVSPost2010Prop51ColorIndex
 90
      256
102
RTVSPost2010Prop51ColorRGB
 90
-16777216
102
RTVSPost2010PropOp51
 70
     0
102
RTVSPost2010Prop52
140
1.0
102
RTVSPost2010PropOp52
 70
     0
102
RTVSPost2010Prop53
 90
        2
102
RTVSPost2010PropOp53
 70
     1
102
RTVSPost2010Prop54
  1
strokes_ogs.tif
102
RTVSPost2010PropOp54
 70
     1
102
RTVSPost2010Prop55
280
     0
102
RTVSPost2010PropOp55
 70
     1
102
RTVSPost2010Prop56
140
1.0
102
RTVSPost2010PropOp56
 70
     1
102
RTVSPost2010Prop57
140
1.0
102
RTVSPost2010PropOp57
 70
     1
102
RTVSPropertyOp0
 70
     0
102
RTVSPropertyOp1
 70
     0
102
RTVSPropertyOp2
 70
     0
102
RTVSPropertyOp3
 70
     0
102
RTVSPropertyOp4
 70
     0
102
RTVSPropertyOp5
 70
     0
102
RTVSPropertyOp6
 70
     0
102
RTVSPropertyOp7
 70
     0
102
RTVSPropertyOp8
 70
     0
102
RTVSPropertyOp9
 70
     0
102
RTVSPropertyOp10
 70
     0
102
RTVSPropertyOp11
 70
     0
102
RTVSPropertyOp12
 70
     0
102
RTVSPropertyOp13
 70
     0
102
RTVSPropertyOp14
 70
     2
102
RTVSPropertyOp15
 70
     0
102
RTVSPropertyOp16
 70
     0
102
RTVSPropertyOp17
 70
     0
102
RTVSPropertyOp18
 70
     0
102
RTVSPropertyOp19
 70
     0
102
RTVSPropertyOp20
 70
     0
102
RTVSPropertyOp21
 70
     0
102
RTVSPropertyOp22
 70
     0
102
RTVSPropertyOp23
 70
     0
102
RTVSPropertyOp24
 70
     0
102
RTVSPropertyOp25
 70
     0
102
RTVSPropertyOp26
 70
     0
102
RTVSPropertyOp27
 70
     0
102
RTVSPropertyOp28
 70
     1
102
RTVSPropertyOp29
 70
     1
102
RTVSPropertyOp30
 70
     1
102
RTVSPropertyOp31
 70
     1
102
RTVSPropertyOp32
 70
     1
102
RTVSPropertyOp33
 70
     1
102
RTVSPropertyOp34
 70
     1
102
RTVSPropertyOp35
 70
     1
102
RTVSPropertyOp36
 70
     1
102
RTVSPropertyOp37
 70
     1
102
RTVSPropertyOp38
 70
     1
102
RTVSPropertyOp39
 70
     1
102
RTVSPropertyOp40
 70
     1
102
RTVSPropertyOp41
 70
     1
102
RTVSPropertyOp42
 70
     1
102
RTVSPropertyOp43
 70
     1
102
RTVSPropertyOp44
 70
     1
102
RTVSPropertyOp45
 70
     1
102
RTVSPropertyOp46
 70
     1
102
RTVSPropertyOp47
 70
     1
102
RTVSPropertyOp48
 70
     1
102
RTVSPropertyOp49
 70
     1
102
RTVSPropertyOp50
 70
     1
102
RTVSPropertyOp51
 70
     0
102
RTVSPropertyOp52
 70
     0
102
RTVSPropertyOp53
 70
     1
102
RTVSPropertyOp54
 70
     1
102
RTVSPropertyOp55
 70
     1
102
RTVSPropertyOp56
 70
     1
102
RTVSPropertyOp57
 70
     1
102
RTVSPropertyOp58
 70
     1
102
RTVSPropertyOp59
 70
     1
102
RTVSPropertyOp60
 70
     1
102
RTVSPropertyOp61
 70
     1
102
RTVSPropertyOp62
 70
     1
  0
XRECORD
  5
68B
102
{ACAD_REACTORS
330
68A
102
}
330
68A
100
AcDbXrecord
280
     1
102
RTVSPost2010Prop28
280
     0
102
RTVSPost2010PropOp28
 70
     1
102
RTVSPost2010Prop29
280
     1
102
RTVSPost2010PropOp29
 70
     1
102
RTVSPost2010Prop30
280
     1
102
RTVSPost2010PropOp30
 70
     1
102
RTVSPost2010Prop31
280
     0
102
RTVSPost2010PropOp31
 70
     1
102
RTVSPost2010Prop32
280
     0
102
RTVSPost2010PropOp32
 70
     1
102
RTVSPost2010Prop33
280
     0
102
RTVSPost2010PropOp33
 70
     1
102
RTVSPost2010Prop34
280
     0
102
RTVSPost2010PropOp34
 70
     1
102
RTVSPost2010Prop35
280
     0
102
RTVSPost2010PropOp35
 70
     1
102
RTVSPost2010Prop36
280
     0
102
RTVSPost2010PropOp36
 70
     1
102
RTVSPost2010Prop37
 90
       50
102
RTVSPost2010PropOp37
 70
     1
102
RTVSPost2010Prop38
140
0.0
102
RTVSPost2010PropOp38
 70
     1
102
RTVSPost2010Prop39
140
1.0
102
RTVSPost2010PropOp39
 70
     1
102
RTVSPost2010Prop40
 90
        0
102
RTVSPost2010PropOp40
 70
     1
102
RTVSPost2010Prop41ColorIndex
 90
       18
102
RTVSPost2010Prop41ColorRGB
 90
        0
102
RTVSPost2010PropOp41
 70
     1
102
RTVSPost2010Prop42
 90
       50
102
RTVSPost2010PropOp42
 70
     1
102
RTVSPost2010Prop43
 90
        3
102
RTVSPost2010PropOp43
 70
     1
102
RTVSPost2010Prop44ColorIndex
 90
        5
102
RTVSPost2010Prop44ColorRGB
 90
      255
102
RTVSPost2010PropOp44
 70
     1
102
RTVSPost2010Prop45
280
     0
102
RTVSPost2010PropOp45
 70
     1
102
RTVSPost2010Prop46
 90
       50
102
RTVSPost2010PropOp46
 70
     1
102
RTVSPost2010Prop47
 90
       50
102
RTVSPost2010PropOp47
 70
     1
102
RTVSPost2010Prop48
 90
       50
102
RTVSPost2010PropOp48
 70
     1
102
RTVSPost2010Prop49
280
     0
102
RTVSPost2010PropOp49
 70
     1
102
RTVSPost2010Prop50
 90
       50
102
RTVSPost2010PropOp50
 70
     1
102
RTVSPost2010Prop51ColorIndex
 90
      256
102
RTVSPost2010Prop51ColorRGB
 90
-16777216
102
RTVSPost2010PropOp51
 70
     0
102
RTVSPost2010Prop52
140
1.0
102
RTVSPost2010PropOp52
 70
     0
102
RTVSPost2010Prop53
 90
        2
102
RTVSPost2010PropOp53
 70
     1
102
RTVSPost2010Prop54
  1
strokes_ogs.tif
102
RTVSPost2010PropOp54
 70
     1
102
RTVSPost2010Prop55
280
     0
102
RTVSPost2010PropOp55
 70
     1
102
RTVSPost2010Prop56
140
1.0
102
RTVSPost2010PropOp56
 70
     1
102
RTVSPost2010Prop57
140
1.0
102
RTVSPost2010PropOp57
 70
     1
102
RTVSPropertyOp0
 70
     1
102
RTVSPropertyOp1
 70
     1
102
RTVSPropertyOp2
 70
     1
102
RTVSPropertyOp3
 70
     1
102
RTVSPropertyOp4
 70
     1
102
RTVSPropertyOp5
 70
     1
102
RTVSPropertyOp6
 70
     1
102
RTVSPropertyOp7
 70
     1
102
RTVSPropertyOp8
 70
     1
102
RTVSPropertyOp9
 70
     1
102
RTVSPropertyOp10
 70
     1
102
RTVSPropertyOp11
 70
     1
102
RTVSPropertyOp12
 70
     1
102
RTVSPropertyOp13
 70
     1
102
RTVSPropertyOp14
 70
     1
102
RTVSPropertyOp15
 70
     1
102
RTVSPropertyOp16
 70
     1
102
RTVSPropertyOp17
 70
     1
102
RTVSPropertyOp18
 70
     1
102
RTVSPropertyOp19
 70
     1
102
RTVSPropertyOp20
 70
     1
102
RTVSPropertyOp21
 70
     1
102
RTVSPropertyOp22
 70
     1
102
RTVSPropertyOp23
 70
     1
102
RTVSPropertyOp24
 70
     1
102
RTVSPropertyOp25
 70
     1
102
RTVSPropertyOp26
 70
     1
102
RTVSPropertyOp27
 70
     1
102
RTVSPropertyOp28
 70
     1
102
RTVSPropertyOp29
 70
     1
102
RTVSPropertyOp30
 70
     1
102
RTVSPropertyOp31
 70
     1
102
RTVSPropertyOp32
 70
     1
102
RTVSPropertyOp33
 70
     1
102
RTVSPropertyOp34
 70
     1
102
RTVSPropertyOp35
 70
     1
102
RTVSPropertyOp36
 70
     1
102
RTVSPropertyOp37
 70
     1
102
RTVSPropertyOp38
 70
     1
102
RTVSPropertyOp39
 70
     1
102
RTVSPropertyOp40
 70
     1
102
RTVSPropertyOp41
 70
     1
102
RTVSPropertyOp42
 70
     1
102
RTVSPropertyOp43
 70
     1
102
RTVSPropertyOp44
 70
     1
102
RTVSPropertyOp45
 70
     1
102
RTVSPropertyOp46
 70
     1
102
RTVSPropertyOp47
 70
     1
102
RTVSPropertyOp48
 70
     1
102
RTVSPropertyOp49
 70
     1
102
RTVSPropertyOp50
 70
     1
102
RTVSPropertyOp51
 70
     0
102
RTVSPropertyOp52
 70
     0
102
RTVSPropertyOp53
 70
     1
102
RTVSPropertyOp54
 70
     1
102
RTVSPropertyOp55
 70
     1
102
RTVSPropertyOp56
 70
     1
102
RTVSPropertyOp57
 70
     1
102
RTVSPropertyOp58
 70
     1
102
RTVSPropertyOp59
 70
     1
102
RTVSPropertyOp60
 70
     1
102
RTVSPropertyOp61
 70
     1
102
RTVSPropertyOp62
 70
     1
  0
XRECORD
  5
6A7
102
{ACAD_REACTORS
330
6A6
102
}
330
6A6
100
AcDbXrecord
280
     1
102
RTVSPost2010Prop28
280
     0
102
RTVSPost2010PropOp28
 70
     1
102
RTVSPost2010Prop29
280
     1
102
RTVSPost2010PropOp29
 70
     1
102
RTVSPost2010Prop30
280
     1
102
RTVSPost2010PropOp30
 70
     1
102
RTVSPost2010Prop31
280
     0
102
RTVSPost2010PropOp31
 70
     1
102
RTVSPost2010Prop32
280
     0
102
RTVSPost2010PropOp32
 70
     1
102
RTVSPost2010Prop33
280
     0
102
RTVSPost2010PropOp33
 70
     1
102
RTVSPost2010Prop34
280
     0
102
RTVSPost2010PropOp34
 70
     1
102
RTVSPost2010Prop35
280
     0
102
RTVSPost2010PropOp35
 70
     1
102
RTVSPost2010Prop36
280
     0
102
RTVSPost2010PropOp36
 70
     1
102
RTVSPost2010Prop37
 90
       50
102
RTVSPost2010PropOp37
 70
     1
102
RTVSPost2010Prop38
140
0.0
102
RTVSPost2010PropOp38
 70
     1
102
RTVSPost2010Prop39
140
1.0
102
RTVSPost2010PropOp39
 70
     1
102
RTVSPost2010Prop40
 90
        0
102
RTVSPost2010PropOp40
 70
     1
102
RTVSPost2010Prop41ColorIndex
 90
       18
102
RTVSPost2010Prop41ColorRGB
 90
        0
102
RTVSPost2010PropOp41
 70
     1
102
RTVSPost2010Prop42
 90
       50
102
RTVSPost2010PropOp42
 70
     1
102
RTVSPost2010Prop43
 90
        3
102
RTVSPost2010PropOp43
 70
     1
102
RTVSPost2010Prop44ColorIndex
 90
        5
102
RTVSPost2010Prop44ColorRGB
 90
      255
102
RTVSPost2010PropOp44
 70
     1
102
RTVSPost2010Prop45
280
     0
102
RTVSPost2010PropOp45
 70
     1
102
RTVSPost2010Prop46
 90
       50
102
RTVSPost2010PropOp46
 70
     1
102
RTVSPost2010Prop47
 90
       50
102
RTVSPost2010PropOp47
 70
     1
102
RTVSPost2010Prop48
 90
       50
102
RTVSPost2010PropOp48
 70
     1
102
RTVSPost2010Prop49
280
     0
102
RTVSPost2010PropOp49
 70
     1
102
RTVSPost2010Prop50
 90
       50
102
RTVSPost2010PropOp50
 70
     1
102
RTVSPost2010Prop51ColorIndex
 90
      256
102
RTVSPost2010Prop51ColorRGB
 90
-16777216
102
RTVSPost2010PropOp51
 70
     0
102
RTVSPost2010Prop52
140
1.0
102
RTVSPost2010PropOp52
 70
     0
102
RTVSPost2010Prop53
 90
        2
102
RTVSPost2010PropOp53
 70
     1
102
RTVSPost2010Prop54
  1
strokes_ogs.tif
102
RTVSPost2010PropOp54
 70
     1
102
RTVSPost2010Prop55
280
     0
102
RTVSPost2010PropOp55
 70
     1
102
RTVSPost2010Prop56
140
1.0
102
RTVSPost2010PropOp56
 70
     1
102
RTVSPost2010Prop57
140
1.0
102
RTVSPost2010PropOp57
 70
     1
102
RTVSPropertyOp0
 70
     1
102
RTVSPropertyOp1
 70
     1
102
RTVSPropertyOp2
 70
     1
102
RTVSPropertyOp3
 70
     1
102
RTVSPropertyOp4
 70
     1
102
RTVSPropertyOp5
 70
     1
102
RTVSPropertyOp6
 70
     1
102
RTVSPropertyOp7
 70
     1
102
RTVSPropertyOp8
 70
     1
102
RTVSPropertyOp9
 70
     1
102
RTVSPropertyOp10
 70
     1
102
RTVSPropertyOp11
 70
     1
102
RTVSPropertyOp12
 70
     1
102
RTVSPropertyOp13
 70
     1
102
RTVSPropertyOp14
 70
     1
102
RTVSPropertyOp15
 70
     1
102
RTVSPropertyOp16
 70
     1
102
RTVSPropertyOp17
 70
     1
102
RTVSPropertyOp18
 70
     1
102
RTVSPropertyOp19
 70
     1
102
RTVSPropertyOp20
 70
     1
102
RTVSPropertyOp21
 70
     1
102
RTVSPropertyOp22
 70
     1
102
RTVSPropertyOp23
 70
     1
102
RTVSPropertyOp24
 70
     1
102
RTVSPropertyOp25
 70
     1
102
RTVSPropertyOp26
 70
     1
102
RTVSPropertyOp27
 70
     1
102
RTVSPropertyOp28
 70
     1
102
RTVSPropertyOp29
 70
     1
102
RTVSPropertyOp30
 70
     1
102
RTVSPropertyOp31
 70
     1
102
RTVSPropertyOp32
 70
     1
102
RTVSPropertyOp33
 70
     1
102
RTVSPropertyOp34
 70
     1
102
RTVSPropertyOp35
 70
     1
102
RTVSPropertyOp36
 70
     1
102
RTVSPropertyOp37
 70
     1
102
RTVSPropertyOp38
 70
     1
102
RTVSPropertyOp39
 70
     1
102
RTVSPropertyOp40
 70
     1
102
RTVSPropertyOp41
 70
     1
102
RTVSPropertyOp42
 70
     1
102
RTVSPropertyOp43
 70
     1
102
RTVSPropertyOp44
 70
     1
102
RTVSPropertyOp45
 70
     1
102
RTVSPropertyOp46
 70
     1
102
RTVSPropertyOp47
 70
     1
102
RTVSPropertyOp48
 70
     1
102
RTVSPropertyOp49
 70
     1
102
RTVSPropertyOp50
 70
     1
102
RTVSPropertyOp51
 70
     0
102
RTVSPropertyOp52
 70
     0
102
RTVSPropertyOp53
 70
     1
102
RTVSPropertyOp54
 70
     1
102
RTVSPropertyOp55
 70
     1
102
RTVSPropertyOp56
 70
     1
102
RTVSPropertyOp57
 70
     1
102
RTVSPropertyOp58
 70
     1
102
RTVSPropertyOp59
 70
     1
102
RTVSPropertyOp60
 70
     1
102
RTVSPropertyOp61
 70
     1
102
RTVSPropertyOp62
 70
     1
  0
XRECORD
  5
6A5
102
{ACAD_REACTORS
330
6A4
102
}
330
6A4
100
AcDbXrecord
280
     1
102
RTVSPost2010Prop28
280
     0
102
RTVSPost2010PropOp28
 70
     1
102
RTVSPost2010Prop29
280
     1
102
RTVSPost2010PropOp29
 70
     1
102
RTVSPost2010Prop30
280
     1
102
RTVSPost2010PropOp30
 70
     1
102
RTVSPost2010Prop31
280
     0
102
RTVSPost2010PropOp31
 70
     1
102
RTVSPost2010Prop32
280
     0
102
RTVSPost2010PropOp32
 70
     1
102
RTVSPost2010Prop33
280
     0
102
RTVSPost2010PropOp33
 70
     1
102
RTVSPost2010Prop34
280
     0
102
RTVSPost2010PropOp34
 70
     1
102
RTVSPost2010Prop35
280
     0
102
RTVSPost2010PropOp35
 70
     1
102
RTVSPost2010Prop36
280
     0
102
RTVSPost2010PropOp36
 70
     1
102
RTVSPost2010Prop37
 90
       50
102
RTVSPost2010PropOp37
 70
     1
102
RTVSPost2010Prop38
140
0.0
102
RTVSPost2010PropOp38
 70
     1
102
RTVSPost2010Prop39
140
1.0
102
RTVSPost2010PropOp39
 70
     1
102
RTVSPost2010Prop40
 90
        0
102
RTVSPost2010PropOp40
 70
     1
102
RTVSPost2010Prop41ColorIndex
 90
       18
102
RTVSPost2010Prop41ColorRGB
 90
        0
102
RTVSPost2010PropOp41
 70
     1
102
RTVSPost2010Prop42
 90
       50
102
RTVSPost2010PropOp42
 70
     1
102
RTVSPost2010Prop43
 90
        3
102
RTVSPost2010PropOp43
 70
     1
102
RTVSPost2010Prop44ColorIndex
 90
        5
102
RTVSPost2010Prop44ColorRGB
 90
      255
102
RTVSPost2010PropOp44
 70
     1
102
RTVSPost2010Prop45
280
     0
102
RTVSPost2010PropOp45
 70
     1
102
RTVSPost2010Prop46
 90
       50
102
RTVSPost2010PropOp46
 70
     1
102
RTVSPost2010Prop47
 90
       50
102
RTVSPost2010PropOp47
 70
     1
102
RTVSPost2010Prop48
 90
       50
102
RTVSPost2010PropOp48
 70
     1
102
RTVSPost2010Prop49
280
     0
102
RTVSPost2010PropOp49
 70
     1
102
RTVSPost2010Prop50
 90
       50
102
RTVSPost2010PropOp50
 70
     1
102
RTVSPost2010Prop51ColorIndex
 90
      256
102
RTVSPost2010Prop51ColorRGB
 90
-16777216
102
RTVSPost2010PropOp51
 70
     0
102
RTVSPost2010Prop52
140
1.0
102
RTVSPost2010PropOp52
 70
     0
102
RTVSPost2010Prop53
 90
        2
102
RTVSPost2010PropOp53
 70
     1
102
RTVSPost2010Prop54
  1
strokes_ogs.tif
102
RTVSPost2010PropOp54
 70
     1
102
RTVSPost2010Prop55
280
     0
102
RTVSPost2010PropOp55
 70
     1
102
RTVSPost2010Prop56
140
1.0
102
RTVSPost2010PropOp56
 70
     1
102
RTVSPost2010Prop57
140
1.0
102
RTVSPost2010PropOp57
 70
     1
102
RTVSPropertyOp0
 70
     1
102
RTVSPropertyOp1
 70
     1
102
RTVSPropertyOp2
 70
     1
102
RTVSPropertyOp3
 70
     1
102
RTVSPropertyOp4
 70
     1
102
RTVSPropertyOp5
 70
     1
102
RTVSPropertyOp6
 70
     1
102
RTVSPropertyOp7
 70
     1
102
RTVSPropertyOp8
 70
     1
102
RTVSPropertyOp9
 70
     1
102
RTVSPropertyOp10
 70
     1
102
RTVSPropertyOp11
 70
     1
102
RTVSPropertyOp12
 70
     1
102
RTVSPropertyOp13
 70
     1
102
RTVSPropertyOp14
 70
     1
102
RTVSPropertyOp15
 70
     1
102
RTVSPropertyOp16
 70
     1
102
RTVSPropertyOp17
 70
     1
102
RTVSPropertyOp18
 70
     1
102
RTVSPropertyOp19
 70
     1
102
RTVSPropertyOp20
 70
     1
102
RTVSPropertyOp21
 70
     1
102
RTVSPropertyOp22
 70
     1
102
RTVSPropertyOp23
 70
     1
102
RTVSPropertyOp24
 70
     1
102
RTVSPropertyOp25
 70
     1
102
RTVSPropertyOp26
 70
     1
102
RTVSPropertyOp27
 70
     1
102
RTVSPropertyOp28
 70
     1
102
RTVSPropertyOp29
 70
     1
102
RTVSPropertyOp30
 70
     1
102
RTVSPropertyOp31
 70
     1
102
RTVSPropertyOp32
 70
     1
102
RTVSPropertyOp33
 70
     1
102
RTVSPropertyOp34
 70
     1
102
RTVSPropertyOp35
 70
     1
102
RTVSPropertyOp36
 70
     1
102
RTVSPropertyOp37
 70
     1
102
RTVSPropertyOp38
 70
     1
102
RTVSPropertyOp39
 70
     1
102
RTVSPropertyOp40
 70
     1
102
RTVSPropertyOp41
 70
     1
102
RTVSPropertyOp42
 70
     1
102
RTVSPropertyOp43
 70
     1
102
RTVSPropertyOp44
 70
     1
102
RTVSPropertyOp45
 70
     1
102
RTVSPropertyOp46
 70
     1
102
RTVSPropertyOp47
 70
     1
102
RTVSPropertyOp48
 70
     1
102
RTVSPropertyOp49
 70
     1
102
RTVSPropertyOp50
 70
     1
102
RTVSPropertyOp51
 70
     0
102
RTVSPropertyOp52
 70
     0
102
RTVSPropertyOp53
 70
     1
102
RTVSPropertyOp54
 70
     1
102
RTVSPropertyOp55
 70
     1
102
RTVSPropertyOp56
 70
     1
102
RTVSPropertyOp57
 70
     1
102
RTVSPropertyOp58
 70
     1
102
RTVSPropertyOp59
 70
     1
102
RTVSPropertyOp60
 70
     1
102
RTVSPropertyOp61
 70
     1
102
RTVSPropertyOp62
 70
     1
  0
XRECORD
  5
69F
102
{ACAD_REACTORS
330
69E
102
}
330
69E
100
AcDbXrecord
280
     1
102
RTVSPost2010Prop28
280
     0
102
RTVSPost2010PropOp28
 70
     1
102
RTVSPost2010Prop29
280
     1
102
RTVSPost2010PropOp29
 70
     1
102
RTVSPost2010Prop30
280
     1
102
RTVSPost2010PropOp30
 70
     1
102
RTVSPost2010Prop31
280
     0
102
RTVSPost2010PropOp31
 70
     1
102
RTVSPost2010Prop32
280
     0
102
RTVSPost2010PropOp32
 70
     1
102
RTVSPost2010Prop33
280
     0
102
RTVSPost2010PropOp33
 70
     1
102
RTVSPost2010Prop34
280
     0
102
RTVSPost2010PropOp34
 70
     1
102
RTVSPost2010Prop35
280
     0
102
RTVSPost2010PropOp35
 70
     1
102
RTVSPost2010Prop36
280
     0
102
RTVSPost2010PropOp36
 70
     1
102
RTVSPost2010Prop37
 90
       50
102
RTVSPost2010PropOp37
 70
     1
102
RTVSPost2010Prop38
140
0.0
102
RTVSPost2010PropOp38
 70
     1
102
RTVSPost2010Prop39
140
1.0
102
RTVSPost2010PropOp39
 70
     1
102
RTVSPost2010Prop40
 90
        0
102
RTVSPost2010PropOp40
 70
     1
102
RTVSPost2010Prop41ColorIndex
 90
       18
102
RTVSPost2010Prop41ColorRGB
 90
        0
102
RTVSPost2010PropOp41
 70
     1
102
RTVSPost2010Prop42
 90
       50
102
RTVSPost2010PropOp42
 70
     1
102
RTVSPost2010Prop43
 90
        3
102
RTVSPost2010PropOp43
 70
     1
102
RTVSPost2010Prop44ColorIndex
 90
        5
102
RTVSPost2010Prop44ColorRGB
 90
      255
102
RTVSPost2010PropOp44
 70
     1
102
RTVSPost2010Prop45
280
     0
102
RTVSPost2010PropOp45
 70
     1
102
RTVSPost2010Prop46
 90
       50
102
RTVSPost2010PropOp46
 70
     1
102
RTVSPost2010Prop47
 90
       50
102
RTVSPost2010PropOp47
 70
     1
102
RTVSPost2010Prop48
 90
       50
102
RTVSPost2010PropOp48
 70
     1
102
RTVSPost2010Prop49
280
     0
102
RTVSPost2010PropOp49
 70
     1
102
RTVSPost2010Prop50
 90
       50
102
RTVSPost2010PropOp50
 70
     1
102
RTVSPost2010Prop51ColorIndex
 90
      256
102
RTVSPost2010Prop51ColorRGB
 90
-16777216
102
RTVSPost2010PropOp51
 70
     0
102
RTVSPost2010Prop52
140
1.0
102
RTVSPost2010PropOp52
 70
     0
102
RTVSPost2010Prop53
 90
        2
102
RTVSPost2010PropOp53
 70
     1
102
RTVSPost2010Prop54
  1
strokes_ogs.tif
102
RTVSPost2010PropOp54
 70
     1
102
RTVSPost2010Prop55
280
     0
102
RTVSPost2010PropOp55
 70
     1
102
RTVSPost2010Prop56
140
1.0
102
RTVSPost2010PropOp56
 70
     1
102
RTVSPost2010Prop57
140
1.0
102
RTVSPost2010PropOp57
 70
     1
102
RTVSPropertyOp0
 70
     1
102
RTVSPropertyOp1
 70
     1
102
RTVSPropertyOp2
 70
     1
102
RTVSPropertyOp3
 70
     1
102
RTVSPropertyOp4
 70
     1
102
RTVSPropertyOp5
 70
     1
102
RTVSPropertyOp6
 70
     1
102
RTVSPropertyOp7
 70
     1
102
RTVSPropertyOp8
 70
     1
102
RTVSPropertyOp9
 70
     1
102
RTVSPropertyOp10
 70
     1
102
RTVSPropertyOp11
 70
     1
102
RTVSPropertyOp12
 70
     1
102
RTVSPropertyOp13
 70
     1
102
RTVSPropertyOp14
 70
     1
102
RTVSPropertyOp15
 70
     1
102
RTVSPropertyOp16
 70
     1
102
RTVSPropertyOp17
 70
     1
102
RTVSPropertyOp18
 70
     1
102
RTVSPropertyOp19
 70
     1
102
RTVSPropertyOp20
 70
     1
102
RTVSPropertyOp21
 70
     1
102
RTVSPropertyOp22
 70
     1
102
RTVSPropertyOp23
 70
     1
102
RTVSPropertyOp24
 70
     1
102
RTVSPropertyOp25
 70
     1
102
RTVSPropertyOp26
 70
     1
102
RTVSPropertyOp27
 70
     1
102
RTVSPropertyOp28
 70
     1
102
RTVSPropertyOp29
 70
     1
102
RTVSPropertyOp30
 70
     1
102
RTVSPropertyOp31
 70
     1
102
RTVSPropertyOp32
 70
     1
102
RTVSPropertyOp33
 70
     1
102
RTVSPropertyOp34
 70
     1
102
RTVSPropertyOp35
 70
     1
102
RTVSPropertyOp36
 70
     1
102
RTVSPropertyOp37
 70
     1
102
RTVSPropertyOp38
 70
     1
102
RTVSPropertyOp39
 70
     1
102
RTVSPropertyOp40
 70
     1
102
RTVSPropertyOp41
 70
     1
102
RTVSPropertyOp42
 70
     1
102
RTVSPropertyOp43
 70
     1
102
RTVSPropertyOp44
 70
     1
102
RTVSPropertyOp45
 70
     1
102
RTVSPropertyOp46
 70
     1
102
RTVSPropertyOp47
 70
     1
102
RTVSPropertyOp48
 70
     1
102
RTVSPropertyOp49
 70
     1
102
RTVSPropertyOp50
 70
     1
102
RTVSPropertyOp51
 70
     0
102
RTVSPropertyOp52
 70
     0
102
RTVSPropertyOp53
 70
     1
102
RTVSPropertyOp54
 70
     1
102
RTVSPropertyOp55
 70
     1
102
RTVSPropertyOp56
 70
     1
102
RTVSPropertyOp57
 70
     1
102
RTVSPropertyOp58
 70
     1
102
RTVSPropertyOp59
 70
     1
102
RTVSPropertyOp60
 70
     1
102
RTVSPropertyOp61
 70
     1
102
RTVSPropertyOp62
 70
     1
  0
XRECORD
  5
6A1
102
{ACAD_REACTORS
330
6A0
102
}
330
6A0
100
AcDbXrecord
280
     1
102
RTVSPost2010Prop28
280
     0
102
RTVSPost2010PropOp28
 70
     1
102
RTVSPost2010Prop29
280
     1
102
RTVSPost2010PropOp29
 70
     1
102
RTVSPost2010Prop30
280
     1
102
RTVSPost2010PropOp30
 70
     1
102
RTVSPost2010Prop31
280
     0
102
RTVSPost2010PropOp31
 70
     1
102
RTVSPost2010Prop32
280
     0
102
RTVSPost2010PropOp32
 70
     1
102
RTVSPost2010Prop33
280
     0
102
RTVSPost2010PropOp33
 70
     1
102
RTVSPost2010Prop34
280
     0
102
RTVSPost2010PropOp34
 70
     1
102
RTVSPost2010Prop35
280
     0
102
RTVSPost2010PropOp35
 70
     1
102
RTVSPost2010Prop36
280
     0
102
RTVSPost2010PropOp36
 70
     1
102
RTVSPost2010Prop37
 90
       50
102
RTVSPost2010PropOp37
 70
     1
102
RTVSPost2010Prop38
140
0.0
102
RTVSPost2010PropOp38
 70
     1
102
RTVSPost2010Prop39
140
1.0
102
RTVSPost2010PropOp39
 70
     1
102
RTVSPost2010Prop40
 90
        0
102
RTVSPost2010PropOp40
 70
     1
102
RTVSPost2010Prop41ColorIndex
 90
       18
102
RTVSPost2010Prop41ColorRGB
 90
        0
102
RTVSPost2010PropOp41
 70
     1
102
RTVSPost2010Prop42
 90
       50
102
RTVSPost2010PropOp42
 70
     1
102
RTVSPost2010Prop43
 90
        3
102
RTVSPost2010PropOp43
 70
     1
102
RTVSPost2010Prop44ColorIndex
 90
        5
102
RTVSPost2010Prop44ColorRGB
 90
      255
102
RTVSPost2010PropOp44
 70
     1
102
RTVSPost2010Prop45
280
     0
102
RTVSPost2010PropOp45
 70
     1
102
RTVSPost2010Prop46
 90
       50
102
RTVSPost2010PropOp46
 70
     1
102
RTVSPost2010Prop47
 90
       50
102
RTVSPost2010PropOp47
 70
     1
102
RTVSPost2010Prop48
 90
       50
102
RTVSPost2010PropOp48
 70
     1
102
RTVSPost2010Prop49
280
     0
102
RTVSPost2010PropOp49
 70
     1
102
RTVSPost2010Prop50
 90
       50
102
RTVSPost2010PropOp50
 70
     1
102
RTVSPost2010Prop51ColorIndex
 90
      256
102
RTVSPost2010Prop51ColorRGB
 90
-16777216
102
RTVSPost2010PropOp51
 70
     0
102
RTVSPost2010Prop52
140
1.0
102
RTVSPost2010PropOp52
 70
     0
102
RTVSPost2010Prop53
 90
        2
102
RTVSPost2010PropOp53
 70
     1
102
RTVSPost2010Prop54
  1
strokes_ogs.tif
102
RTVSPost2010PropOp54
 70
     1
102
RTVSPost2010Prop55
280
     0
102
RTVSPost2010PropOp55
 70
     1
102
RTVSPost2010Prop56
140
1.0
102
RTVSPost2010PropOp56
 70
     1
102
RTVSPost2010Prop57
140
1.0
102
RTVSPost2010PropOp57
 70
     1
102
RTVSPropertyOp0
 70
     1
102
RTVSPropertyOp1
 70
     1
102
RTVSPropertyOp2
 70
     1
102
RTVSPropertyOp3
 70
     1
102
RTVSPropertyOp4
 70
     1
102
RTVSPropertyOp5
 70
     1
102
RTVSPropertyOp6
 70
     1
102
RTVSPropertyOp7
 70
     1
102
RTVSPropertyOp8
 70
     1
102
RTVSPropertyOp9
 70
     1
102
RTVSPropertyOp10
 70
     1
102
RTVSPropertyOp11
 70
     1
102
RTVSPropertyOp12
 70
     1
102
RTVSPropertyOp13
 70
     1
102
RTVSPropertyOp14
 70
     1
102
RTVSPropertyOp15
 70
     1
102
RTVSPropertyOp16
 70
     1
102
RTVSPropertyOp17
 70
     1
102
RTVSPropertyOp18
 70
     1
102
RTVSPropertyOp19
 70
     1
102
RTVSPropertyOp20
 70
     1
102
RTVSPropertyOp21
 70
     1
102
RTVSPropertyOp22
 70
     1
102
RTVSPropertyOp23
 70
     1
102
RTVSPropertyOp24
 70
     1
102
RTVSPropertyOp25
 70
     1
102
RTVSPropertyOp26
 70
     1
102
RTVSPropertyOp27
 70
     1
102
RTVSPropertyOp28
 70
     1
102
RTVSPropertyOp29
 70
     1
102
RTVSPropertyOp30
 70
     1
102
RTVSPropertyOp31
 70
     1
102
RTVSPropertyOp32
 70
     1
102
RTVSPropertyOp33
 70
     1
102
RTVSPropertyOp34
 70
     1
102
RTVSPropertyOp35
 70
     1
102
RTVSPropertyOp36
 70
     1
102
RTVSPropertyOp37
 70
     1
102
RTVSPropertyOp38
 70
     1
102
RTVSPropertyOp39
 70
     1
102
RTVSPropertyOp40
 70
     1
102
RTVSPropertyOp41
 70
     1
102
RTVSPropertyOp42
 70
     1
102
RTVSPropertyOp43
 70
     1
102
RTVSPropertyOp44
 70
     1
102
RTVSPropertyOp45
 70
     1
102
RTVSPropertyOp46
 70
     1
102
RTVSPropertyOp47
 70
     1
102
RTVSPropertyOp48
 70
     1
102
RTVSPropertyOp49
 70
     1
102
RTVSPropertyOp50
 70
     1
102
RTVSPropertyOp51
 70
     0
102
RTVSPropertyOp52
 70
     0
102
RTVSPropertyOp53
 70
     1
102
RTVSPropertyOp54
 70
     1
102
RTVSPropertyOp55
 70
     1
102
RTVSPropertyOp56
 70
     1
102
RTVSPropertyOp57
 70
     1
102
RTVSPropertyOp58
 70
     1
102
RTVSPropertyOp59
 70
     1
102
RTVSPropertyOp60
 70
     1
102
RTVSPropertyOp61
 70
     1
102
RTVSPropertyOp62
 70
     1
  0
XRECORD
  5
691
102
{ACAD_REACTORS
330
690
102
}
330
690
100
AcDbXrecord
280
     1
102
RTVSPost2010Prop28
280
     0
102
RTVSPost2010PropOp28
 70
     1
102
RTVSPost2010Prop29
280
     1
102
RTVSPost2010PropOp29
 70
     1
102
RTVSPost2010Prop30
280
     1
102
RTVSPost2010PropOp30
 70
     1
102
RTVSPost2010Prop31
280
     0
102
RTVSPost2010PropOp31
 70
     1
102
RTVSPost2010Prop32
280
     0
102
RTVSPost2010PropOp32
 70
     1
102
RTVSPost2010Prop33
280
     0
102
RTVSPost2010PropOp33
 70
     1
102
RTVSPost2010Prop34
280
     0
102
RTVSPost2010PropOp34
 70
     1
102
RTVSPost2010Prop35
280
     0
102
RTVSPost2010PropOp35
 70
     1
102
RTVSPost2010Prop36
280
     0
102
RTVSPost2010PropOp36
 70
     1
102
RTVSPost2010Prop37
 90
       50
102
RTVSPost2010PropOp37
 70
     1
102
RTVSPost2010Prop38
140
0.0
102
RTVSPost2010PropOp38
 70
     1
102
RTVSPost2010Prop39
140
1.0
102
RTVSPost2010PropOp39
 70
     1
102
RTVSPost2010Prop40
 90
        0
102
RTVSPost2010PropOp40
 70
     1
102
RTVSPost2010Prop41ColorIndex
 90
       18
102
RTVSPost2010Prop41ColorRGB
 90
        0
102
RTVSPost2010PropOp41
 70
     1
102
RTVSPost2010Prop42
 90
       50
102
RTVSPost2010PropOp42
 70
     1
102
RTVSPost2010Prop43
 90
        3
102
RTVSPost2010PropOp43
 70
     1
102
RTVSPost2010Prop44ColorIndex
 90
        5
102
RTVSPost2010Prop44ColorRGB
 90
      255
102
RTVSPost2010PropOp44
 70
     1
102
RTVSPost2010Prop45
280
     0
102
RTVSPost2010PropOp45
 70
     1
102
RTVSPost2010Prop46
 90
       50
102
RTVSPost2010PropOp46
 70
     1
102
RTVSPost2010Prop47
 90
       50
102
RTVSPost2010PropOp47
 70
     1
102
RTVSPost2010Prop48
 90
       50
102
RTVSPost2010PropOp48
 70
     1
102
RTVSPost2010Prop49
280
     0
102
RTVSPost2010PropOp49
 70
     1
102
RTVSPost2010Prop50
 90
       50
102
RTVSPost2010PropOp50
 70
     1
102
RTVSPost2010Prop51ColorIndex
 90
      256
102
RTVSPost2010Prop51ColorRGB
 90
-16777216
102
RTVSPost2010PropOp51
 70
     0
102
RTVSPost2010Prop52
140
1.0
102
RTVSPost2010PropOp52
 70
     0
102
RTVSPost2010Prop53
 90
        2
102
RTVSPost2010PropOp53
 70
     1
102
RTVSPost2010Prop54
  1
strokes_ogs.tif
102
RTVSPost2010PropOp54
 70
     1
102
RTVSPost2010Prop55
280
     0
102
RTVSPost2010PropOp55
 70
     1
102
RTVSPost2010Prop56
140
1.0
102
RTVSPost2010PropOp56
 70
     1
102
RTVSPost2010Prop57
140
1.0
102
RTVSPost2010PropOp57
 70
     1
102
RTVSPropertyOp0
 70
     1
102
RTVSPropertyOp1
 70
     1
102
RTVSPropertyOp2
 70
     1
102
RTVSPropertyOp3
 70
     1
102
RTVSPropertyOp4
 70
     1
102
RTVSPropertyOp5
 70
     1
102
RTVSPropertyOp6
 70
     1
102
RTVSPropertyOp7
 70
     1
102
RTVSPropertyOp8
 70
     1
102
RTVSPropertyOp9
 70
     1
102
RTVSPropertyOp10
 70
     1
102
RTVSPropertyOp11
 70
     1
102
RTVSPropertyOp12
 70
     1
102
RTVSPropertyOp13
 70
     1
102
RTVSPropertyOp14
 70
     1
102
RTVSPropertyOp15
 70
     1
102
RTVSPropertyOp16
 70
     1
102
RTVSPropertyOp17
 70
     1
102
RTVSPropertyOp18
 70
     1
102
RTVSPropertyOp19
 70
     1
102
RTVSPropertyOp20
 70
     1
102
RTVSPropertyOp21
 70
     1
102
RTVSPropertyOp22
 70
     1
102
RTVSPropertyOp23
 70
     1
102
RTVSPropertyOp24
 70
     1
102
RTVSPropertyOp25
 70
     1
102
RTVSPropertyOp26
 70
     1
102
RTVSPropertyOp27
 70
     1
102
RTVSPropertyOp28
 70
     1
102
RTVSPropertyOp29
 70
     1
102
RTVSPropertyOp30
 70
     1
102
RTVSPropertyOp31
 70
     1
102
RTVSPropertyOp32
 70
     1
102
RTVSPropertyOp33
 70
     1
102
RTVSPropertyOp34
 70
     1
102
RTVSPropertyOp35
 70
     1
102
RTVSPropertyOp36
 70
     1
102
RTVSPropertyOp37
 70
     1
102
RTVSPropertyOp38
 70
     1
102
RTVSPropertyOp39
 70
     1
102
RTVSPropertyOp40
 70
     1
102
RTVSPropertyOp41
 70
     1
102
RTVSPropertyOp42
 70
     1
102
RTVSPropertyOp43
 70
     1
102
RTVSPropertyOp44
 70
     1
102
RTVSPropertyOp45
 70
     1
102
RTVSPropertyOp46
 70
     1
102
RTVSPropertyOp47
 70
     1
102
RTVSPropertyOp48
 70
     1
102
RTVSPropertyOp49
 70
     1
102
RTVSPropertyOp50
 70
     1
102
RTVSPropertyOp51
 70
     0
102
RTVSPropertyOp52
 70
     0
102
RTVSPropertyOp53
 70
     1
102
RTVSPropertyOp54
 70
     1
102
RTVSPropertyOp55
 70
     1
102
RTVSPropertyOp56
 70
     1
102
RTVSPropertyOp57
 70
     1
102
RTVSPropertyOp58
 70
     1
102
RTVSPropertyOp59
 70
     1
102
RTVSPropertyOp60
 70
     1
102
RTVSPropertyOp61
 70
     1
102
RTVSPropertyOp62
 70
     1
  0
XRECORD
  5
685
102
{ACAD_REACTORS
330
684
102
}
330
684
100
AcDbXrecord
280
     1
102
RTVSPost2010Prop28
280
     0
102
RTVSPost2010PropOp28
 70
     1
102
RTVSPost2010Prop29
280
     1
102
RTVSPost2010PropOp29
 70
     1
102
RTVSPost2010Prop30
280
     1
102
RTVSPost2010PropOp30
 70
     1
102
RTVSPost2010Prop31
280
     0
102
RTVSPost2010PropOp31
 70
     1
102
RTVSPost2010Prop32
280
     0
102
RTVSPost2010PropOp32
 70
     1
102
RTVSPost2010Prop33
280
     0
102
RTVSPost2010PropOp33
 70
     1
102
RTVSPost2010Prop34
280
     0
102
RTVSPost2010PropOp34
 70
     1
102
RTVSPost2010Prop35
280
     0
102
RTVSPost2010PropOp35
 70
     1
102
RTVSPost2010Prop36
280
     0
102
RTVSPost2010PropOp36
 70
     1
102
RTVSPost2010Prop37
 90
       50
102
RTVSPost2010PropOp37
 70
     1
102
RTVSPost2010Prop38
140
0.0
102
RTVSPost2010PropOp38
 70
     1
102
RTVSPost2010Prop39
140
1.0
102
RTVSPost2010PropOp39
 70
     1
102
RTVSPost2010Prop40
 90
        0
102
RTVSPost2010PropOp40
 70
     1
102
RTVSPost2010Prop41ColorIndex
 90
       18
102
RTVSPost2010Prop41ColorRGB
 90
        0
102
RTVSPost2010PropOp41
 70
     1
102
RTVSPost2010Prop42
 90
       50
102
RTVSPost2010PropOp42
 70
     1
102
RTVSPost2010Prop43
 90
        3
102
RTVSPost2010PropOp43
 70
     1
102
RTVSPost2010Prop44ColorIndex
 90
        5
102
RTVSPost2010Prop44ColorRGB
 90
      255
102
RTVSPost2010PropOp44
 70
     1
102
RTVSPost2010Prop45
280
     0
102
RTVSPost2010PropOp45
 70
     1
102
RTVSPost2010Prop46
 90
       50
102
RTVSPost2010PropOp46
 70
     1
102
RTVSPost2010Prop47
 90
       50
102
RTVSPost2010PropOp47
 70
     1
102
RTVSPost2010Prop48
 90
       50
102
RTVSPost2010PropOp48
 70
     1
102
RTVSPost2010Prop49
280
     0
102
RTVSPost2010PropOp49
 70
     1
102
RTVSPost2010Prop50
 90
       50
102
RTVSPost2010PropOp50
 70
     1
102
RTVSPost2010Prop51ColorIndex
 90
      256
102
RTVSPost2010Prop51ColorRGB
 90
-16777216
102
RTVSPost2010PropOp51
 70
     0
102
RTVSPost2010Prop52
140
1.0
102
RTVSPost2010PropOp52
 70
     0
102
RTVSPost2010Prop53
 90
        2
102
RTVSPost2010PropOp53
 70
     1
102
RTVSPost2010Prop54
  1
strokes_ogs.tif
102
RTVSPost2010PropOp54
 70
     1
102
RTVSPost2010Prop55
280
     0
102
RTVSPost2010PropOp55
 70
     1
102
RTVSPost2010Prop56
140
1.0
102
RTVSPost2010PropOp56
 70
     1
102
RTVSPost2010Prop57
140
1.0
102
RTVSPost2010PropOp57
 70
     1
102
RTVSPropertyOp0
 70
     1
102
RTVSPropertyOp1
 70
     1
102
RTVSPropertyOp2
 70
     1
102
RTVSPropertyOp3
 70
     1
102
RTVSPropertyOp4
 70
     1
102
RTVSPropertyOp5
 70
     1
102
RTVSPropertyOp6
 70
     1
102
RTVSPropertyOp7
 70
     1
102
RTVSPropertyOp8
 70
     1
102
RTVSPropertyOp9
 70
     1
102
RTVSPropertyOp10
 70
     1
102
RTVSPropertyOp11
 70
     1
102
RTVSPropertyOp12
 70
     1
102
RTVSPropertyOp13
 70
     1
102
RTVSPropertyOp14
 70
     1
102
RTVSPropertyOp15
 70
     1
102
RTVSPropertyOp16
 70
     1
102
RTVSPropertyOp17
 70
     1
102
RTVSPropertyOp18
 70
     1
102
RTVSPropertyOp19
 70
     1
102
RTVSPropertyOp20
 70
     1
102
RTVSPropertyOp21
 70
     1
102
RTVSPropertyOp22
 70
     1
102
RTVSPropertyOp23
 70
     1
102
RTVSPropertyOp24
 70
     1
102
RTVSPropertyOp25
 70
     1
102
RTVSPropertyOp26
 70
     1
102
RTVSPropertyOp27
 70
     1
102
RTVSPropertyOp28
 70
     1
102
RTVSPropertyOp29
 70
     1
102
RTVSPropertyOp30
 70
     1
102
RTVSPropertyOp31
 70
     1
102
RTVSPropertyOp32
 70
     1
102
RTVSPropertyOp33
 70
     1
102
RTVSPropertyOp34
 70
     1
102
RTVSPropertyOp35
 70
     1
102
RTVSPropertyOp36
 70
     1
102
RTVSPropertyOp37
 70
     1
102
RTVSPropertyOp38
 70
     1
102
RTVSPropertyOp39
 70
     1
102
RTVSPropertyOp40
 70
     1
102
RTVSPropertyOp41
 70
     1
102
RTVSPropertyOp42
 70
     1
102
RTVSPropertyOp43
 70
     1
102
RTVSPropertyOp44
 70
     1
102
RTVSPropertyOp45
 70
     1
102
RTVSPropertyOp46
 70
     1
102
RTVSPropertyOp47
 70
     1
102
RTVSPropertyOp48
 70
     1
102
RTVSPropertyOp49
 70
     1
102
RTVSPropertyOp50
 70
     1
102
RTVSPropertyOp51
 70
     0
102
RTVSPropertyOp52
 70
     0
102
RTVSPropertyOp53
 70
     1
102
RTVSPropertyOp54
 70
     1
102
RTVSPropertyOp55
 70
     1
102
RTVSPropertyOp56
 70
     1
102
RTVSPropertyOp57
 70
     1
102
RTVSPropertyOp58
 70
     1
102
RTVSPropertyOp59
 70
     1
102
RTVSPropertyOp60
 70
     1
102
RTVSPropertyOp61
 70
     1
102
RTVSPropertyOp62
 70
     1
  0
XRECORD
  5
6A3
102
{ACAD_REACTORS
330
6A2
102
}
330
6A2
100
AcDbXrecord
280
     1
102
RTVSPost2010Prop28
280
     0
102
RTVSPost2010PropOp28
 70
     1
102
RTVSPost2010Prop29
280
     1
102
RTVSPost2010PropOp29
 70
     1
102
RTVSPost2010Prop30
280
     1
102
RTVSPost2010PropOp30
 70
     1
102
RTVSPost2010Prop31
280
     0
102
RTVSPost2010PropOp31
 70
     1
102
RTVSPost2010Prop32
280
     0
102
RTVSPost2010PropOp32
 70
     1
102
RTVSPost2010Prop33
280
     0
102
RTVSPost2010PropOp33
 70
     1
102
RTVSPost2010Prop34
280
     0
102
RTVSPost2010PropOp34
 70
     1
102
RTVSPost2010Prop35
280
     0
102
RTVSPost2010PropOp35
 70
     1
102
RTVSPost2010Prop36
280
     0
102
RTVSPost2010PropOp36
 70
     1
102
RTVSPost2010Prop37
 90
       50
102
RTVSPost2010PropOp37
 70
     1
102
RTVSPost2010Prop38
140
0.0
102
RTVSPost2010PropOp38
 70
     1
102
RTVSPost2010Prop39
140
1.0
102
RTVSPost2010PropOp39
 70
     1
102
RTVSPost2010Prop40
 90
        0
102
RTVSPost2010PropOp40
 70
     1
102
RTVSPost2010Prop41ColorIndex
 90
       18
102
RTVSPost2010Prop41ColorRGB
 90
        0
102
RTVSPost2010PropOp41
 70
     1
102
RTVSPost2010Prop42
 90
       50
102
RTVSPost2010PropOp42
 70
     1
102
RTVSPost2010Prop43
 90
        3
102
RTVSPost2010PropOp43
 70
     1
102
RTVSPost2010Prop44ColorIndex
 90
        5
102
RTVSPost2010Prop44ColorRGB
 90
      255
102
RTVSPost2010PropOp44
 70
     1
102
RTVSPost2010Prop45
280
     0
102
RTVSPost2010PropOp45
 70
     1
102
RTVSPost2010Prop46
 90
       50
102
RTVSPost2010PropOp46
 70
     1
102
RTVSPost2010Prop47
 90
       50
102
RTVSPost2010PropOp47
 70
     1
102
RTVSPost2010Prop48
 90
       50
102
RTVSPost2010PropOp48
 70
     1
102
RTVSPost2010Prop49
280
     0
102
RTVSPost2010PropOp49
 70
     1
102
RTVSPost2010Prop50
 90
       50
102
RTVSPost2010PropOp50
 70
     1
102
RTVSPost2010Prop51ColorIndex
 90
      256
102
RTVSPost2010Prop51ColorRGB
 90
-16777216
102
RTVSPost2010PropOp51
 70
     0
102
RTVSPost2010Prop52
140
1.0
102
RTVSPost2010PropOp52
 70
     0
102
RTVSPost2010Prop53
 90
        2
102
RTVSPost2010PropOp53
 70
     1
102
RTVSPost2010Prop54
  1
strokes_ogs.tif
102
RTVSPost2010PropOp54
 70
     1
102
RTVSPost2010Prop55
280
     0
102
RTVSPost2010PropOp55
 70
     1
102
RTVSPost2010Prop56
140
1.0
102
RTVSPost2010PropOp56
 70
     1
102
RTVSPost2010Prop57
140
1.0
102
RTVSPost2010PropOp57
 70
     1
102
RTVSPropertyOp0
 70
     1
102
RTVSPropertyOp1
 70
     1
102
RTVSPropertyOp2
 70
     1
102
RTVSPropertyOp3
 70
     1
102
RTVSPropertyOp4
 70
     1
102
RTVSPropertyOp5
 70
     1
102
RTVSPropertyOp6
 70
     1
102
RTVSPropertyOp7
 70
     1
102
RTVSPropertyOp8
 70
     1
102
RTVSPropertyOp9
 70
     1
102
RTVSPropertyOp10
 70
     1
102
RTVSPropertyOp11
 70
     1
102
RTVSPropertyOp12
 70
     1
102
RTVSPropertyOp13
 70
     1
102
RTVSPropertyOp14
 70
     1
102
RTVSPropertyOp15
 70
     1
102
RTVSPropertyOp16
 70
     1
102
RTVSPropertyOp17
 70
     1
102
RTVSPropertyOp18
 70
     1
102
RTVSPropertyOp19
 70
     1
102
RTVSPropertyOp20
 70
     1
102
RTVSPropertyOp21
 70
     1
102
RTVSPropertyOp22
 70
     1
102
RTVSPropertyOp23
 70
     1
102
RTVSPropertyOp24
 70
     1
102
RTVSPropertyOp25
 70
     1
102
RTVSPropertyOp26
 70
     1
102
RTVSPropertyOp27
 70
     1
102
RTVSPropertyOp28
 70
     1
102
RTVSPropertyOp29
 70
     1
102
RTVSPropertyOp30
 70
     1
102
RTVSPropertyOp31
 70
     1
102
RTVSPropertyOp32
 70
     1
102
RTVSPropertyOp33
 70
     1
102
RTVSPropertyOp34
 70
     1
102
RTVSPropertyOp35
 70
     1
102
RTVSPropertyOp36
 70
     1
102
RTVSPropertyOp37
 70
     1
102
RTVSPropertyOp38
 70
     1
102
RTVSPropertyOp39
 70
     1
102
RTVSPropertyOp40
 70
     1
102
RTVSPropertyOp41
 70
     1
102
RTVSPropertyOp42
 70
     1
102
RTVSPropertyOp43
 70
     1
102
RTVSPropertyOp44
 70
     1
102
RTVSPropertyOp45
 70
     1
102
RTVSPropertyOp46
 70
     1
102
RTVSPropertyOp47
 70
     1
102
RTVSPropertyOp48
 70
     1
102
RTVSPropertyOp49
 70
     1
102
RTVSPropertyOp50
 70
     1
102
RTVSPropertyOp51
 70
     0
102
RTVSPropertyOp52
 70
     0
102
RTVSPropertyOp53
 70
     1
102
RTVSPropertyOp54
 70
     1
102
RTVSPropertyOp55
 70
     1
102
RTVSPropertyOp56
 70
     1
102
RTVSPropertyOp57
 70
     1
102
RTVSPropertyOp58
 70
     1
102
RTVSPropertyOp59
 70
     1
102
RTVSPropertyOp60
 70
     1
102
RTVSPropertyOp61
 70
     1
102
RTVSPropertyOp62
 70
     1
  0
ENDSEC
  0
EOF
