  0
SECTION
  2
HEADER
  9
$ACADVER
  1
AC1018
  9
$ACADMAINTVER
 70
     0
  9
$DWGCODEPAGE
  3
ANSI_1252
  9
$INSBASE
 10
0.0
 20
0.0
 30
0.0
  9
$EXTMIN
 10
1.000000000000000E+20
 20
1.000000000000000E+20
 30
1.000000000000000E+20
  9
$EXTMAX
 10
-1.000000000000000E+20
 20
-1.000000000000000E+20
 30
-1.000000000000000E+20
  9
$LIMMIN
 10
0.0
 20
0.0
  9
$LIMMAX
 10
12.0
 20
9.0
  9
$ORTHOMODE
 70
     0
  9
$REGENMODE
 70
     1
  9
$FILLMODE
 70
     1
  9
$QTEXTMODE
 70
     0
  9
$MIRRTEXT
 70
     1
  9
$LTSCALE
 40
1.0
  9
$ATTMODE
 70
     1
  9
$TEXTSIZE
 40
0.2
  9
$TRACEWID
 40
0.05
  9
$TEXTSTYLE
  7
Standard
  9
$CLAYER
  8
0
  9
$CELTYPE
  6
ByLayer
  9
$CECOLOR
 62
   256
  9
$CELTSCALE
 40
1.0
  9
$DISPSILH
 70
     0
  9
$DIMSCALE
 40
1.0
  9
$DIMASZ
 40
0.18
  9
$DIMEXO
 40
0.0625
  9
$DIMDLI
 40
0.38
  9
$DIMRND
 40
0.0
  9
$DIMDLE
 40
0.0
  9
$DIMEXE
 40
0.18
  9
$DIMTP
 40
0.0
  9
$DIMTM
 40
0.0
  9
$DIMTXT
 40
0.18
  9
$DIMCEN
 40
0.09
  9
$DIMTSZ
 40
0.0
  9
$DIMTOL
 70
     0
  9
$DIMLIM
 70
     0
  9
$DIMTIH
 70
     1
  9
$DIMTOH
 70
     1
  9
$DIMSE1
 70
     0
  9
$DIMSE2
 70
     0
  9
$DIMTAD
 70
     0
  9
$DIMZIN
 70
     0
  9
$DIMBLK
  1

  9
$DIMASO
 70
     1
  9
$DIMSHO
 70
     1
  9
$DIMPOST
  1

  9
$DIMAPOST
  1

  9
$DIMALT
 70
     0
  9
$DIMALTD
 70
     2
  9
$DIMALTF
 40
25.4
  9
$DIMLFAC
 40
1.0
  9
$DIMTOFL
 70
     0
  9
$DIMTVP
 40
0.0
  9
$DIMTIX
 70
     0
  9
$DIMSOXD
 70
     0
  9
$DIMSAH
 70
     0
  9
$DIMBLK1
  1

  9
$DIMBLK2
  1

  9
$DIMSTYLE
  2
Standard
  9
$DIMCLRD
 70
     0
  9
$DIMCLRE
 70
     0
  9
$DIMCLRT
 70
     0
  9
$DIMTFAC
 40
1.0
  9
$DIMGAP
 40
0.09
  9
$DIMJUST
 70
     0
  9
$DIMSD1
 70
     0
  9
$DIMSD2
 70
     0
  9
$DIMTOLJ
 70
     1
  9
$DIMTZIN
 70
     0
  9
$DIMALTZ
 70
     0
  9
$DIMALTTZ
 70
     0
  9
$DIMUPT
 70
     0
  9
$DIMDEC
 70
     4
  9
$DIMTDEC
 70
     4
  9
$DIMALTU
 70
     2
  9
$DIMALTTD
 70
     2
  9
$DIMTXSTY
  7
Standard
  9
$DIMAUNIT
 70
     0
  9
$DIMADEC
 70
     0
  9
$DIMALTRND
 40
0.0
  9
$DIMAZIN
 70
     0
  9
$DIMDSEP
 70
    46
  9
$DIMATFIT
 70
     3
  9
$DIMFRAC
 70
     0
  9
$DIMLDRBLK
  1

  9
$DIMLUNIT
 70
     2
  9
$DIMLWD
 70
    -2
  9
$DIMLWE
 70
    -2
  9
$DIMTMOVE
 70
     0
  9
$LUNITS
 70
     2
  9
$LUPREC
 70
     4
  9
$SKETCHINC
 40
0.1
  9
$FILLETRAD
 40
0.5
  9
$AUNITS
 70
     0
  9
$AUPREC
 70
     0
  9
$MENU
  1
.
  9
$ELEVATION
 40
0.0
  9
$PELEVATION
 40
0.0
  9
$THICKNESS
 40
0.0
  9
$LIMCHECK
 70
     0
  9
$CHAMFERA
 40
0.5
  9
$CHAMFERB
 40
0.5
  9
$CHAMFERC
 40
1.0
  9
$CHAMFERD
 40
0.0
  9
$SKPOLY
 70
     0
  9
$TDCREATE
 40
2457561.465738622
  9
$TDUCREATE
 40
2457561.382405289
  9
$TDUPDATE
 40
2457561.465738634
  9
$TDUUPDATE
 40
2457561.382405301
  9
$TDINDWG
 40
0.0000000116
  9
$TDUSRTIMER
 40
0.0000000116
  9
$USRTIMER
 70
     1
  9
$ANGBASE
 50
0.0
  9
$ANGDIR
 70
     0
  9
$PDMODE
 70
     0
  9
$PDSIZE
 40
0.0
  9
$PLINEWID
 40
0.0
  9
$SPLFRAME
 70
     0
  9
$SPLINETYPE
 70
     6
  9
$SPLINESEGS
 70
     8
  9
$HANDSEED
  5
763
  9
$SURFTAB1
 70
     6
  9
$SURFTAB2
 70
     6
  9
$SURFTYPE
 70
     6
  9
$SURFU
 70
     6
  9
$SURFV
 70
     6
  9
$UCSBASE
  2

  9
$UCSNAME
  2

  9
$UCSORG
 10
0.0
 20
0.0
 30
0.0
  9
$UCSXDIR
 10
1.0
 20
0.0
 30
0.0
  9
$UCSYDIR
 10
0.0
 20
1.0
 30
0.0
  9
$UCSORTHOREF
  2

  9
$UCSORTHOVIEW
 70
     0
  9
$UCSORGTOP
 10
0.0
 20
0.0
 30
0.0
  9
$UCSORGBOTTOM
 10
0.0
 20
0.0
 30
0.0
  9
$UCSORGLEFT
 10
0.0
 20
0.0
 30
0.0
  9
$UCSORGRIGHT
 10
0.0
 20
0.0
 30
0.0
  9
$UCSORGFRONT
 10
0.0
 20
0.0
 30
0.0
  9
$UCSORGBACK
 10
0.0
 20
0.0
 30
0.0
  9
$PUCSBASE
  2

  9
$PUCSNAME
  2

  9
$PUCSORG
 10
0.0
 20
0.0
 30
0.0
  9
$PUCSXDIR
 10
1.0
 20
0.0
 30
0.0
  9
$PUCSYDIR
 10
0.0
 20
1.0
 30
0.0
  9
$PUCSORTHOREF
  2

  9
$PUCSORTHOVIEW
 70
     0
  9
$PUCSORGTOP
 10
0.0
 20
0.0
 30
0.0
  9
$PUCSORGBOTTOM
 10
0.0
 20
0.0
 30
0.0
  9
$PUCSORGLEFT
 10
0.0
 20
0.0
 30
0.0
  9
$PUCSORGRIGHT
 10
0.0
 20
0.0
 30
0.0
  9
$PUCSORGFRONT
 10
0.0
 20
0.0
 30
0.0
  9
$PUCSORGBACK
 10
0.0
 20
0.0
 30
0.0
  9
$USERI1
 70
     0
  9
$USERI2
 70
     0
  9
$USERI3
 70
     0
  9
$USERI4
 70
     0
  9
$USERI5
 70
     0
  9
$USERR1
 40
0.0
  9
$USERR2
 40
0.0
  9
$USERR3
 40
0.0
  9
$USERR4
 40
0.0
  9
$USERR5
 40
0.0
  9
$WORLDVIEW
 70
     1
  9
$SHADEDGE
 70
     3
  9
$SHADEDIF
 70
    70
  9
$TILEMODE
 70
     1
  9
$MAXACTVP
 70
    64
  9
$PINSBASE
 10
0.0
 20
0.0
 30
0.0
  9
$PLIMCHECK
 70
     0
  9
$PEXTMIN
 10
1.000000000000000E+20
 20
1.000000000000000E+20
 30
1.000000000000000E+20
  9
$PEXTMAX
 10
-1.000000000000000E+20
 20
-1.000000000000000E+20
 30
-1.000000000000000E+20
  9
$PLIMMIN
 10
0.0
 20
0.0
  9
$PLIMMAX
 10
12.0
 20
9.0
  9
$UNITMODE
 70
     0
  9
$VISRETAIN
 70
     1
  9
$PLINEGEN
 70
     0
  9
$PSLTSCALE
 70
     1
  9
$TREEDEPTH
 70
  3020
  9
$CMLSTYLE
  2
Standard
  9
$CMLJUST
 70
     0
  9
$CMLSCALE
 40
1.0
  9
$PROXYGRAPHICS
 70
     1
  9
$MEASUREMENT
 70
     0
  9
$CELWEIGHT
370
    -1
  9
$ENDCAPS
280
     0
  9
$JOINSTYLE
280
     0
  9
$LWDISPLAY
290
     1
  9
$INSUNITS
 70
     1
  9
$HYPERLINKBASE
  1

  9
$STYLESHEET
  1

  9
$XEDIT
290
     1
  9
$CEPSNTYPE
380
     0
  9
$PSTYLEMODE
290
     1
  9
$FINGERPRINTGUID
  2
{28101B02-C5FA-4B19-9BBB-3BB395C9E7E5}
  9
$VERSIONGUID
  2
{FAEB1C32-E019-11D5-929B-00C0DF256EC4}
  9
$EXTNAMES
290
     1
  9
$PSVPSCALE
 40
0.0
  9
$OLESTARTUP
290
     0
  9
$SORTENTS
280
   127
  9
$INDEXCTL
280
     0
  9
$HIDETEXT
280
     1
  9
$XCLIPFRAME
290
     0
  9
$HALOGAP
280
     0
  9
$OBSCOLOR
 70
   257
  9
$OBSLTYPE
280
     0
  9
$INTERSECTIONDISPLAY
280
     0
  9
$INTERSECTIONCOLOR
 70
   257
  9
$DIMASSOC
280
     2
  9
$PROJECTNAME
  1

  0
ENDSEC
  0
SECTION
  2
CLASSES
  0
CLASS
  1
ACDBDICTIONARYWDFLT
  2
AcDbDictionaryWithDefault
  3
ObjectDBX Classes
 90
        0
 91
        3
280
     0
281
     0
  0
CLASS
  1
VISUALSTYLE
  2
AcDbVisualStyle
  3
ObjectDBX Classes
 90
     4095
 91
        3
280
     0
281
     0
  0
ENDSEC
  0
SECTION
  2
TABLES
  0
TABLE
  2
VPORT
  5
8
330
0
100
AcDbSymbolTable
 70
     1
  0
VPORT
  5
29
330
8
100
AcDbSymbolTableRecord
100
AcDbViewportTableRecord
  2
*Active
 70
     0
 10
0.0
 20
0.0
 11
1.0
 21
1.0
 12
0.0
 22
0.0
 13
0.0
 23
0.0
 14
0.5
 24
0.5
 15
0.5
 25
0.5
 16
0.0
 26
0.0
 36
1.0
 17
42.33333332275
 27
56.26805554148854
 37
0.0
 40
112.5361110829771
 41
0.7523510971786834
 42
50.0
 43
0.0
 44
0.0
 50
0.0
 51
0.0
 71
     0
 72
   100
 73
     1
 74
     3
 75
     0
 76
     0
 77
     0
 78
     0
281
     0
 65
     1
110
0.0
120
0.0
130
0.0
111
1.0
121
0.0
131
0.0
112
0.0
122
1.0
132
0.0
 79
     0
146
0.0
  0
ENDTAB
  0
TABLE
  2
LTYPE
  5
5
330
0
100
AcDbSymbolTable
 70
     1
  0
LTYPE
  5
14
330
5
100
AcDbSymbolTableRecord
100
AcDbLinetypeTableRecord
  2
ByBlock
 70
     0
  3

 72
    65
 73
     0
 40
0.0
  0
LTYPE
  5
15
330
5
100
AcDbSymbolTableRecord
100
AcDbLinetypeTableRecord
  2
ByLayer
 70
     0
  3

 72
    65
 73
     0
 40
0.0
  0
LTYPE
  5
16
330
5
100
AcDbSymbolTableRecord
100
AcDbLinetypeTableRecord
  2
Continuous
 70
     0
  3
Solid line
 72
    65
 73
     0
 40
0.0
  0
ENDTAB
  0
TABLE
  2
LAYER
  5
2
330
0
100
AcDbSymbolTable
 70
     3
  0
LAYER
  5
10
330
2
100
AcDbSymbolTableRecord
100
AcDbLayerTableRecord
  2
0
 70
     0
 62
     7
  6
Continuous
370
    -3
390
F
  0
LAYER
  5
3B
330
2
100
AcDbSymbolTableRecord
100
AcDbLayerTableRecord
  2
cotas
 70
     1
 62
     7
  6
Continuous
370
    -3
390
F
  0
LAYER
  5
378
330
2
100
AcDbSymbolTableRecord
100
AcDbLayerTableRecord
  2
cuerpo
 70
     0
 62
     7
  6
Continuous
370
    -3
390
F
  0
ENDTAB
  0
TABLE
  2
STYLE
  5
3
330
0
100
AcDbSymbolTable
 70
     1
  0
STYLE
  5
11
330
3
100
AcDbSymbolTableRecord
100
AcDbTextStyleTableRecord
  2
Standard
 70
     0
 40
0.0
 41
1.0
 50
0.0
 71
     0
 42
0.2
  3
txt
  4

  0
ENDTAB
  0
TABLE
  2
VIEW
  5
6
330
0
100
AcDbSymbolTable
 70
     0
  0
ENDTAB
  0
TABLE
  2
UCS
  5
7
330
0
100
AcDbSymbolTable
 70
     0
  0
ENDTAB
  0
TABLE
  2
APPID
  5
9
330
0
100
AcDbSymbolTable
 70
     1
  0
APPID
  5
12
330
9
100
AcDbSymbolTableRecord
100
AcDbRegAppTableRecord
  2
ACAD
 70
     0
  0
ENDTAB
  0
TABLE
  2
DIMSTYLE
  5
A
330
0
100
AcDbSymbolTable
 70
     1
100
AcDbDimStyleTable
  0
DIMSTYLE
105
27
330
A
100
AcDbSymbolTableRecord
100
AcDbDimStyleTableRecord
  2
Standard
 70
     0
340
11
  0
ENDTAB
  0
TABLE
  2
BLOCK_RECORD
  5
1
330
0
100
AcDbSymbolTable
 70
   228
  0
BLOCK_RECORD
  5
1F
330
1
100
AcDbSymbolTableRecord
100
AcDbBlockTableRecord
  2
*Model_Space
340
22
  0
BLOCK_RECORD
  5
1B
330
1
100
AcDbSymbolTableRecord
100
AcDbBlockTableRecord
  2
*Paper_Space
340
1E
  0
BLOCK_RECORD
  5
23
330
1
100
AcDbSymbolTableRecord
100
AcDbBlockTableRecord
  2
*Paper_Space0
340
26
  0
BLOCK_RECORD
  5
3C
330
1
100
AcDbSymbolTableRecord
100
AcDbBlockTableRecord
  2
block 2
340
0
102
{BLKREFS
331
3D
102
}
  0
BLOCK_RECORD
  5
40
330
1
100
AcDbSymbolTableRecord
100
AcDbBlockTableRecord
  2
block 3
340
0
102
{BLKREFS
331
41
102
}
  0
BLOCK_RECORD
  5
48
330
1
100
AcDbSymbolTableRecord
100
AcDbBlockTableRecord
  2
block 4
340
0
102
{BLKREFS
331
49
102
}
  0
BLOCK_RECORD
  5
50
330
1
100
AcDbSymbolTableRecord
100
AcDbBlockTableRecord
  2
block 5
340
0
102
{BLKREFS
331
51
102
}
  0
BLOCK_RECORD
  5
58
330
1
100
AcDbSymbolTableRecord
100
AcDbBlockTableRecord
  2
block 6
340
0
102
{BLKREFS
331
59
102
}
  0
BLOCK_RECORD
  5
60
330
1
100
AcDbSymbolTableRecord
100
AcDbBlockTableRecord
  2
block 7
340
0
102
{BLKREFS
331
61
102
}
  0
BLOCK_RECORD
  5
6B
330
1
100
AcDbSymbolTableRecord
100
AcDbBlockTableRecord
  2
block 8
340
0
102
{BLKREFS
331
6C
102
}
  0
BLOCK_RECORD
  5
76
330
1
100
AcDbSymbolTableRecord
100
AcDbBlockTableRecord
  2
block 9
340
0
102
{BLKREFS
331
77
102
}
  0
BLOCK_RECORD
  5
7B
330
1
100
AcDbSymbolTableRecord
100
AcDbBlockTableRecord
  2
block 10
340
0
102
{BLKREFS
331
7C
102
}
  0
BLOCK_RECORD
  5
83
330
1
100
AcDbSymbolTableRecord
100
AcDbBlockTableRecord
  2
block 11
340
0
102
{BLKREFS
331
84
102
}
  0
BLOCK_RECORD
  5
8B
330
1
100
AcDbSymbolTableRecord
100
AcDbBlockTableRecord
  2
block 12
340
0
102
{BLKREFS
331
8C
102
}
  0
BLOCK_RECORD
  5
93
330
1
100
AcDbSymbolTableRecord
100
AcDbBlockTableRecord
  2
block 13
340
0
102
{BLKREFS
331
94
102
}
  0
BLOCK_RECORD
  5
97
330
1
100
AcDbSymbolTableRecord
100
AcDbBlockTableRecord
  2
block 14
340
0
102
{BLKREFS
331
98
102
}
  0
BLOCK_RECORD
  5
9F
330
1
100
AcDbSymbolTableRecord
100
AcDbBlockTableRecord
  2
block 15
340
0
102
{BLKREFS
331
A0
102
}
  0
BLOCK_RECORD
  5
A7
330
1
100
AcDbSymbolTableRecord
100
AcDbBlockTableRecord
  2
block 16
340
0
102
{BLKREFS
331
A8
102
}
  0
BLOCK_RECORD
  5
AF
330
1
100
AcDbSymbolTableRecord
100
AcDbBlockTableRecord
  2
block 17
340
0
102
{BLKREFS
331
B0
102
}
  0
BLOCK_RECORD
  5
B7
330
1
100
AcDbSymbolTableRecord
100
AcDbBlockTableRecord
  2
block 18
340
0
102
{BLKREFS
331
B8
102
}
  0
BLOCK_RECORD
  5
C2
330
1
100
AcDbSymbolTableRecord
100
AcDbBlockTableRecord
  2
block 19
340
0
102
{BLKREFS
331
C3
102
}
  0
BLOCK_RECORD
  5
CD
330
1
100
AcDbSymbolTableRecord
100
AcDbBlockTableRecord
  2
block 20
340
0
102
{BLKREFS
331
CE
102
}
  0
BLOCK_RECORD
  5
D2
330
1
100
AcDbSymbolTableRecord
100
AcDbBlockTableRecord
  2
block 21
340
0
102
{BLKREFS
331
D3
102
}
  0
BLOCK_RECORD
  5
DA
330
1
100
AcDbSymbolTableRecord
100
AcDbBlockTableRecord
  2
block 22
340
0
102
{BLKREFS
331
DB
102
}
  0
BLOCK_RECORD
  5
E2
330
1
100
AcDbSymbolTableRecord
100
AcDbBlockTableRecord
  2
block 23
340
0
102
{BLKREFS
331
E3
102
}
  0
BLOCK_RECORD
  5
EA
330
1
100
AcDbSymbolTableRecord
100
AcDbBlockTableRecord
  2
block 24
340
0
102
{BLKREFS
331
EB
102
}
  0
BLOCK_RECORD
  5
EE
330
1
100
AcDbSymbolTableRecord
100
AcDbBlockTableRecord
  2
block 25
340
0
102
{BLKREFS
331
EF
102
}
  0
BLOCK_RECORD
  5
F6
330
1
100
AcDbSymbolTableRecord
100
AcDbBlockTableRecord
  2
block 26
340
0
102
{BLKREFS
331
F7
102
}
  0
BLOCK_RECORD
  5
FE
330
1
100
AcDbSymbolTableRecord
100
AcDbBlockTableRecord
  2
block 27
340
0
102
{BLKREFS
331
FF
102
}
  0
BLOCK_RECORD
  5
106
330
1
100
AcDbSymbolTableRecord
100
AcDbBlockTableRecord
  2
block 28
340
0
102
{BLKREFS
331
107
102
}
  0
BLOCK_RECORD
  5
10E
330
1
100
AcDbSymbolTableRecord
100
AcDbBlockTableRecord
  2
block 29
340
0
102
{BLKREFS
331
10F
102
}
  0
BLOCK_RECORD
  5
119
330
1
100
AcDbSymbolTableRecord
100
AcDbBlockTableRecord
  2
block 30
340
0
102
{BLKREFS
331
11A
102
}
  0
BLOCK_RECORD
  5
124
330
1
100
AcDbSymbolTableRecord
100
AcDbBlockTableRecord
  2
block 31
340
0
102
{BLKREFS
331
125
102
}
  0
BLOCK_RECORD
  5
129
330
1
100
AcDbSymbolTableRecord
100
AcDbBlockTableRecord
  2
block 32
340
0
102
{BLKREFS
331
12A
102
}
  0
BLOCK_RECORD
  5
131
330
1
100
AcDbSymbolTableRecord
100
AcDbBlockTableRecord
  2
block 33
340
0
102
{BLKREFS
331
132
102
}
  0
BLOCK_RECORD
  5
139
330
1
100
AcDbSymbolTableRecord
100
AcDbBlockTableRecord
  2
block 34
340
0
102
{BLKREFS
331
13A
102
}
  0
BLOCK_RECORD
  5
141
330
1
100
AcDbSymbolTableRecord
100
AcDbBlockTableRecord
  2
block 35
340
0
102
{BLKREFS
331
142
102
}
  0
BLOCK_RECORD
  5
145
330
1
100
AcDbSymbolTableRecord
100
AcDbBlockTableRecord
  2
block 36
340
0
102
{BLKREFS
331
146
102
}
  0
BLOCK_RECORD
  5
14D
330
1
100
AcDbSymbolTableRecord
100
AcDbBlockTableRecord
  2
block 37
340
0
102
{BLKREFS
331
14E
102
}
  0
BLOCK_RECORD
  5
155
330
1
100
AcDbSymbolTableRecord
100
AcDbBlockTableRecord
  2
block 38
340
0
102
{BLKREFS
331
156
102
}
  0
BLOCK_RECORD
  5
15D
330
1
100
AcDbSymbolTableRecord
100
AcDbBlockTableRecord
  2
block 39
340
0
102
{BLKREFS
331
15E
102
}
  0
BLOCK_RECORD
  5
165
330
1
100
AcDbSymbolTableRecord
100
AcDbBlockTableRecord
  2
block 40
340
0
102
{BLKREFS
331
166
102
}
  0
BLOCK_RECORD
  5
170
330
1
100
AcDbSymbolTableRecord
100
AcDbBlockTableRecord
  2
block 41
340
0
102
{BLKREFS
331
171
102
}
  0
BLOCK_RECORD
  5
17B
330
1
100
AcDbSymbolTableRecord
100
AcDbBlockTableRecord
  2
block 42
340
0
102
{BLKREFS
331
17C
102
}
  0
BLOCK_RECORD
  5
180
330
1
100
AcDbSymbolTableRecord
100
AcDbBlockTableRecord
  2
block 43
340
0
102
{BLKREFS
331
181
102
}
  0
BLOCK_RECORD
  5
188
330
1
100
AcDbSymbolTableRecord
100
AcDbBlockTableRecord
  2
block 44
340
0
102
{BLKREFS
331
189
102
}
  0
BLOCK_RECORD
  5
190
330
1
100
AcDbSymbolTableRecord
100
AcDbBlockTableRecord
  2
block 45
340
0
102
{BLKREFS
331
191
102
}
  0
BLOCK_RECORD
  5
198
330
1
100
AcDbSymbolTableRecord
100
AcDbBlockTableRecord
  2
block 46
340
0
102
{BLKREFS
331
199
102
}
  0
BLOCK_RECORD
  5
19C
330
1
100
AcDbSymbolTableRecord
100
AcDbBlockTableRecord
  2
block 47
340
0
102
{BLKREFS
331
19D
102
}
  0
BLOCK_RECORD
  5
1A4
330
1
100
AcDbSymbolTableRecord
100
AcDbBlockTableRecord
  2
block 48
340
0
102
{BLKREFS
331
1A5
102
}
  0
BLOCK_RECORD
  5
1AC
330
1
100
AcDbSymbolTableRecord
100
AcDbBlockTableRecord
  2
block 49
340
0
102
{BLKREFS
331
1AD
102
}
  0
BLOCK_RECORD
  5
1B4
330
1
100
AcDbSymbolTableRecord
100
AcDbBlockTableRecord
  2
block 50
340
0
102
{BLKREFS
331
1B5
102
}
  0
BLOCK_RECORD
  5
1BC
330
1
100
AcDbSymbolTableRecord
100
AcDbBlockTableRecord
  2
block 51
340
0
102
{BLKREFS
331
1BD
102
}
  0
BLOCK_RECORD
  5
1C4
330
1
100
AcDbSymbolTableRecord
100
AcDbBlockTableRecord
  2
block 52
340
0
102
{BLKREFS
331
1C5
102
}
  0
BLOCK_RECORD
  5
1CF
330
1
100
AcDbSymbolTableRecord
100
AcDbBlockTableRecord
  2
block 53
340
0
102
{BLKREFS
331
1D0
102
}
  0
BLOCK_RECORD
  5
1DA
330
1
100
AcDbSymbolTableRecord
100
AcDbBlockTableRecord
  2
block 54
340
0
102
{BLKREFS
331
1DB
102
}
  0
BLOCK_RECORD
  5
1DF
330
1
100
AcDbSymbolTableRecord
100
AcDbBlockTableRecord
  2
block 55
340
0
102
{BLKREFS
331
1E0
102
}
  0
BLOCK_RECORD
  5
1E7
330
1
100
AcDbSymbolTableRecord
100
AcDbBlockTableRecord
  2
block 56
340
0
102
{BLKREFS
331
1E8
102
}
  0
BLOCK_RECORD
  5
1EF
330
1
100
AcDbSymbolTableRecord
100
AcDbBlockTableRecord
  2
block 57
340
0
102
{BLKREFS
331
1F0
102
}
  0
BLOCK_RECORD
  5
1F7
330
1
100
AcDbSymbolTableRecord
100
AcDbBlockTableRecord
  2
block 58
340
0
102
{BLKREFS
331
1F8
102
}
  0
BLOCK_RECORD
  5
1FB
330
1
100
AcDbSymbolTableRecord
100
AcDbBlockTableRecord
  2
block 59
340
0
102
{BLKREFS
331
1FC
102
}
  0
BLOCK_RECORD
  5
203
330
1
100
AcDbSymbolTableRecord
100
AcDbBlockTableRecord
  2
block 60
340
0
102
{BLKREFS
331
204
102
}
  0
BLOCK_RECORD
  5
20B
330
1
100
AcDbSymbolTableRecord
100
AcDbBlockTableRecord
  2
block 61
340
0
102
{BLKREFS
331
20C
102
}
  0
BLOCK_RECORD
  5
213
330
1
100
AcDbSymbolTableRecord
100
AcDbBlockTableRecord
  2
block 62
340
0
102
{BLKREFS
331
214
102
}
  0
BLOCK_RECORD
  5
21B
330
1
100
AcDbSymbolTableRecord
100
AcDbBlockTableRecord
  2
block 63
340
0
102
{BLKREFS
331
21C
102
}
  0
BLOCK_RECORD
  5
226
330
1
100
AcDbSymbolTableRecord
100
AcDbBlockTableRecord
  2
block 64
340
0
102
{BLKREFS
331
227
102
}
  0
BLOCK_RECORD
  5
231
330
1
100
AcDbSymbolTableRecord
100
AcDbBlockTableRecord
  2
block 65
340
0
102
{BLKREFS
331
232
102
}
  0
BLOCK_RECORD
  5
236
330
1
100
AcDbSymbolTableRecord
100
AcDbBlockTableRecord
  2
block 66
340
0
102
{BLKREFS
331
237
102
}
  0
BLOCK_RECORD
  5
23E
330
1
100
AcDbSymbolTableRecord
100
AcDbBlockTableRecord
  2
block 67
340
0
102
{BLKREFS
331
23F
102
}
  0
BLOCK_RECORD
  5
246
330
1
100
AcDbSymbolTableRecord
100
AcDbBlockTableRecord
  2
block 68
340
0
102
{BLKREFS
331
247
102
}
  0
BLOCK_RECORD
  5
24E
330
1
100
AcDbSymbolTableRecord
100
AcDbBlockTableRecord
  2
block 69
340
0
102
{BLKREFS
331
24F
102
}
  0
BLOCK_RECORD
  5
252
330
1
100
AcDbSymbolTableRecord
100
AcDbBlockTableRecord
  2
block 70
340
0
102
{BLKREFS
331
253
102
}
  0
BLOCK_RECORD
  5
25A
330
1
100
AcDbSymbolTableRecord
100
AcDbBlockTableRecord
  2
block 71
340
0
102
{BLKREFS
331
25B
102
}
  0
BLOCK_RECORD
  5
262
330
1
100
AcDbSymbolTableRecord
100
AcDbBlockTableRecord
  2
block 72
340
0
102
{BLKREFS
331
263
102
}
  0
BLOCK_RECORD
  5
26A
330
1
100
AcDbSymbolTableRecord
100
AcDbBlockTableRecord
  2
block 73
340
0
102
{BLKREFS
331
26B
102
}
  0
BLOCK_RECORD
  5
272
330
1
100
AcDbSymbolTableRecord
100
AcDbBlockTableRecord
  2
block 74
340
0
102
{BLKREFS
331
273
102
}
  0
BLOCK_RECORD
  5
27D
330
1
100
AcDbSymbolTableRecord
100
AcDbBlockTableRecord
  2
block 75
340
0
102
{BLKREFS
331
27E
102
}
  0
BLOCK_RECORD
  5
288
330
1
100
AcDbSymbolTableRecord
100
AcDbBlockTableRecord
  2
block 76
340
0
102
{BLKREFS
331
289
102
}
  0
BLOCK_RECORD
  5
28D
330
1
100
AcDbSymbolTableRecord
100
AcDbBlockTableRecord
  2
block 77
340
0
102
{BLKREFS
331
28E
102
}
  0
BLOCK_RECORD
  5
295
330
1
100
AcDbSymbolTableRecord
100
AcDbBlockTableRecord
  2
block 78
340
0
102
{BLKREFS
331
296
102
}
  0
BLOCK_RECORD
  5
29D
330
1
100
AcDbSymbolTableRecord
100
AcDbBlockTableRecord
  2
block 79
340
0
102
{BLKREFS
331
29E
102
}
  0
BLOCK_RECORD
  5
2A5
330
1
100
AcDbSymbolTableRecord
100
AcDbBlockTableRecord
  2
block 80
340
0
102
{BLKREFS
331
2A6
102
}
  0
BLOCK_RECORD
  5
319
330
1
100
AcDbSymbolTableRecord
100
AcDbBlockTableRecord
  2
block 81
340
0
102
{BLKREFS
331
31A
102
}
  0
BLOCK_RECORD
  5
31D
330
1
100
AcDbSymbolTableRecord
100
AcDbBlockTableRecord
  2
block 82
340
0
102
{BLKREFS
331
31E
102
}
  0
BLOCK_RECORD
  5
325
330
1
100
AcDbSymbolTableRecord
100
AcDbBlockTableRecord
  2
block 83
340
0
102
{BLKREFS
331
326
102
}
  0
BLOCK_RECORD
  5
32D
330
1
100
AcDbSymbolTableRecord
100
AcDbBlockTableRecord
  2
block 84
340
0
102
{BLKREFS
331
32E
102
}
  0
BLOCK_RECORD
  5
335
330
1
100
AcDbSymbolTableRecord
100
AcDbBlockTableRecord
  2
block 85
340
0
102
{BLKREFS
331
336
102
}
  0
BLOCK_RECORD
  5
33D
330
1
100
AcDbSymbolTableRecord
100
AcDbBlockTableRecord
  2
block 86
340
0
102
{BLKREFS
331
33E
102
}
  0
BLOCK_RECORD
  5
345
330
1
100
AcDbSymbolTableRecord
100
AcDbBlockTableRecord
  2
block 87
340
0
102
{BLKREFS
331
346
102
}
  0
BLOCK_RECORD
  5
350
330
1
100
AcDbSymbolTableRecord
100
AcDbBlockTableRecord
  2
block 88
340
0
102
{BLKREFS
331
351
102
}
  0
BLOCK_RECORD
  5
35B
330
1
100
AcDbSymbolTableRecord
100
AcDbBlockTableRecord
  2
block 89
340
0
102
{BLKREFS
331
35C
102
}
  0
BLOCK_RECORD
  5
360
330
1
100
AcDbSymbolTableRecord
100
AcDbBlockTableRecord
  2
block 90
340
0
102
{BLKREFS
331
361
102
}
  0
BLOCK_RECORD
  5
368
330
1
100
AcDbSymbolTableRecord
100
AcDbBlockTableRecord
  2
block 91
340
0
102
{BLKREFS
331
369
102
}
  0
BLOCK_RECORD
  5
370
330
1
100
AcDbSymbolTableRecord
100
AcDbBlockTableRecord
  2
block 92
340
0
102
{BLKREFS
331
371
102
}
  0
BLOCK_RECORD
  5
379
330
1
100
AcDbSymbolTableRecord
100
AcDbBlockTableRecord
  2
block 93
340
0
102
{BLKREFS
331
37A
102
}
  0
BLOCK_RECORD
  5
381
330
1
100
AcDbSymbolTableRecord
100
AcDbBlockTableRecord
  2
block 94
340
0
102
{BLKREFS
331
382
102
}
  0
BLOCK_RECORD
  5
389
330
1
100
AcDbSymbolTableRecord
100
AcDbBlockTableRecord
  2
block 95
340
0
102
{BLKREFS
331
38A
102
}
  0
BLOCK_RECORD
  5
391
330
1
100
AcDbSymbolTableRecord
100
AcDbBlockTableRecord
  2
block 96
340
0
102
{BLKREFS
331
392
102
}
  0
BLOCK_RECORD
  5
399
330
1
100
AcDbSymbolTableRecord
100
AcDbBlockTableRecord
  2
block 97
340
0
102
{BLKREFS
331
39A
102
}
  0
BLOCK_RECORD
  5
3A1
330
1
100
AcDbSymbolTableRecord
100
AcDbBlockTableRecord
  2
block 98
340
0
102
{BLKREFS
331
3A2
102
}
  0
BLOCK_RECORD
  5
3A9
330
1
100
AcDbSymbolTableRecord
100
AcDbBlockTableRecord
  2
block 99
340
0
102
{BLKREFS
331
3AA
102
}
  0
BLOCK_RECORD
  5
3B1
330
1
100
AcDbSymbolTableRecord
100
AcDbBlockTableRecord
  2
block 100
340
0
102
{BLKREFS
331
3B2
102
}
  0
BLOCK_RECORD
  5
3B9
330
1
100
AcDbSymbolTableRecord
100
AcDbBlockTableRecord
  2
block 101
340
0
102
{BLKREFS
331
3BA
102
}
  0
BLOCK_RECORD
  5
3C1
330
1
100
AcDbSymbolTableRecord
100
AcDbBlockTableRecord
  2
block 102
340
0
102
{BLKREFS
331
3C2
102
}
  0
BLOCK_RECORD
  5
3C9
330
1
100
AcDbSymbolTableRecord
100
AcDbBlockTableRecord
  2
block 103
340
0
102
{BLKREFS
331
3CA
102
}
  0
BLOCK_RECORD
  5
3D1
330
1
100
AcDbSymbolTableRecord
100
AcDbBlockTableRecord
  2
block 104
340
0
102
{BLKREFS
331
3D2
102
}
  0
BLOCK_RECORD
  5
3D9
330
1
100
AcDbSymbolTableRecord
100
AcDbBlockTableRecord
  2
block 105
340
0
102
{BLKREFS
331
3DA
102
}
  0
BLOCK_RECORD
  5
3E1
330
1
100
AcDbSymbolTableRecord
100
AcDbBlockTableRecord
  2
block 106
340
0
102
{BLKREFS
331
3E2
102
}
  0
BLOCK_RECORD
  5
3E9
330
1
100
AcDbSymbolTableRecord
100
AcDbBlockTableRecord
  2
block 107
340
0
102
{BLKREFS
331
3EA
102
}
  0
BLOCK_RECORD
  5
3F1
330
1
100
AcDbSymbolTableRecord
100
AcDbBlockTableRecord
  2
block 108
340
0
102
{BLKREFS
331
3F2
102
}
  0
BLOCK_RECORD
  5
3F9
330
1
100
AcDbSymbolTableRecord
100
AcDbBlockTableRecord
  2
block 109
340
0
102
{BLKREFS
331
3FA
102
}
  0
BLOCK_RECORD
  5
3FE
330
1
100
AcDbSymbolTableRecord
100
AcDbBlockTableRecord
  2
block 110
340
0
102
{BLKREFS
331
3FF
102
}
  0
BLOCK_RECORD
  5
406
330
1
100
AcDbSymbolTableRecord
100
AcDbBlockTableRecord
  2
block 111
340
0
102
{BLKREFS
331
407
102
}
  0
BLOCK_RECORD
  5
40E
330
1
100
AcDbSymbolTableRecord
100
AcDbBlockTableRecord
  2
block 112
340
0
102
{BLKREFS
331
40F
102
}
  0
BLOCK_RECORD
  5
416
330
1
100
AcDbSymbolTableRecord
100
AcDbBlockTableRecord
  2
block 113
340
0
102
{BLKREFS
331
417
102
}
  0
BLOCK_RECORD
  5
41E
330
1
100
AcDbSymbolTableRecord
100
AcDbBlockTableRecord
  2
block 114
340
0
102
{BLKREFS
331
41F
102
}
  0
BLOCK_RECORD
  5
426
330
1
100
AcDbSymbolTableRecord
100
AcDbBlockTableRecord
  2
block 115
340
0
102
{BLKREFS
331
427
102
}
  0
BLOCK_RECORD
  5
42E
330
1
100
AcDbSymbolTableRecord
100
AcDbBlockTableRecord
  2
block 116
340
0
102
{BLKREFS
331
42F
102
}
  0
BLOCK_RECORD
  5
436
330
1
100
AcDbSymbolTableRecord
100
AcDbBlockTableRecord
  2
block 117
340
0
102
{BLKREFS
331
437
102
}
  0
BLOCK_RECORD
  5
43E
330
1
100
AcDbSymbolTableRecord
100
AcDbBlockTableRecord
  2
block 118
340
0
102
{BLKREFS
331
43F
102
}
  0
BLOCK_RECORD
  5
446
330
1
100
AcDbSymbolTableRecord
100
AcDbBlockTableRecord
  2
block 119
340
0
102
{BLKREFS
331
447
102
}
  0
BLOCK_RECORD
  5
44E
330
1
100
AcDbSymbolTableRecord
100
AcDbBlockTableRecord
  2
block 120
340
0
102
{BLKREFS
331
44F
102
}
  0
BLOCK_RECORD
  5
456
330
1
100
AcDbSymbolTableRecord
100
AcDbBlockTableRecord
  2
block 121
340
0
102
{BLKREFS
331
457
102
}
  0
BLOCK_RECORD
  5
45E
330
1
100
AcDbSymbolTableRecord
100
AcDbBlockTableRecord
  2
block 122
340
0
102
{BLKREFS
331
45F
102
}
  0
BLOCK_RECORD
  5
466
330
1
100
AcDbSymbolTableRecord
100
AcDbBlockTableRecord
  2
block 123
340
0
102
{BLKREFS
331
467
102
}
  0
BLOCK_RECORD
  5
46E
330
1
100
AcDbSymbolTableRecord
100
AcDbBlockTableRecord
  2
block 124
340
0
102
{BLKREFS
331
46F
102
}
  0
BLOCK_RECORD
  5
473
330
1
100
AcDbSymbolTableRecord
100
AcDbBlockTableRecord
  2
block 125
340
0
102
{BLKREFS
331
474
102
}
  0
BLOCK_RECORD
  5
478
330
1
100
AcDbSymbolTableRecord
100
AcDbBlockTableRecord
  2
block 126
340
0
102
{BLKREFS
331
479
102
}
  0
BLOCK_RECORD
  5
480
330
1
100
AcDbSymbolTableRecord
100
AcDbBlockTableRecord
  2
block 127
340
0
102
{BLKREFS
331
481
102
}
  0
BLOCK_RECORD
  5
488
330
1
100
AcDbSymbolTableRecord
100
AcDbBlockTableRecord
  2
block 128
340
0
102
{BLKREFS
331
489
102
}
  0
BLOCK_RECORD
  5
490
330
1
100
AcDbSymbolTableRecord
100
AcDbBlockTableRecord
  2
block 129
340
0
102
{BLKREFS
331
491
102
}
  0
BLOCK_RECORD
  5
498
330
1
100
AcDbSymbolTableRecord
100
AcDbBlockTableRecord
  2
block 130
340
0
102
{BLKREFS
331
499
102
}
  0
BLOCK_RECORD
  5
4A0
330
1
100
AcDbSymbolTableRecord
100
AcDbBlockTableRecord
  2
block 131
340
0
102
{BLKREFS
331
4A1
102
}
  0
BLOCK_RECORD
  5
4A8
330
1
100
AcDbSymbolTableRecord
100
AcDbBlockTableRecord
  2
block 132
340
0
102
{BLKREFS
331
4A9
102
}
  0
BLOCK_RECORD
  5
4B0
330
1
100
AcDbSymbolTableRecord
100
AcDbBlockTableRecord
  2
block 133
340
0
102
{BLKREFS
331
4B1
102
}
  0
BLOCK_RECORD
  5
4B8
330
1
100
AcDbSymbolTableRecord
100
AcDbBlockTableRecord
  2
block 134
340
0
102
{BLKREFS
331
4B9
102
}
  0
BLOCK_RECORD
  5
4BD
330
1
100
AcDbSymbolTableRecord
100
AcDbBlockTableRecord
  2
block 135
340
0
102
{BLKREFS
331
4BE
102
}
  0
BLOCK_RECORD
  5
4C2
330
1
100
AcDbSymbolTableRecord
100
AcDbBlockTableRecord
  2
block 136
340
0
102
{BLKREFS
331
4C3
102
}
  0
BLOCK_RECORD
  5
4CA
330
1
100
AcDbSymbolTableRecord
100
AcDbBlockTableRecord
  2
block 137
340
0
102
{BLKREFS
331
4CB
102
}
  0
BLOCK_RECORD
  5
4D2
330
1
100
AcDbSymbolTableRecord
100
AcDbBlockTableRecord
  2
block 138
340
0
102
{BLKREFS
331
4D3
102
}
  0
BLOCK_RECORD
  5
4D7
330
1
100
AcDbSymbolTableRecord
100
AcDbBlockTableRecord
  2
block 139
340
0
102
{BLKREFS
331
4D8
102
}
  0
BLOCK_RECORD
  5
4DF
330
1
100
AcDbSymbolTableRecord
100
AcDbBlockTableRecord
  2
block 140
340
0
102
{BLKREFS
331
4E0
102
}
  0
BLOCK_RECORD
  5
4E7
330
1
100
AcDbSymbolTableRecord
100
AcDbBlockTableRecord
  2
block 141
340
0
102
{BLKREFS
331
4E8
102
}
  0
BLOCK_RECORD
  5
4EF
330
1
100
AcDbSymbolTableRecord
100
AcDbBlockTableRecord
  2
block 142
340
0
102
{BLKREFS
331
4F0
102
}
  0
BLOCK_RECORD
  5
4F7
330
1
100
AcDbSymbolTableRecord
100
AcDbBlockTableRecord
  2
block 143
340
0
102
{BLKREFS
331
4F8
102
}
  0
BLOCK_RECORD
  5
4FF
330
1
100
AcDbSymbolTableRecord
100
AcDbBlockTableRecord
  2
block 144
340
0
102
{BLKREFS
331
500
102
}
  0
BLOCK_RECORD
  5
504
330
1
100
AcDbSymbolTableRecord
100
AcDbBlockTableRecord
  2
block 145
340
0
102
{BLKREFS
331
505
102
}
  0
BLOCK_RECORD
  5
509
330
1
100
AcDbSymbolTableRecord
100
AcDbBlockTableRecord
  2
block 146
340
0
102
{BLKREFS
331
50A
102
}
  0
BLOCK_RECORD
  5
511
330
1
100
AcDbSymbolTableRecord
100
AcDbBlockTableRecord
  2
block 147
340
0
102
{BLKREFS
331
512
102
}
  0
BLOCK_RECORD
  5
516
330
1
100
AcDbSymbolTableRecord
100
AcDbBlockTableRecord
  2
block 148
340
0
102
{BLKREFS
331
517
102
}
  0
BLOCK_RECORD
  5
51E
330
1
100
AcDbSymbolTableRecord
100
AcDbBlockTableRecord
  2
block 149
340
0
102
{BLKREFS
331
51F
102
}
  0
BLOCK_RECORD
  5
526
330
1
100
AcDbSymbolTableRecord
100
AcDbBlockTableRecord
  2
block 150
340
0
102
{BLKREFS
331
527
102
}
  0
BLOCK_RECORD
  5
52E
330
1
100
AcDbSymbolTableRecord
100
AcDbBlockTableRecord
  2
block 151
340
0
102
{BLKREFS
331
52F
102
}
  0
BLOCK_RECORD
  5
536
330
1
100
AcDbSymbolTableRecord
100
AcDbBlockTableRecord
  2
block 152
340
0
102
{BLKREFS
331
537
102
}
  0
BLOCK_RECORD
  5
53E
330
1
100
AcDbSymbolTableRecord
100
AcDbBlockTableRecord
  2
block 153
340
0
102
{BLKREFS
331
53F
102
}
  0
BLOCK_RECORD
  5
546
330
1
100
AcDbSymbolTableRecord
100
AcDbBlockTableRecord
  2
block 154
340
0
102
{BLKREFS
331
547
102
}
  0
BLOCK_RECORD
  5
54B
330
1
100
AcDbSymbolTableRecord
100
AcDbBlockTableRecord
  2
block 155
340
0
102
{BLKREFS
331
54C
102
}
  0
BLOCK_RECORD
  5
553
330
1
100
AcDbSymbolTableRecord
100
AcDbBlockTableRecord
  2
block 156
340
0
102
{BLKREFS
331
554
102
}
  0
BLOCK_RECORD
  5
55B
330
1
100
AcDbSymbolTableRecord
100
AcDbBlockTableRecord
  2
block 157
340
0
102
{BLKREFS
331
55C
102
}
  0
BLOCK_RECORD
  5
563
330
1
100
AcDbSymbolTableRecord
100
AcDbBlockTableRecord
  2
block 158
340
0
102
{BLKREFS
331
564
102
}
  0
BLOCK_RECORD
  5
56B
330
1
100
AcDbSymbolTableRecord
100
AcDbBlockTableRecord
  2
block 159
340
0
102
{BLKREFS
331
56C
102
}
  0
BLOCK_RECORD
  5
570
330
1
100
AcDbSymbolTableRecord
100
AcDbBlockTableRecord
  2
block 160
340
0
102
{BLKREFS
331
571
102
}
  0
BLOCK_RECORD
  5
578
330
1
100
AcDbSymbolTableRecord
100
AcDbBlockTableRecord
  2
block 161
340
0
102
{BLKREFS
331
579
102
}
  0
BLOCK_RECORD
  5
580
330
1
100
AcDbSymbolTableRecord
100
AcDbBlockTableRecord
  2
block 162
340
0
102
{BLKREFS
331
581
102
}
  0
BLOCK_RECORD
  5
588
330
1
100
AcDbSymbolTableRecord
100
AcDbBlockTableRecord
  2
block 163
340
0
102
{BLKREFS
331
589
102
}
  0
BLOCK_RECORD
  5
590
330
1
100
AcDbSymbolTableRecord
100
AcDbBlockTableRecord
  2
block 164
340
0
102
{BLKREFS
331
591
102
}
  0
BLOCK_RECORD
  5
595
330
1
100
AcDbSymbolTableRecord
100
AcDbBlockTableRecord
  2
block 165
340
0
102
{BLKREFS
331
596
102
}
  0
BLOCK_RECORD
  5
59D
330
1
100
AcDbSymbolTableRecord
100
AcDbBlockTableRecord
  2
block 166
340
0
102
{BLKREFS
331
59E
102
}
  0
BLOCK_RECORD
  5
5A5
330
1
100
AcDbSymbolTableRecord
100
AcDbBlockTableRecord
  2
block 167
340
0
102
{BLKREFS
331
5A6
102
}
  0
BLOCK_RECORD
  5
5AD
330
1
100
AcDbSymbolTableRecord
100
AcDbBlockTableRecord
  2
block 168
340
0
102
{BLKREFS
331
5AE
102
}
  0
BLOCK_RECORD
  5
5B2
330
1
100
AcDbSymbolTableRecord
100
AcDbBlockTableRecord
  2
block 169
340
0
102
{BLKREFS
331
5B3
102
}
  0
BLOCK_RECORD
  5
5BA
330
1
100
AcDbSymbolTableRecord
100
AcDbBlockTableRecord
  2
block 170
340
0
102
{BLKREFS
331
5BB
102
}
  0
BLOCK_RECORD
  5
5C2
330
1
100
AcDbSymbolTableRecord
100
AcDbBlockTableRecord
  2
block 171
340
0
102
{BLKREFS
331
5C3
102
}
  0
BLOCK_RECORD
  5
5CA
330
1
100
AcDbSymbolTableRecord
100
AcDbBlockTableRecord
  2
block 172
340
0
102
{BLKREFS
331
5CB
102
}
  0
BLOCK_RECORD
  5
5CF
330
1
100
AcDbSymbolTableRecord
100
AcDbBlockTableRecord
  2
block 173
340
0
102
{BLKREFS
331
5D0
102
}
  0
BLOCK_RECORD
  5
5D4
330
1
100
AcDbSymbolTableRecord
100
AcDbBlockTableRecord
  2
block 174
340
0
102
{BLKREFS
331
5D5
102
}
  0
BLOCK_RECORD
  5
5D9
330
1
100
AcDbSymbolTableRecord
100
AcDbBlockTableRecord
  2
block 175
340
0
102
{BLKREFS
331
5DA
102
}
  0
BLOCK_RECORD
  5
5E1
330
1
100
AcDbSymbolTableRecord
100
AcDbBlockTableRecord
  2
block 176
340
0
102
{BLKREFS
331
5E2
102
}
  0
BLOCK_RECORD
  5
5E9
330
1
100
AcDbSymbolTableRecord
100
AcDbBlockTableRecord
  2
block 177
340
0
102
{BLKREFS
331
5EA
102
}
  0
BLOCK_RECORD
  5
5EE
330
1
100
AcDbSymbolTableRecord
100
AcDbBlockTableRecord
  2
block 178
340
0
102
{BLKREFS
331
5EF
102
}
  0
BLOCK_RECORD
  5
5F6
330
1
100
AcDbSymbolTableRecord
100
AcDbBlockTableRecord
  2
block 179
340
0
102
{BLKREFS
331
5F7
102
}
  0
BLOCK_RECORD
  5
5FE
330
1
100
AcDbSymbolTableRecord
100
AcDbBlockTableRecord
  2
block 180
340
0
102
{BLKREFS
331
5FF
102
}
  0
BLOCK_RECORD
  5
606
330
1
100
AcDbSymbolTableRecord
100
AcDbBlockTableRecord
  2
block 181
340
0
102
{BLKREFS
331
607
102
}
  0
BLOCK_RECORD
  5
60E
330
1
100
AcDbSymbolTableRecord
100
AcDbBlockTableRecord
  2
block 182
340
0
102
{BLKREFS
331
60F
102
}
  0
BLOCK_RECORD
  5
616
330
1
100
AcDbSymbolTableRecord
100
AcDbBlockTableRecord
  2
block 183
340
0
102
{BLKREFS
331
617
102
}
  0
BLOCK_RECORD
  5
61E
330
1
100
AcDbSymbolTableRecord
100
AcDbBlockTableRecord
  2
block 184
340
0
102
{BLKREFS
331
61F
102
}
  0
BLOCK_RECORD
  5
626
330
1
100
AcDbSymbolTableRecord
100
AcDbBlockTableRecord
  2
block 185
340
0
102
{BLKREFS
331
627
102
}
  0
BLOCK_RECORD
  5
62E
330
1
100
AcDbSymbolTableRecord
100
AcDbBlockTableRecord
  2
block 186
340
0
102
{BLKREFS
331
62F
102
}
  0
BLOCK_RECORD
  5
636
330
1
100
AcDbSymbolTableRecord
100
AcDbBlockTableRecord
  2
block 187
340
0
102
{BLKREFS
331
637
102
}
  0
BLOCK_RECORD
  5
63E
330
1
100
AcDbSymbolTableRecord
100
AcDbBlockTableRecord
  2
block 188
340
0
102
{BLKREFS
331
63F
102
}
  0
BLOCK_RECORD
  5
646
330
1
100
AcDbSymbolTableRecord
100
AcDbBlockTableRecord
  2
block 189
340
0
102
{BLKREFS
331
647
102
}
  0
BLOCK_RECORD
  5
64E
330
1
100
AcDbSymbolTableRecord
100
AcDbBlockTableRecord
  2
block 190
340
0
102
{BLKREFS
331
64F
102
}
  0
BLOCK_RECORD
  5
656
330
1
100
AcDbSymbolTableRecord
100
AcDbBlockTableRecord
  2
block 191
340
0
102
{BLKREFS
331
657
102
}
  0
BLOCK_RECORD
  5
65E
330
1
100
AcDbSymbolTableRecord
100
AcDbBlockTableRecord
  2
block 192
340
0
102
{BLKREFS
331
65F
102
}
  0
BLOCK_RECORD
  5
666
330
1
100
AcDbSymbolTableRecord
100
AcDbBlockTableRecord
  2
block 193
340
0
102
{BLKREFS
331
667
102
}
  0
BLOCK_RECORD
  5
66E
330
1
100
AcDbSymbolTableRecord
100
AcDbBlockTableRecord
  2
block 194
340
0
102
{BLKREFS
331
66F
102
}
  0
BLOCK_RECORD
  5
676
330
1
100
AcDbSymbolTableRecord
100
AcDbBlockTableRecord
  2
block 195
340
0
102
{BLKREFS
331
677
102
}
  0
BLOCK_RECORD
  5
67E
330
1
100
AcDbSymbolTableRecord
100
AcDbBlockTableRecord
  2
block 196
340
0
102
{BLKREFS
331
67F
102
}
  0
BLOCK_RECORD
  5
683
330
1
100
AcDbSymbolTableRecord
100
AcDbBlockTableRecord
  2
block 197
340
0
102
{BLKREFS
331
684
102
}
  0
BLOCK_RECORD
  5
68B
330
1
100
AcDbSymbolTableRecord
100
AcDbBlockTableRecord
  2
block 198
340
0
102
{BLKREFS
331
68C
102
}
  0
BLOCK_RECORD
  5
693
330
1
100
AcDbSymbolTableRecord
100
AcDbBlockTableRecord
  2
block 199
340
0
102
{BLKREFS
331
694
102
}
  0
BLOCK_RECORD
  5
698
330
1
100
AcDbSymbolTableRecord
100
AcDbBlockTableRecord
  2
block 200
340
0
102
{BLKREFS
331
699
102
}
  0
BLOCK_RECORD
  5
6A0
330
1
100
AcDbSymbolTableRecord
100
AcDbBlockTableRecord
  2
block 201
340
0
102
{BLKREFS
331
6A1
102
}
  0
BLOCK_RECORD
  5
6A8
330
1
100
AcDbSymbolTableRecord
100
AcDbBlockTableRecord
  2
block 202
340
0
102
{BLKREFS
331
6A9
102
}
  0
BLOCK_RECORD
  5
6B0
330
1
100
AcDbSymbolTableRecord
100
AcDbBlockTableRecord
  2
block 203
340
0
102
{BLKREFS
331
6B1
102
}
  0
BLOCK_RECORD
  5
6B8
330
1
100
AcDbSymbolTableRecord
100
AcDbBlockTableRecord
  2
block 204
340
0
102
{BLKREFS
331
6B9
102
}
  0
BLOCK_RECORD
  5
6BD
330
1
100
AcDbSymbolTableRecord
100
AcDbBlockTableRecord
  2
block 205
340
0
102
{BLKREFS
331
6BE
102
}
  0
BLOCK_RECORD
  5
6C2
330
1
100
AcDbSymbolTableRecord
100
AcDbBlockTableRecord
  2
block 206
340
0
102
{BLKREFS
331
6C3
102
}
  0
BLOCK_RECORD
  5
6C7
330
1
100
AcDbSymbolTableRecord
100
AcDbBlockTableRecord
  2
block 207
340
0
102
{BLKREFS
331
6C8
102
}
  0
BLOCK_RECORD
  5
6CC
330
1
100
AcDbSymbolTableRecord
100
AcDbBlockTableRecord
  2
block 208
340
0
102
{BLKREFS
331
6CD
102
}
  0
BLOCK_RECORD
  5
6D1
330
1
100
AcDbSymbolTableRecord
100
AcDbBlockTableRecord
  2
block 209
340
0
102
{BLKREFS
331
6D2
102
}
  0
BLOCK_RECORD
  5
6D6
330
1
100
AcDbSymbolTableRecord
100
AcDbBlockTableRecord
  2
block 210
340
0
102
{BLKREFS
331
6D7
102
}
  0
BLOCK_RECORD
  5
6DE
330
1
100
AcDbSymbolTableRecord
100
AcDbBlockTableRecord
  2
block 211
340
0
102
{BLKREFS
331
6DF
102
}
  0
BLOCK_RECORD
  5
6E6
330
1
100
AcDbSymbolTableRecord
100
AcDbBlockTableRecord
  2
block 212
340
0
102
{BLKREFS
331
6E7
102
}
  0
BLOCK_RECORD
  5
6EE
330
1
100
AcDbSymbolTableRecord
100
AcDbBlockTableRecord
  2
block 213
340
0
102
{BLKREFS
331
6EF
102
}
  0
BLOCK_RECORD
  5
6F6
330
1
100
AcDbSymbolTableRecord
100
AcDbBlockTableRecord
  2
block 214
340
0
102
{BLKREFS
331
6F7
102
}
  0
BLOCK_RECORD
  5
6FE
330
1
100
AcDbSymbolTableRecord
100
AcDbBlockTableRecord
  2
block 215
340
0
102
{BLKREFS
331
6FF
102
}
  0
BLOCK_RECORD
  5
706
330
1
100
AcDbSymbolTableRecord
100
AcDbBlockTableRecord
  2
block 216
340
0
102
{BLKREFS
331
707
102
}
  0
BLOCK_RECORD
  5
70E
330
1
100
AcDbSymbolTableRecord
100
AcDbBlockTableRecord
  2
block 217
340
0
102
{BLKREFS
331
70F
102
}
  0
BLOCK_RECORD
  5
716
330
1
100
AcDbSymbolTableRecord
100
AcDbBlockTableRecord
  2
block 218
340
0
102
{BLKREFS
331
717
102
}
  0
BLOCK_RECORD
  5
71E
330
1
100
AcDbSymbolTableRecord
100
AcDbBlockTableRecord
  2
block 219
340
0
102
{BLKREFS
331
71F
102
}
  0
BLOCK_RECORD
  5
726
330
1
100
AcDbSymbolTableRecord
100
AcDbBlockTableRecord
  2
block 220
340
0
102
{BLKREFS
331
727
102
}
  0
BLOCK_RECORD
  5
72E
330
1
100
AcDbSymbolTableRecord
100
AcDbBlockTableRecord
  2
block 221
340
0
102
{BLKREFS
331
72F
102
}
  0
BLOCK_RECORD
  5
736
330
1
100
AcDbSymbolTableRecord
100
AcDbBlockTableRecord
  2
block 222
340
0
102
{BLKREFS
331
737
102
}
  0
BLOCK_RECORD
  5
73E
330
1
100
AcDbSymbolTableRecord
100
AcDbBlockTableRecord
  2
block 223
340
0
102
{BLKREFS
331
73F
102
}
  0
BLOCK_RECORD
  5
746
330
1
100
AcDbSymbolTableRecord
100
AcDbBlockTableRecord
  2
block 224
340
0
102
{BLKREFS
331
747
102
}
  0
BLOCK_RECORD
  5
74E
330
1
100
AcDbSymbolTableRecord
100
AcDbBlockTableRecord
  2
block 225
340
0
102
{BLKREFS
331
74F
102
}
  0
BLOCK_RECORD
  5
753
330
1
100
AcDbSymbolTableRecord
100
AcDbBlockTableRecord
  2
block 226
340
0
102
{BLKREFS
331
754
102
}
  0
BLOCK_RECORD
  5
758
330
1
100
AcDbSymbolTableRecord
100
AcDbBlockTableRecord
  2
block 227
340
0
102
{BLKREFS
331
759
102
}
  0
BLOCK_RECORD
  5
75D
330
1
100
AcDbSymbolTableRecord
100
AcDbBlockTableRecord
  2
block 228
340
0
102
{BLKREFS
331
75E
102
}
  0
ENDTAB
  0
ENDSEC
  0
SECTION
  2
BLOCKS
  0
BLOCK
  5
20
330
1F
100
AcDbEntity
  8
0
100
AcDbBlockBegin
  2
*Model_Space
 70
     0
 71
     0
 10
0.0
 20
0.0
 30
0.0
  3
*Model_Space
  1

  0
ENDBLK
  5
21
330
1F
100
AcDbEntity
  8
0
100
AcDbBlockEnd
  0
BLOCK
  5
1C
330
1B
100
AcDbEntity
 67
     1
  8
0
100
AcDbBlockBegin
  2
*Paper_Space
 70
     0
 71
     0
 10
0.0
 20
0.0
 30
0.0
  3
*Paper_Space
  1

  0
ENDBLK
  5
1D
330
1B
100
AcDbEntity
 67
     1
  8
0
100
AcDbBlockEnd
  0
BLOCK
  5
24
330
23
100
AcDbEntity
  8
0
100
AcDbBlockBegin
  2
*Paper_Space0
 70
     0
 71
     0
 10
0.0
 20
0.0
 30
0.0
  3
*Paper_Space0
  1

  0
ENDBLK
  5
25
330
23
100
AcDbEntity
  8
0
100
AcDbBlockEnd
  0
BLOCK
  5
3E
330
3C
100
AcDbEntity
  8
0
100
AcDbBlockBegin
  2
block 2
 70
     0
 71
     0
 10
0.0
 20
0.0
 30
0.0
  3
block 2
  1

  0
INSERT
  5
41
330
3C
100
AcDbEntity
  8
cotas
100
AcDbBlockReference
  2
block 3
 10
0.0
 20
0.0
 30
0.0
  0
INSERT
  5
49
330
3C
100
AcDbEntity
  8
cotas
100
AcDbBlockReference
  2
block 4
 10
0.0
 20
0.0
 30
0.0
  0
INSERT
  5
51
330
3C
100
AcDbEntity
  8
cotas
100
AcDbBlockReference
  2
block 5
 10
0.0
 20
0.0
 30
0.0
  0
INSERT
  5
59
330
3C
100
AcDbEntity
  8
cotas
100
AcDbBlockReference
  2
block 6
 10
0.0
 20
0.0
 30
0.0
  0
INSERT
  5
61
330
3C
100
AcDbEntity
  8
cotas
100
AcDbBlockReference
  2
block 7
 10
0.0
 20
0.0
 30
0.0
  0
INSERT
  5
6C
330
3C
100
AcDbEntity
  8
cotas
100
AcDbBlockReference
  2
block 8
 10
0.0
 20
0.0
 30
0.0
  0
INSERT
  5
77
330
3C
100
AcDbEntity
  8
cotas
100
AcDbBlockReference
  2
block 9
 10
0.0
 20
0.0
 30
0.0
  0
INSERT
  5
7C
330
3C
100
AcDbEntity
  8
cotas
100
AcDbBlockReference
  2
block 10
 10
0.0
 20
0.0
 30
0.0
  0
INSERT
  5
84
330
3C
100
AcDbEntity
  8
cotas
100
AcDbBlockReference
  2
block 11
 10
0.0
 20
0.0
 30
0.0
  0
INSERT
  5
8C
330
3C
100
AcDbEntity
  8
cotas
100
AcDbBlockReference
  2
block 12
 10
0.0
 20
0.0
 30
0.0
  0
ENDBLK
  5
3F
330
3C
100
AcDbEntity
  8
0
100
AcDbBlockEnd
  0
BLOCK
  5
42
330
40
100
AcDbEntity
  8
0
100
AcDbBlockBegin
  2
block 3
 70
     0
 71
     0
 10
0.0
 20
0.0
 30
0.0
  3
block 3
  1

  0
POLYLINE
  5
44
330
40
100
AcDbEntity
  8
cotas
 62
   253
420
 11382189
370
    25
100
AcDb2dPolyline
 66
     1
 10
0.0
 20
0.0
 30
0.0
  0
VERTEX
  5
45
330
44
100
AcDbEntity
  8
cotas
 62
   253
420
 11382189
370
    25
100
AcDbVertex
100
AcDb2dVertex
 10
53.93073050952079
 20
87.76690807267633
 30
0.0
  0
VERTEX
  5
46
330
44
100
AcDbEntity
  8
cotas
 62
   253
420
 11382189
370
    25
100
AcDbVertex
100
AcDb2dVertex
 10
53.93073050952079
 20
100.9695475007993
 30
0.0
  0
SEQEND
  5
47
330
44
100
AcDbEntity
  8
cotas
370
    25
  0
ENDBLK
  5
43
330
40
100
AcDbEntity
  8
0
100
AcDbBlockEnd
  0
BLOCK
  5
4A
330
48
100
AcDbEntity
  8
0
100
AcDbBlockBegin
  2
block 4
 70
     0
 71
     0
 10
0.0
 20
0.0
 30
0.0
  3
block 4
  1

  0
POLYLINE
  5
4C
330
48
100
AcDbEntity
  8
cotas
 62
   253
420
 11382189
370
    25
100
AcDb2dPolyline
 66
     1
 10
0.0
 20
0.0
 30
0.0
  0
VERTEX
  5
4D
330
4C
100
AcDbEntity
  8
cotas
 62
   253
420
 11382189
370
    25
100
AcDbVertex
100
AcDb2dVertex
 10
21.15925970608171
 20
84.39588214035936
 30
0.0
  0
VERTEX
  5
4E
330
4C
100
AcDbEntity
  8
cotas
 62
   253
420
 11382189
370
    25
100
AcDbVertex
100
AcDb2dVertex
 10
21.15925970608171
 20
100.9695475007993
 30
0.0
  0
SEQEND
  5
4F
330
4C
100
AcDbEntity
  8
cotas
370
    25
  0
ENDBLK
  5
4B
330
48
100
AcDbEntity
  8
0
100
AcDbBlockEnd
  0
BLOCK
  5
52
330
50
100
AcDbEntity
  8
0
100
AcDbBlockBegin
  2
block 5
 70
     0
 71
     0
 10
0.0
 20
0.0
 30
0.0
  3
block 5
  1

  0
POLYLINE
  5
54
330
50
100
AcDbEntity
  8
cotas
 62
   253
420
 11382189
370
    25
100
AcDb2dPolyline
 66
     1
 10
0.0
 20
0.0
 30
0.0
  0
VERTEX
  5
55
330
54
100
AcDbEntity
  8
cotas
 62
   253
420
 11382189
370
    25
100
AcDbVertex
100
AcDb2dVertex
 10
52.54046222644822
 20
99.97632647240175
 30
0.0
  0
VERTEX
  5
56
330
54
100
AcDbEntity
  8
cotas
 62
   253
420
 11382189
370
    25
100
AcDbVertex
100
AcDb2dVertex
 10
42.69317354618435
 20
99.97632647240175
 30
0.0
  0
SEQEND
  5
57
330
54
100
AcDbEntity
  8
cotas
370
    25
  0
ENDBLK
  5
53
330
50
100
AcDbEntity
  8
0
100
AcDbBlockEnd
  0
BLOCK
  5
5A
330
58
100
AcDbEntity
  8
0
100
AcDbBlockBegin
  2
block 6
 70
     0
 71
     0
 10
0.0
 20
0.0
 30
0.0
  3
block 6
  1

  0
POLYLINE
  5
5C
330
58
100
AcDbEntity
  8
cotas
 62
   253
420
 11382189
370
    25
100
AcDb2dPolyline
 66
     1
 10
0.0
 20
0.0
 30
0.0
  0
VERTEX
  5
5D
330
5C
100
AcDbEntity
  8
cotas
 62
   253
420
 11382189
370
    25
100
AcDbVertex
100
AcDb2dVertex
 10
22.54952798915429
 20
99.97632647240175
 30
0.0
  0
VERTEX
  5
5E
330
5C
100
AcDbEntity
  8
cotas
 62
   253
420
 11382189
370
    25
100
AcDbVertex
100
AcDb2dVertex
 10
32.39681666941816
 20
99.97632647240175
 30
0.0
  0
SEQEND
  5
5F
330
5C
100
AcDbEntity
  8
cotas
370
    25
  0
ENDBLK
  5
5B
330
58
100
AcDbEntity
  8
0
100
AcDbBlockEnd
  0
BLOCK
  5
62
330
60
100
AcDbEntity
  8
0
100
AcDbBlockBegin
  2
block 7
 70
     0
 71
     0
 10
0.0
 20
0.0
 30
0.0
  3
block 7
  1

  0
POLYLINE
  5
64
330
60
100
AcDbEntity
  8
cotas
370
     0
100
AcDb2dPolyline
 66
     1
 10
0.0
 20
0.0
 30
0.0
  0
VERTEX
  5
65
330
64
100
AcDbEntity
  8
cotas
370
     0
100
AcDbVertex
100
AcDb2dVertex
 10
52.54046222644822
 20
100.2085259081076
 30
0.0
  0
VERTEX
  5
66
330
64
100
AcDbEntity
  8
cotas
370
     0
100
AcDbVertex
100
AcDb2dVertex
 10
52.54046222644822
 20
99.74481605579297
 30
0.0
  0
VERTEX
  5
67
330
64
100
AcDbEntity
  8
cotas
370
     0
100
AcDbVertex
100
AcDb2dVertex
 10
53.93073050952079
 20
99.97632647240175
 30
0.0
  0
VERTEX
  5
68
330
64
100
AcDbEntity
  8
cotas
370
     0
100
AcDbVertex
100
AcDb2dVertex
 10
52.54046222644822
 20
100.2085259081076
 30
0.0
  0
SEQEND
  5
69
330
64
100
AcDbEntity
  8
cotas
370
     0
  0
HATCH
  5
6A
330
60
100
AcDbEntity
  8
cotas
 62
   253
420
 11382189
100
AcDbHatch
 10
0.0
 20
0.0
 30
0.0
210
0.0
220
0.0
230
1.0
  2
SOLID
 70
     1
 71
     0
 91
        1
 92
        1
 93
        3
 72
     1
 10
52.54046222644822
 20
100.2085259081076
 11
52.54046222644822
 21
99.74481605579297
 72
     1
 10
52.54046222644822
 20
99.74481605579297
 11
53.93073050952079
 21
99.97632647240175
 72
     1
 10
53.93073050952079
 20
99.97632647240175
 11
52.54046222644822
 21
100.2085259081076
 97
        0
 75
     2
 76
     1
 98
        0
  0
ENDBLK
  5
63
330
60
100
AcDbEntity
  8
0
100
AcDbBlockEnd
  0
BLOCK
  5
6D
330
6B
100
AcDbEntity
  8
0
100
AcDbBlockBegin
  2
block 8
 70
     0
 71
     0
 10
0.0
 20
0.0
 30
0.0
  3
block 8
  1

  0
POLYLINE
  5
6F
330
6B
100
AcDbEntity
  8
cotas
370
     0
100
AcDb2dPolyline
 66
     1
 10
0.0
 20
0.0
 30
0.0
  0
VERTEX
  5
70
330
6F
100
AcDbEntity
  8
cotas
370
     0
100
AcDbVertex
100
AcDb2dVertex
 10
22.54952798915429
 20
100.2085259081076
 30
0.0
  0
VERTEX
  5
71
330
6F
100
AcDbEntity
  8
cotas
370
     0
100
AcDbVertex
100
AcDb2dVertex
 10
22.54952798915429
 20
99.74481605579297
 30
0.0
  0
VERTEX
  5
72
330
6F
100
AcDbEntity
  8
cotas
370
     0
100
AcDbVertex
100
AcDb2dVertex
 10
21.15925970608171
 20
99.97632647240175
 30
0.0
  0
VERTEX
  5
73
330
6F
100
AcDbEntity
  8
cotas
370
     0
100
AcDbVertex
100
AcDb2dVertex
 10
22.54952798915429
 20
100.2085259081076
 30
0.0
  0
SEQEND
  5
74
330
6F
100
AcDbEntity
  8
cotas
370
     0
  0
HATCH
  5
75
330
6B
100
AcDbEntity
  8
cotas
 62
   253
420
 11382189
100
AcDbHatch
 10
0.0
 20
0.0
 30
0.0
210
0.0
220
0.0
230
1.0
  2
SOLID
 70
     1
 71
     0
 91
        1
 92
        1
 93
        3
 72
     1
 10
22.54952798915429
 20
100.2085259081076
 11
22.54952798915429
 21
99.74481605579297
 72
     1
 10
22.54952798915429
 20
99.74481605579297
 11
21.15925970608171
 21
99.97632647240175
 72
     1
 10
21.15925970608171
 20
99.97632647240175
 11
22.54952798915429
 21
100.2085259081076
 97
        0
 75
     2
 76
     1
 98
        0
  0
ENDBLK
  5
6E
330
6B
100
AcDbEntity
  8
0
100
AcDbBlockEnd
  0
BLOCK
  5
78
330
76
100
AcDbEntity
  8
0
100
AcDbBlockBegin
  2
block 9
 70
     0
 71
     0
 10
0.0
 20
0.0
 30
0.0
  3
block 9
  1

  0
MTEXT
  5
7A
330
76
100
AcDbEntity
  8
cotas
 62
   253
420
 11382189
100
AcDbMText
 10
33.93453503925942
 20
98.50595971929712
 30
0.0
 40
2.979224642962469
 41
0.0
 71
     7
 72
     1
  1
\fArial|b0|i0|c0|p34;\W1;165
 73
     1
 44
1.0
  0
ENDBLK
  5
79
330
76
100
AcDbEntity
  8
0
100
AcDbBlockEnd
  0
BLOCK
  5
7D
330
7B
100
AcDbEntity
  8
0
100
AcDbBlockBegin
  2
block 10
 70
     0
 71
     0
 10
0.0
 20
0.0
 30
0.0
  3
block 10
  1

  0
POLYLINE
  5
7F
330
7B
100
AcDbEntity
  8
cotas
 62
   253
420
 11382189
370
    25
100
AcDb2dPolyline
 66
     1
 10
0.0
 20
0.0
 30
0.0
  0
VERTEX
  5
80
330
7F
100
AcDbEntity
  8
cotas
 62
   253
420
 11382189
370
    25
100
AcDbVertex
100
AcDb2dVertex
 10
53.93073050952079
 20
85.78046601588127
 30
0.0
  0
VERTEX
  5
81
330
7F
100
AcDbEntity
  8
cotas
 62
   253
420
 11382189
370
    25
100
AcDbVertex
100
AcDb2dVertex
 10
53.93073050952079
 20
85.78046601588127
 30
0.0
  0
SEQEND
  5
82
330
7F
100
AcDbEntity
  8
cotas
370
    25
  0
ENDBLK
  5
7E
330
7B
100
AcDbEntity
  8
0
100
AcDbBlockEnd
  0
BLOCK
  5
85
330
83
100
AcDbEntity
  8
0
100
AcDbBlockBegin
  2
block 11
 70
     0
 71
     0
 10
0.0
 20
0.0
 30
0.0
  3
block 11
  1

  0
POLYLINE
  5
87
330
83
100
AcDbEntity
  8
cotas
 62
   253
420
 11382189
370
    25
100
AcDb2dPolyline
 66
     1
 10
0.0
 20
0.0
 30
0.0
  0
VERTEX
  5
88
330
87
100
AcDbEntity
  8
cotas
 62
   253
420
 11382189
370
    25
100
AcDbVertex
100
AcDb2dVertex
 10
21.15925970608171
 20
82.40978459311283
 30
0.0
  0
VERTEX
  5
89
330
87
100
AcDbEntity
  8
cotas
 62
   253
420
 11382189
370
    25
100
AcDbVertex
100
AcDb2dVertex
 10
21.15925970608171
 20
82.40978459311283
 30
0.0
  0
SEQEND
  5
8A
330
87
100
AcDbEntity
  8
cotas
370
    25
  0
ENDBLK
  5
86
330
83
100
AcDbEntity
  8
0
100
AcDbBlockEnd
  0
BLOCK
  5
8D
330
8B
100
AcDbEntity
  8
0
100
AcDbBlockBegin
  2
block 12
 70
     0
 71
     0
 10
0.0
 20
0.0
 30
0.0
  3
block 12
  1

  0
POLYLINE
  5
8F
330
8B
100
AcDbEntity
  8
cotas
 62
   253
420
 11382189
370
    25
100
AcDb2dPolyline
 66
     1
 10
0.0
 20
0.0
 30
0.0
  0
VERTEX
  5
90
330
8F
100
AcDbEntity
  8
cotas
 62
   253
420
 11382189
370
    25
100
AcDbVertex
100
AcDb2dVertex
 10
21.15925970608171
 20
99.97632647240175
 30
0.0
  0
VERTEX
  5
91
330
8F
100
AcDbEntity
  8
cotas
 62
   253
420
 11382189
370
    25
100
AcDbVertex
100
AcDb2dVertex
 10
21.15925970608171
 20
99.97632647240175
 30
0.0
  0
SEQEND
  5
92
330
8F
100
AcDbEntity
  8
cotas
370
    25
  0
ENDBLK
  5
8E
330
8B
100
AcDbEntity
  8
0
100
AcDbBlockEnd
  0
BLOCK
  5
95
330
93
100
AcDbEntity
  8
0
100
AcDbBlockBegin
  2
block 13
 70
     0
 71
     0
 10
0.0
 20
0.0
 30
0.0
  3
block 13
  1

  0
INSERT
  5
98
330
93
100
AcDbEntity
  8
cotas
100
AcDbBlockReference
  2
block 14
 10
0.0
 20
0.0
 30
0.0
  0
INSERT
  5
A0
330
93
100
AcDbEntity
  8
cotas
100
AcDbBlockReference
  2
block 15
 10
0.0
 20
0.0
 30
0.0
  0
INSERT
  5
A8
330
93
100
AcDbEntity
  8
cotas
100
AcDbBlockReference
  2
block 16
 10
0.0
 20
0.0
 30
0.0
  0
INSERT
  5
B0
330
93
100
AcDbEntity
  8
cotas
100
AcDbBlockReference
  2
block 17
 10
0.0
 20
0.0
 30
0.0
  0
INSERT
  5
B8
330
93
100
AcDbEntity
  8
cotas
100
AcDbBlockReference
  2
block 18
 10
0.0
 20
0.0
 30
0.0
  0
INSERT
  5
C3
330
93
100
AcDbEntity
  8
cotas
100
AcDbBlockReference
  2
block 19
 10
0.0
 20
0.0
 30
0.0
  0
INSERT
  5
CE
330
93
100
AcDbEntity
  8
cotas
100
AcDbBlockReference
  2
block 20
 10
0.0
 20
0.0
 30
0.0
  0
INSERT
  5
D3
330
93
100
AcDbEntity
  8
cotas
100
AcDbBlockReference
  2
block 21
 10
0.0
 20
0.0
 30
0.0
  0
INSERT
  5
DB
330
93
100
AcDbEntity
  8
cotas
100
AcDbBlockReference
  2
block 22
 10
0.0
 20
0.0
 30
0.0
  0
INSERT
  5
E3
330
93
100
AcDbEntity
  8
cotas
100
AcDbBlockReference
  2
block 23
 10
0.0
 20
0.0
 30
0.0
  0
ENDBLK
  5
96
330
93
100
AcDbEntity
  8
0
100
AcDbBlockEnd
  0
BLOCK
  5
99
330
97
100
AcDbEntity
  8
0
100
AcDbBlockBegin
  2
block 14
 70
     0
 71
     0
 10
0.0
 20
0.0
 30
0.0
  3
block 14
  1

  0
POLYLINE
  5
9B
330
97
100
AcDbEntity
  8
cotas
 62
   253
420
 11382189
370
    25
100
AcDb2dPolyline
 66
     1
 10
0.0
 20
0.0
 30
0.0
  0
VERTEX
  5
9C
330
9B
100
AcDbEntity
  8
cotas
 62
   253
420
 11382189
370
    25
100
AcDbVertex
100
AcDb2dVertex
 10
51.03254393255437
 20
85.78046601588127
 30
0.0
  0
VERTEX
  5
9D
330
9B
100
AcDbEntity
  8
cotas
 62
   253
420
 11382189
370
    25
100
AcDbVertex
100
AcDb2dVertex
 10
51.03254393255437
 20
94.15997176465446
 30
0.0
  0
SEQEND
  5
9E
330
9B
100
AcDbEntity
  8
cotas
370
    25
  0
ENDBLK
  5
9A
330
97
100
AcDbEntity
  8
0
100
AcDbBlockEnd
  0
BLOCK
  5
A1
330
9F
100
AcDbEntity
  8
0
100
AcDbBlockBegin
  2
block 15
 70
     0
 71
     0
 10
0.0
 20
0.0
 30
0.0
  3
block 15
  1

  0
POLYLINE
  5
A3
330
9F
100
AcDbEntity
  8
cotas
 62
   253
420
 11382189
370
    25
100
AcDb2dPolyline
 66
     1
 10
0.0
 20
0.0
 30
0.0
  0
VERTEX
  5
A4
330
A3
100
AcDbEntity
  8
cotas
 62
   253
420
 11382189
370
    25
100
AcDbVertex
100
AcDb2dVertex
 10
21.15925970608171
 20
84.39588214035936
 30
0.0
  0
VERTEX
  5
A5
330
A3
100
AcDbEntity
  8
cotas
 62
   253
420
 11382189
370
    25
100
AcDbVertex
100
AcDb2dVertex
 10
21.15925970608171
 20
94.15997176465446
 30
0.0
  0
SEQEND
  5
A6
330
A3
100
AcDbEntity
  8
cotas
370
    25
  0
ENDBLK
  5
A2
330
9F
100
AcDbEntity
  8
0
100
AcDbBlockEnd
  0
BLOCK
  5
A9
330
A7
100
AcDbEntity
  8
0
100
AcDbBlockBegin
  2
block 16
 70
     0
 71
     0
 10
0.0
 20
0.0
 30
0.0
  3
block 16
  1

  0
POLYLINE
  5
AB
330
A7
100
AcDbEntity
  8
cotas
 62
   253
420
 11382189
370
    25
100
AcDb2dPolyline
 66
     1
 10
0.0
 20
0.0
 30
0.0
  0
VERTEX
  5
AC
330
AB
100
AcDbEntity
  8
cotas
 62
   253
420
 11382189
370
    25
100
AcDbVertex
100
AcDb2dVertex
 10
49.6422756494818
 20
93.16709524580546
 30
0.0
  0
VERTEX
  5
AD
330
AB
100
AcDbEntity
  8
cotas
 62
   253
420
 11382189
370
    25
100
AcDbVertex
100
AcDb2dVertex
 10
41.22797443630759
 20
93.16709524580546
 30
0.0
  0
SEQEND
  5
AE
330
AB
100
AcDbEntity
  8
cotas
370
    25
  0
ENDBLK
  5
AA
330
A7
100
AcDbEntity
  8
0
100
AcDbBlockEnd
  0
BLOCK
  5
B1
330
AF
100
AcDbEntity
  8
0
100
AcDbBlockBegin
  2
block 17
 70
     0
 71
     0
 10
0.0
 20
0.0
 30
0.0
  3
block 17
  1

  0
POLYLINE
  5
B3
330
AF
100
AcDbEntity
  8
cotas
 62
   253
420
 11382189
370
    25
100
AcDb2dPolyline
 66
     1
 10
0.0
 20
0.0
 30
0.0
  0
VERTEX
  5
B4
330
B3
100
AcDbEntity
  8
cotas
 62
   253
420
 11382189
370
    25
100
AcDbVertex
100
AcDb2dVertex
 10
22.54952798915429
 20
93.16709524580546
 30
0.0
  0
VERTEX
  5
B5
330
B3
100
AcDbEntity
  8
cotas
 62
   253
420
 11382189
370
    25
100
AcDbVertex
100
AcDb2dVertex
 10
30.96382920232849
 20
93.16709524580546
 30
0.0
  0
SEQEND
  5
B6
330
B3
100
AcDbEntity
  8
cotas
370
    25
  0
ENDBLK
  5
B2
330
AF
100
AcDbEntity
  8
0
100
AcDbBlockEnd
  0
BLOCK
  5
B9
330
B7
100
AcDbEntity
  8
0
100
AcDbBlockBegin
  2
block 18
 70
     0
 71
     0
 10
0.0
 20
0.0
 30
0.0
  3
block 18
  1

  0
POLYLINE
  5
BB
330
B7
100
AcDbEntity
  8
cotas
370
     0
100
AcDb2dPolyline
 66
     1
 10
0.0
 20
0.0
 30
0.0
  0
VERTEX
  5
BC
330
BB
100
AcDbEntity
  8
cotas
370
     0
100
AcDbVertex
100
AcDb2dVertex
 10
49.6422756494818
 20
93.39860566241424
 30
0.0
  0
VERTEX
  5
BD
330
BB
100
AcDbEntity
  8
cotas
370
     0
100
AcDbVertex
100
AcDb2dVertex
 10
49.6422756494818
 20
92.93489581009962
 30
0.0
  0
VERTEX
  5
BE
330
BB
100
AcDbEntity
  8
cotas
370
     0
100
AcDbVertex
100
AcDb2dVertex
 10
51.03254393255437
 20
93.16709524580546
 30
0.0
  0
VERTEX
  5
BF
330
BB
100
AcDbEntity
  8
cotas
370
     0
100
AcDbVertex
100
AcDb2dVertex
 10
49.6422756494818
 20
93.39860566241424
 30
0.0
  0
SEQEND
  5
C0
330
BB
100
AcDbEntity
  8
cotas
370
     0
  0
HATCH
  5
C1
330
B7
100
AcDbEntity
  8
cotas
 62
   253
420
 11382189
100
AcDbHatch
 10
0.0
 20
0.0
 30
0.0
210
0.0
220
0.0
230
1.0
  2
SOLID
 70
     1
 71
     0
 91
        1
 92
        1
 93
        3
 72
     1
 10
49.6422756494818
 20
93.39860566241424
 11
49.6422756494818
 21
92.93489581009962
 72
     1
 10
49.6422756494818
 20
92.93489581009962
 11
51.03254393255437
 21
93.16709524580546
 72
     1
 10
51.03254393255437
 20
93.16709524580546
 11
49.6422756494818
 21
93.39860566241424
 97
        0
 75
     2
 76
     1
 98
        0
  0
ENDBLK
  5
BA
330
B7
100
AcDbEntity
  8
0
100
AcDbBlockEnd
  0
BLOCK
  5
C4
330
C2
100
AcDbEntity
  8
0
100
AcDbBlockBegin
  2
block 19
 70
     0
 71
     0
 10
0.0
 20
0.0
 30
0.0
  3
block 19
  1

  0
POLYLINE
  5
C6
330
C2
100
AcDbEntity
  8
cotas
370
     0
100
AcDb2dPolyline
 66
     1
 10
0.0
 20
0.0
 30
0.0
  0
VERTEX
  5
C7
330
C6
100
AcDbEntity
  8
cotas
370
     0
100
AcDbVertex
100
AcDb2dVertex
 10
22.54952798915429
 20
93.39860566241424
 30
0.0
  0
VERTEX
  5
C8
330
C6
100
AcDbEntity
  8
cotas
370
     0
100
AcDbVertex
100
AcDb2dVertex
 10
22.54952798915429
 20
92.93489581009962
 30
0.0
  0
VERTEX
  5
C9
330
C6
100
AcDbEntity
  8
cotas
370
     0
100
AcDbVertex
100
AcDb2dVertex
 10
21.15925970608171
 20
93.16709524580546
 30
0.0
  0
VERTEX
  5
CA
330
C6
100
AcDbEntity
  8
cotas
370
     0
100
AcDbVertex
100
AcDb2dVertex
 10
22.54952798915429
 20
93.39860566241424
 30
0.0
  0
SEQEND
  5
CB
330
C6
100
AcDbEntity
  8
cotas
370
     0
  0
HATCH
  5
CC
330
C2
100
AcDbEntity
  8
cotas
 62
   253
420
 11382189
100
AcDbHatch
 10
0.0
 20
0.0
 30
0.0
210
0.0
220
0.0
230
1.0
  2
SOLID
 70
     1
 71
     0
 91
        1
 92
        1
 93
        3
 72
     1
 10
22.54952798915429
 20
93.39860566241424
 11
22.54952798915429
 21
92.93489581009962
 72
     1
 10
22.54952798915429
 20
92.93489581009962
 11
21.15925970608171
 21
93.16709524580546
 72
     1
 10
21.15925970608171
 20
93.16709524580546
 11
22.54952798915429
 21
93.39860566241424
 97
        0
 75
     2
 76
     1
 98
        0
  0
ENDBLK
  5
C5
330
C2
100
AcDbEntity
  8
0
100
AcDbBlockEnd
  0
BLOCK
  5
CF
330
CD
100
AcDbEntity
  8
0
100
AcDbBlockBegin
  2
block 20
 70
     0
 71
     0
 10
0.0
 20
0.0
 30
0.0
  3
block 20
  1

  0
MTEXT
  5
D1
330
CD
100
AcDbEntity
  8
cotas
 62
   253
420
 11382189
100
AcDbMText
 10
32.50154757216976
 20
91.69672849270083
 30
0.0
 40
2.979224642962469
 41
0.0
 71
     7
 72
     1
  1
\fArial|b0|i0|c0|p34;\W1;150
 73
     1
 44
1.0
  0
ENDBLK
  5
D0
330
CD
100
AcDbEntity
  8
0
100
AcDbBlockEnd
  0
BLOCK
  5
D4
330
D2
100
AcDbEntity
  8
0
100
AcDbBlockBegin
  2
block 21
 70
     0
 71
     0
 10
0.0
 20
0.0
 30
0.0
  3
block 21
  1

  0
POLYLINE
  5
D6
330
D2
100
AcDbEntity
  8
cotas
 62
   253
420
 11382189
370
    25
100
AcDb2dPolyline
 66
     1
 10
0.0
 20
0.0
 30
0.0
  0
VERTEX
  5
D7
330
D6
100
AcDbEntity
  8
cotas
 62
   253
420
 11382189
370
    25
100
AcDbVertex
100
AcDb2dVertex
 10
51.03254393255437
 20
83.79436846863474
 30
0.0
  0
VERTEX
  5
D8
330
D6
100
AcDbEntity
  8
cotas
 62
   253
420
 11382189
370
    25
100
AcDbVertex
100
AcDb2dVertex
 10
51.03254393255437
 20
83.79436846863474
 30
0.0
  0
SEQEND
  5
D9
330
D6
100
AcDbEntity
  8
cotas
370
    25
  0
ENDBLK
  5
D5
330
D2
100
AcDbEntity
  8
0
100
AcDbBlockEnd
  0
BLOCK
  5
DC
330
DA
100
AcDbEntity
  8
0
100
AcDbBlockBegin
  2
block 22
 70
     0
 71
     0
 10
0.0
 20
0.0
 30
0.0
  3
block 22
  1

  0
POLYLINE
  5
DE
330
DA
100
AcDbEntity
  8
cotas
 62
   253
420
 11382189
370
    25
100
AcDb2dPolyline
 66
     1
 10
0.0
 20
0.0
 30
0.0
  0
VERTEX
  5
DF
330
DE
100
AcDbEntity
  8
cotas
 62
   253
420
 11382189
370
    25
100
AcDbVertex
100
AcDb2dVertex
 10
21.15925970608171
 20
82.40978459311283
 30
0.0
  0
VERTEX
  5
E0
330
DE
100
AcDbEntity
  8
cotas
 62
   253
420
 11382189
370
    25
100
AcDbVertex
100
AcDb2dVertex
 10
21.15925970608171
 20
82.40978459311283
 30
0.0
  0
SEQEND
  5
E1
330
DE
100
AcDbEntity
  8
cotas
370
    25
  0
ENDBLK
  5
DD
330
DA
100
AcDbEntity
  8
0
100
AcDbBlockEnd
  0
BLOCK
  5
E4
330
E2
100
AcDbEntity
  8
0
100
AcDbBlockBegin
  2
block 23
 70
     0
 71
     0
 10
0.0
 20
0.0
 30
0.0
  3
block 23
  1

  0
POLYLINE
  5
E6
330
E2
100
AcDbEntity
  8
cotas
 62
   253
420
 11382189
370
    25
100
AcDb2dPolyline
 66
     1
 10
0.0
 20
0.0
 30
0.0
  0
VERTEX
  5
E7
330
E6
100
AcDbEntity
  8
cotas
 62
   253
420
 11382189
370
    25
100
AcDbVertex
100
AcDb2dVertex
 10
21.15925970608171
 20
93.16709524580546
 30
0.0
  0
VERTEX
  5
E8
330
E6
100
AcDbEntity
  8
cotas
 62
   253
420
 11382189
370
    25
100
AcDbVertex
100
AcDb2dVertex
 10
21.15925970608171
 20
93.16709524580546
 30
0.0
  0
SEQEND
  5
E9
330
E6
100
AcDbEntity
  8
cotas
370
    25
  0
ENDBLK
  5
E5
330
E2
100
AcDbEntity
  8
0
100
AcDbBlockEnd
  0
BLOCK
  5
EC
330
EA
100
AcDbEntity
  8
0
100
AcDbBlockBegin
  2
block 24
 70
     0
 71
     0
 10
0.0
 20
0.0
 30
0.0
  3
block 24
  1

  0
INSERT
  5
EF
330
EA
100
AcDbEntity
  8
cotas
100
AcDbBlockReference
  2
block 25
 10
0.0
 20
0.0
 30
0.0
  0
INSERT
  5
F7
330
EA
100
AcDbEntity
  8
cotas
100
AcDbBlockReference
  2
block 26
 10
0.0
 20
0.0
 30
0.0
  0
INSERT
  5
FF
330
EA
100
AcDbEntity
  8
cotas
100
AcDbBlockReference
  2
block 27
 10
0.0
 20
0.0
 30
0.0
  0
INSERT
  5
107
330
EA
100
AcDbEntity
  8
cotas
100
AcDbBlockReference
  2
block 28
 10
0.0
 20
0.0
 30
0.0
  0
INSERT
  5
10F
330
EA
100
AcDbEntity
  8
cotas
100
AcDbBlockReference
  2
block 29
 10
0.0
 20
0.0
 30
0.0
  0
INSERT
  5
11A
330
EA
100
AcDbEntity
  8
cotas
100
AcDbBlockReference
  2
block 30
 10
0.0
 20
0.0
 30
0.0
  0
INSERT
  5
125
330
EA
100
AcDbEntity
  8
cotas
100
AcDbBlockReference
  2
block 31
 10
0.0
 20
0.0
 30
0.0
  0
INSERT
  5
12A
330
EA
100
AcDbEntity
  8
cotas
100
AcDbBlockReference
  2
block 32
 10
0.0
 20
0.0
 30
0.0
  0
INSERT
  5
132
330
EA
100
AcDbEntity
  8
cotas
100
AcDbBlockReference
  2
block 33
 10
0.0
 20
0.0
 30
0.0
  0
INSERT
  5
13A
330
EA
100
AcDbEntity
  8
cotas
100
AcDbBlockReference
  2
block 34
 10
0.0
 20
0.0
 30
0.0
  0
ENDBLK
  5
ED
330
EA
100
AcDbEntity
  8
0
100
AcDbBlockEnd
  0
BLOCK
  5
F0
330
EE
100
AcDbEntity
  8
0
100
AcDbBlockBegin
  2
block 25
 70
     0
 71
     0
 10
0.0
 20
0.0
 30
0.0
  3
block 25
  1

  0
POLYLINE
  5
F2
330
EE
100
AcDbEntity
  8
cotas
 62
   253
420
 11382189
370
    25
100
AcDb2dPolyline
 66
     1
 10
0.0
 20
0.0
 30
0.0
  0
VERTEX
  5
F3
330
F2
100
AcDbEntity
  8
cotas
 62
   253
420
 11382189
370
    25
100
AcDbVertex
100
AcDb2dVertex
 10
55.91682805676732
 20
83.79436846863474
 30
0.0
  0
VERTEX
  5
F4
330
F2
100
AcDbEntity
  8
cotas
 62
   253
420
 11382189
370
    25
100
AcDbVertex
100
AcDb2dVertex
 10
61.34337021035861
 20
83.79436846863474
 30
0.0
  0
SEQEND
  5
F5
330
F2
100
AcDbEntity
  8
cotas
370
    25
  0
ENDBLK
  5
F1
330
EE
100
AcDbEntity
  8
0
100
AcDbBlockEnd
  0
BLOCK
  5
F8
330
F6
100
AcDbEntity
  8
0
100
AcDbBlockBegin
  2
block 26
 70
     0
 71
     0
 10
0.0
 20
0.0
 30
0.0
  3
block 26
  1

  0
POLYLINE
  5
FA
330
F6
100
AcDbEntity
  8
cotas
 62
   253
420
 11382189
370
    25
100
AcDb2dPolyline
 66
     1
 10
0.0
 20
0.0
 30
0.0
  0
VERTEX
  5
FB
330
FA
100
AcDbEntity
  8
cotas
 62
   253
420
 11382189
370
    25
100
AcDbVertex
100
AcDb2dVertex
 10
28.11077337621884
 20
40.59218206450473
 30
0.0
  0
VERTEX
  5
FC
330
FA
100
AcDbEntity
  8
cotas
 62
   253
420
 11382189
370
    25
100
AcDbVertex
100
AcDb2dVertex
 10
61.34337021035861
 20
40.59218206450473
 30
0.0
  0
SEQEND
  5
FD
330
FA
100
AcDbEntity
  8
cotas
370
    25
  0
ENDBLK
  5
F9
330
F6
100
AcDbEntity
  8
0
100
AcDbBlockEnd
  0
BLOCK
  5
100
330
FE
100
AcDbEntity
  8
0
100
AcDbBlockBegin
  2
block 27
 70
     0
 71
     0
 10
0.0
 20
0.0
 30
0.0
  3
block 27
  1

  0
POLYLINE
  5
102
330
FE
100
AcDbEntity
  8
cotas
 62
   253
420
 11382189
370
    25
100
AcDb2dPolyline
 66
     1
 10
0.0
 20
0.0
 30
0.0
  0
VERTEX
  5
103
330
102
100
AcDbEntity
  8
cotas
 62
   253
420
 11382189
370
    25
100
AcDbVertex
100
AcDb2dVertex
 10
60.35032143673534
 20
82.40427244033644
 30
0.0
  0
VERTEX
  5
104
330
102
100
AcDbEntity
  8
cotas
 62
   253
420
 11382189
370
    25
100
AcDbVertex
100
AcDb2dVertex
 10
60.35032143673534
 20
65.7007269801026
 30
0.0
  0
SEQEND
  5
105
330
102
100
AcDbEntity
  8
cotas
370
    25
  0
ENDBLK
  5
101
330
FE
100
AcDbEntity
  8
0
100
AcDbBlockEnd
  0
BLOCK
  5
108
330
106
100
AcDbEntity
  8
0
100
AcDbBlockBegin
  2
block 28
 70
     0
 71
     0
 10
0.0
 20
0.0
 30
0.0
  3
block 28
  1

  0
POLYLINE
  5
10A
330
106
100
AcDbEntity
  8
cotas
 62
   253
420
 11382189
370
    25
100
AcDb2dPolyline
 66
     1
 10
0.0
 20
0.0
 30
0.0
  0
VERTEX
  5
10B
330
10A
100
AcDbEntity
  8
cotas
 62
   253
420
 11382189
370
    25
100
AcDbVertex
100
AcDb2dVertex
 10
60.35032143673534
 20
41.98227809280304
 30
0.0
  0
VERTEX
  5
10C
330
10A
100
AcDbEntity
  8
cotas
 62
   253
420
 11382189
370
    25
100
AcDbVertex
100
AcDb2dVertex
 10
60.35032143673534
 20
58.6861680625854
 30
0.0
  0
SEQEND
  5
10D
330
10A
100
AcDbEntity
  8
cotas
370
    25
  0
ENDBLK
  5
109
330
106
100
AcDbEntity
  8
0
100
AcDbBlockEnd
  0
BLOCK
  5
110
330
10E
100
AcDbEntity
  8
0
100
AcDbBlockBegin
  2
block 29
 70
     0
 71
     0
 10
0.0
 20
0.0
 30
0.0
  3
block 29
  1

  0
POLYLINE
  5
112
330
10E
100
AcDbEntity
  8
cotas
370
     0
100
AcDb2dPolyline
 66
     1
 10
0.0
 20
0.0
 30
0.0
  0
VERTEX
  5
113
330
112
100
AcDbEntity
  8
cotas
370
     0
100
AcDbVertex
100
AcDb2dVertex
 10
60.11846651057802
 20
82.40427244033644
 30
0.0
  0
VERTEX
  5
114
330
112
100
AcDbEntity
  8
cotas
370
     0
100
AcDbVertex
100
AcDb2dVertex
 10
60.58200410811839
 20
82.40427244033644
 30
0.0
  0
VERTEX
  5
115
330
112
100
AcDbEntity
  8
cotas
370
     0
100
AcDbVertex
100
AcDb2dVertex
 10
60.35032143673534
 20
83.79436846863474
 30
0.0
  0
VERTEX
  5
116
330
112
100
AcDbEntity
  8
cotas
370
     0
100
AcDbVertex
100
AcDb2dVertex
 10
60.11846651057802
 20
82.40427244033644
 30
0.0
  0
SEQEND
  5
117
330
112
100
AcDbEntity
  8
cotas
370
     0
  0
HATCH
  5
118
330
10E
100
AcDbEntity
  8
cotas
 62
   253
420
 11382189
100
AcDbHatch
 10
0.0
 20
0.0
 30
0.0
210
0.0
220
0.0
230
1.0
  2
SOLID
 70
     1
 71
     0
 91
        1
 92
        1
 93
        3
 72
     1
 10
60.11846651057802
 20
82.40427244033644
 11
60.58200410811839
 21
82.40427244033644
 72
     1
 10
60.58200410811839
 20
82.40427244033644
 11
60.35032143673534
 21
83.79436846863474
 72
     1
 10
60.35032143673534
 20
83.79436846863474
 11
60.11846651057802
 21
82.40427244033644
 97
        0
 75
     2
 76
     1
 98
        0
  0
ENDBLK
  5
111
330
10E
100
AcDbEntity
  8
0
100
AcDbBlockEnd
  0
BLOCK
  5
11B
330
119
100
AcDbEntity
  8
0
100
AcDbBlockBegin
  2
block 30
 70
     0
 71
     0
 10
0.0
 20
0.0
 30
0.0
  3
block 30
  1

  0
POLYLINE
  5
11D
330
119
100
AcDbEntity
  8
cotas
370
     0
100
AcDb2dPolyline
 66
     1
 10
0.0
 20
0.0
 30
0.0
  0
VERTEX
  5
11E
330
11D
100
AcDbEntity
  8
cotas
370
     0
100
AcDbVertex
100
AcDb2dVertex
 10
60.11846651057802
 20
41.98227809280304
 30
0.0
  0
VERTEX
  5
11F
330
11D
100
AcDbEntity
  8
cotas
370
     0
100
AcDbVertex
100
AcDb2dVertex
 10
60.58200410811839
 20
41.98227809280304
 30
0.0
  0
VERTEX
  5
120
330
11D
100
AcDbEntity
  8
cotas
370
     0
100
AcDbVertex
100
AcDb2dVertex
 10
60.35032143673534
 20
40.59218206450473
 30
0.0
  0
VERTEX
  5
121
330
11D
100
AcDbEntity
  8
cotas
370
     0
100
AcDbVertex
100
AcDb2dVertex
 10
60.11846651057802
 20
41.98227809280304
 30
0.0
  0
SEQEND
  5
122
330
11D
100
AcDbEntity
  8
cotas
370
     0
  0
HATCH
  5
123
330
119
100
AcDbEntity
  8
cotas
 62
   253
420
 11382189
100
AcDbHatch
 10
0.0
 20
0.0
 30
0.0
210
0.0
220
0.0
230
1.0
  2
SOLID
 70
     1
 71
     0
 91
        1
 92
        1
 93
        3
 72
     1
 10
60.11846651057802
 20
41.98227809280304
 11
60.58200410811839
 21
41.98227809280304
 72
     1
 10
60.58200410811839
 20
41.98227809280304
 11
60.35032143673534
 21
40.59218206450473
 72
     1
 10
60.35032143673534
 20
40.59218206450473
 11
60.11846651057802
 21
41.98227809280304
 97
        0
 75
     2
 76
     1
 98
        0
  0
ENDBLK
  5
11C
330
119
100
AcDbEntity
  8
0
100
AcDbBlockEnd
  0
BLOCK
  5
126
330
124
100
AcDbEntity
  8
0
100
AcDbBlockBegin
  2
block 31
 70
     0
 71
     0
 10
0.0
 20
0.0
 30
0.0
  3
block 31
  1

  0
MTEXT
  5
128
330
124
100
AcDbEntity
  8
cotas
 62
   253
420
 11382189
100
AcDbMText
 10
56.92159015504044
 20
60.72290851346511
 30
0.0
 40
2.979224642962469
 41
0.0
 71
     7
 72
     1
  1
\fArial|b0|i0|c0|p34;\W1;220
 73
     1
 44
1.0
  0
ENDBLK
  5
127
330
124
100
AcDbEntity
  8
0
100
AcDbBlockEnd
  0
BLOCK
  5
12B
330
129
100
AcDbEntity
  8
0
100
AcDbBlockBegin
  2
block 32
 70
     0
 71
     0
 10
0.0
 20
0.0
 30
0.0
  3
block 32
  1

  0
POLYLINE
  5
12D
330
129
100
AcDbEntity
  8
cotas
 62
   253
420
 11382189
370
    25
100
AcDb2dPolyline
 66
     1
 10
0.0
 20
0.0
 30
0.0
  0
VERTEX
  5
12E
330
12D
100
AcDbEntity
  8
cotas
 62
   253
420
 11382189
370
    25
100
AcDbVertex
100
AcDb2dVertex
 10
53.93073050952079
 20
83.79436846863474
 30
0.0
  0
VERTEX
  5
12F
330
12D
100
AcDbEntity
  8
cotas
 62
   253
420
 11382189
370
    25
100
AcDbVertex
100
AcDb2dVertex
 10
53.93073050952079
 20
83.79436846863474
 30
0.0
  0
SEQEND
  5
130
330
12D
100
AcDbEntity
  8
cotas
370
    25
  0
ENDBLK
  5
12C
330
129
100
AcDbEntity
  8
0
100
AcDbBlockEnd
  0
BLOCK
  5
133
330
131
100
AcDbEntity
  8
0
100
AcDbBlockBegin
  2
block 33
 70
     0
 71
     0
 10
0.0
 20
0.0
 30
0.0
  3
block 33
  1

  0
POLYLINE
  5
135
330
131
100
AcDbEntity
  8
cotas
 62
   253
420
 11382189
370
    25
100
AcDb2dPolyline
 66
     1
 10
0.0
 20
0.0
 30
0.0
  0
VERTEX
  5
136
330
135
100
AcDbEntity
  8
cotas
 62
   253
420
 11382189
370
    25
100
AcDbVertex
100
AcDb2dVertex
 10
26.1246758289723
 20
40.59218206450473
 30
0.0
  0
VERTEX
  5
137
330
135
100
AcDbEntity
  8
cotas
 62
   253
420
 11382189
370
    25
100
AcDbVertex
100
AcDb2dVertex
 10
26.1246758289723
 20
40.59218206450473
 30
0.0
  0
SEQEND
  5
138
330
135
100
AcDbEntity
  8
cotas
370
    25
  0
ENDBLK
  5
134
330
131
100
AcDbEntity
  8
0
100
AcDbBlockEnd
  0
BLOCK
  5
13B
330
139
100
AcDbEntity
  8
0
100
AcDbBlockBegin
  2
block 34
 70
     0
 71
     0
 10
0.0
 20
0.0
 30
0.0
  3
block 34
  1

  0
POLYLINE
  5
13D
330
139
100
AcDbEntity
  8
cotas
 62
   253
420
 11382189
370
    25
100
AcDb2dPolyline
 66
     1
 10
0.0
 20
0.0
 30
0.0
  0
VERTEX
  5
13E
330
13D
100
AcDbEntity
  8
cotas
 62
   253
420
 11382189
370
    25
100
AcDbVertex
100
AcDb2dVertex
 10
60.35032143673534
 20
40.59218206450473
 30
0.0
  0
VERTEX
  5
13F
330
13D
100
AcDbEntity
  8
cotas
 62
   253
420
 11382189
370
    25
100
AcDbVertex
100
AcDb2dVertex
 10
60.35032143673534
 20
40.59218206450473
 30
0.0
  0
SEQEND
  5
140
330
13D
100
AcDbEntity
  8
cotas
370
    25
  0
ENDBLK
  5
13C
330
139
100
AcDbEntity
  8
0
100
AcDbBlockEnd
  0
BLOCK
  5
143
330
141
100
AcDbEntity
  8
0
100
AcDbBlockBegin
  2
block 35
 70
     0
 71
     0
 10
0.0
 20
0.0
 30
0.0
  3
block 35
  1

  0
INSERT
  5
146
330
141
100
AcDbEntity
  8
cotas
100
AcDbBlockReference
  2
block 36
 10
0.0
 20
0.0
 30
0.0
  0
INSERT
  5
14E
330
141
100
AcDbEntity
  8
cotas
100
AcDbBlockReference
  2
block 37
 10
0.0
 20
0.0
 30
0.0
  0
INSERT
  5
156
330
141
100
AcDbEntity
  8
cotas
100
AcDbBlockReference
  2
block 38
 10
0.0
 20
0.0
 30
0.0
  0
INSERT
  5
15E
330
141
100
AcDbEntity
  8
cotas
100
AcDbBlockReference
  2
block 39
 10
0.0
 20
0.0
 30
0.0
  0
INSERT
  5
166
330
141
100
AcDbEntity
  8
cotas
100
AcDbBlockReference
  2
block 40
 10
0.0
 20
0.0
 30
0.0
  0
INSERT
  5
171
330
141
100
AcDbEntity
  8
cotas
100
AcDbBlockReference
  2
block 41
 10
0.0
 20
0.0
 30
0.0
  0
INSERT
  5
17C
330
141
100
AcDbEntity
  8
cotas
100
AcDbBlockReference
  2
block 42
 10
0.0
 20
0.0
 30
0.0
  0
INSERT
  5
181
330
141
100
AcDbEntity
  8
cotas
100
AcDbBlockReference
  2
block 43
 10
0.0
 20
0.0
 30
0.0
  0
INSERT
  5
189
330
141
100
AcDbEntity
  8
cotas
100
AcDbBlockReference
  2
block 44
 10
0.0
 20
0.0
 30
0.0
  0
INSERT
  5
191
330
141
100
AcDbEntity
  8
cotas
100
AcDbBlockReference
  2
block 45
 10
0.0
 20
0.0
 30
0.0
  0
ENDBLK
  5
144
330
141
100
AcDbEntity
  8
0
100
AcDbBlockEnd
  0
BLOCK
  5
147
330
145
100
AcDbEntity
  8
0
100
AcDbBlockBegin
  2
block 36
 70
     0
 71
     0
 10
0.0
 20
0.0
 30
0.0
  3
block 36
  1

  0
POLYLINE
  5
149
330
145
100
AcDbEntity
  8
cotas
 62
   253
420
 11382189
370
    25
100
AcDb2dPolyline
 66
     1
 10
0.0
 20
0.0
 30
0.0
  0
VERTEX
  5
14A
330
149
100
AcDbEntity
  8
cotas
 62
   253
420
 11382189
370
    25
100
AcDbVertex
100
AcDb2dVertex
 10
55.91682805676732
 20
85.78046601588127
 30
0.0
  0
VERTEX
  5
14B
330
149
100
AcDbEntity
  8
cotas
 62
   253
420
 11382189
370
    25
100
AcDbVertex
100
AcDb2dVertex
 10
73.07150877079462
 20
85.78046601588127
 30
0.0
  0
SEQEND
  5
14C
330
149
100
AcDbEntity
  8
cotas
370
    25
  0
ENDBLK
  5
148
330
145
100
AcDbEntity
  8
0
100
AcDbBlockEnd
  0
BLOCK
  5
14F
330
14D
100
AcDbEntity
  8
0
100
AcDbBlockBegin
  2
block 37
 70
     0
 71
     0
 10
0.0
 20
0.0
 30
0.0
  3
block 37
  1

  0
POLYLINE
  5
151
330
14D
100
AcDbEntity
  8
cotas
 62
   253
420
 11382189
370
    25
100
AcDb2dPolyline
 66
     1
 10
0.0
 20
0.0
 30
0.0
  0
VERTEX
  5
152
330
151
100
AcDbEntity
  8
cotas
 62
   253
420
 11382189
370
    25
100
AcDbVertex
100
AcDb2dVertex
 10
28.11077337621884
 20
40.59218206450473
 30
0.0
  0
VERTEX
  5
153
330
151
100
AcDbEntity
  8
cotas
 62
   253
420
 11382189
370
    25
100
AcDbVertex
100
AcDb2dVertex
 10
73.07150877079462
 20
40.59218206450473
 30
0.0
  0
SEQEND
  5
154
330
151
100
AcDbEntity
  8
cotas
370
    25
  0
ENDBLK
  5
150
330
14D
100
AcDbEntity
  8
0
100
AcDbBlockEnd
  0
BLOCK
  5
157
330
155
100
AcDbEntity
  8
0
100
AcDbBlockBegin
  2
block 38
 70
     0
 71
     0
 10
0.0
 20
0.0
 30
0.0
  3
block 38
  1

  0
POLYLINE
  5
159
330
155
100
AcDbEntity
  8
cotas
 62
   253
420
 11382189
370
    25
100
AcDb2dPolyline
 66
     1
 10
0.0
 20
0.0
 30
0.0
  0
VERTEX
  5
15A
330
159
100
AcDbEntity
  8
cotas
 62
   253
420
 11382189
370
    25
100
AcDbVertex
100
AcDb2dVertex
 10
72.07845999717136
 20
84.39036998758297
 30
0.0
  0
VERTEX
  5
15B
330
159
100
AcDbEntity
  8
cotas
 62
   253
420
 11382189
370
    25
100
AcDbVertex
100
AcDb2dVertex
 10
72.07845999717136
 20
66.69463702759718
 30
0.0
  0
SEQEND
  5
15C
330
159
100
AcDbEntity
  8
cotas
370
    25
  0
ENDBLK
  5
158
330
155
100
AcDbEntity
  8
0
100
AcDbBlockEnd
  0
BLOCK
  5
15F
330
15D
100
AcDbEntity
  8
0
100
AcDbBlockBegin
  2
block 39
 70
     0
 71
     0
 10
0.0
 20
0.0
 30
0.0
  3
block 39
  1

  0
POLYLINE
  5
161
330
15D
100
AcDbEntity
  8
cotas
 62
   253
420
 11382189
370
    25
100
AcDb2dPolyline
 66
     1
 10
0.0
 20
0.0
 30
0.0
  0
VERTEX
  5
162
330
161
100
AcDbEntity
  8
cotas
 62
   253
420
 11382189
370
    25
100
AcDbVertex
100
AcDb2dVertex
 10
72.07845999717136
 20
41.98227809280304
 30
0.0
  0
VERTEX
  5
163
330
161
100
AcDbEntity
  8
cotas
 62
   253
420
 11382189
370
    25
100
AcDbVertex
100
AcDb2dVertex
 10
72.07845999717136
 20
59.67801105278883
 30
0.0
  0
SEQEND
  5
164
330
161
100
AcDbEntity
  8
cotas
370
    25
  0
ENDBLK
  5
160
330
15D
100
AcDbEntity
  8
0
100
AcDbBlockEnd
  0
BLOCK
  5
167
330
165
100
AcDbEntity
  8
0
100
AcDbBlockBegin
  2
block 40
 70
     0
 71
     0
 10
0.0
 20
0.0
 30
0.0
  3
block 40
  1

  0
POLYLINE
  5
169
330
165
100
AcDbEntity
  8
cotas
370
     0
100
AcDb2dPolyline
 66
     1
 10
0.0
 20
0.0
 30
0.0
  0
VERTEX
  5
16A
330
169
100
AcDbEntity
  8
cotas
370
     0
100
AcDbVertex
100
AcDb2dVertex
 10
71.84677732578831
 20
84.39036998758297
 30
0.0
  0
VERTEX
  5
16B
330
169
100
AcDbEntity
  8
cotas
370
     0
100
AcDbVertex
100
AcDb2dVertex
 10
72.3101426685544
 20
84.39036998758297
 30
0.0
  0
VERTEX
  5
16C
330
169
100
AcDbEntity
  8
cotas
370
     0
100
AcDbVertex
100
AcDb2dVertex
 10
72.07845999717136
 20
85.78046601588127
 30
0.0
  0
VERTEX
  5
16D
330
169
100
AcDbEntity
  8
cotas
370
     0
100
AcDbVertex
100
AcDb2dVertex
 10
71.84677732578831
 20
84.39036998758297
 30
0.0
  0
SEQEND
  5
16E
330
169
100
AcDbEntity
  8
cotas
370
     0
  0
HATCH
  5
16F
330
165
100
AcDbEntity
  8
cotas
 62
   253
420
 11382189
100
AcDbHatch
 10
0.0
 20
0.0
 30
0.0
210
0.0
220
0.0
230
1.0
  2
SOLID
 70
     1
 71
     0
 91
        1
 92
        1
 93
        3
 72
     1
 10
71.84677732578831
 20
84.39036998758297
 11
72.3101426685544
 21
84.39036998758297
 72
     1
 10
72.3101426685544
 20
84.39036998758297
 11
72.07845999717136
 21
85.78046601588127
 72
     1
 10
72.07845999717136
 20
85.78046601588127
 11
71.84677732578831
 21
84.39036998758297
 97
        0
 75
     2
 76
     1
 98
        0
  0
ENDBLK
  5
168
330
165
100
AcDbEntity
  8
0
100
AcDbBlockEnd
  0
BLOCK
  5
172
330
170
100
AcDbEntity
  8
0
100
AcDbBlockBegin
  2
block 41
 70
     0
 71
     0
 10
0.0
 20
0.0
 30
0.0
  3
block 41
  1

  0
POLYLINE
  5
174
330
170
100
AcDbEntity
  8
cotas
370
     0
100
AcDb2dPolyline
 66
     1
 10
0.0
 20
0.0
 30
0.0
  0
VERTEX
  5
175
330
174
100
AcDbEntity
  8
cotas
370
     0
100
AcDbVertex
100
AcDb2dVertex
 10
71.84677732578831
 20
41.98227809280304
 30
0.0
  0
VERTEX
  5
176
330
174
100
AcDbEntity
  8
cotas
370
     0
100
AcDbVertex
100
AcDb2dVertex
 10
72.3101426685544
 20
41.98227809280304
 30
0.0
  0
VERTEX
  5
177
330
174
100
AcDbEntity
  8
cotas
370
     0
100
AcDbVertex
100
AcDb2dVertex
 10
72.07845999717136
 20
40.59218206450473
 30
0.0
  0
VERTEX
  5
178
330
174
100
AcDbEntity
  8
cotas
370
     0
100
AcDbVertex
100
AcDb2dVertex
 10
71.84677732578831
 20
41.98227809280304
 30
0.0
  0
SEQEND
  5
179
330
174
100
AcDbEntity
  8
cotas
370
     0
  0
HATCH
  5
17A
330
170
100
AcDbEntity
  8
cotas
 62
   253
420
 11382189
100
AcDbHatch
 10
0.0
 20
0.0
 30
0.0
210
0.0
220
0.0
230
1.0
  2
SOLID
 70
     1
 71
     0
 91
        1
 92
        1
 93
        3
 72
     1
 10
71.84677732578831
 20
41.98227809280304
 11
72.3101426685544
 21
41.98227809280304
 72
     1
 10
72.3101426685544
 20
41.98227809280304
 11
72.07845999717136
 21
40.59218206450473
 72
     1
 10
72.07845999717136
 20
40.59218206450473
 11
71.84677732578831
 21
41.98227809280304
 97
        0
 75
     2
 76
     1
 98
        0
  0
ENDBLK
  5
173
330
170
100
AcDbEntity
  8
0
100
AcDbBlockEnd
  0
BLOCK
  5
17D
330
17B
100
AcDbEntity
  8
0
100
AcDbBlockBegin
  2
block 42
 70
     0
 71
     0
 10
0.0
 20
0.0
 30
0.0
  3
block 42
  1

  0
MTEXT
  5
17F
330
17B
100
AcDbEntity
  8
cotas
 62
   253
420
 11382189
100
AcDbMText
 10
68.64972871547646
 20
61.71612954186264
 30
0.0
 40
2.979224642962469
 41
0.0
 71
     7
 72
     1
  1
\fArial|b0|i0|c0|p34;\W1;230
 73
     1
 44
1.0
  0
ENDBLK
  5
17E
330
17B
100
AcDbEntity
  8
0
100
AcDbBlockEnd
  0
BLOCK
  5
182
330
180
100
AcDbEntity
  8
0
100
AcDbBlockBegin
  2
block 43
 70
     0
 71
     0
 10
0.0
 20
0.0
 30
0.0
  3
block 43
  1

  0
POLYLINE
  5
184
330
180
100
AcDbEntity
  8
cotas
 62
   253
420
 11382189
370
    25
100
AcDb2dPolyline
 66
     1
 10
0.0
 20
0.0
 30
0.0
  0
VERTEX
  5
185
330
184
100
AcDbEntity
  8
cotas
 62
   253
420
 11382189
370
    25
100
AcDbVertex
100
AcDb2dVertex
 10
53.93073050952079
 20
85.78046601588127
 30
0.0
  0
VERTEX
  5
186
330
184
100
AcDbEntity
  8
cotas
 62
   253
420
 11382189
370
    25
100
AcDbVertex
100
AcDb2dVertex
 10
53.93073050952079
 20
85.78046601588127
 30
0.0
  0
SEQEND
  5
187
330
184
100
AcDbEntity
  8
cotas
370
    25
  0
ENDBLK
  5
183
330
180
100
AcDbEntity
  8
0
100
AcDbBlockEnd
  0
BLOCK
  5
18A
330
188
100
AcDbEntity
  8
0
100
AcDbBlockBegin
  2
block 44
 70
     0
 71
     0
 10
0.0
 20
0.0
 30
0.0
  3
block 44
  1

  0
POLYLINE
  5
18C
330
188
100
AcDbEntity
  8
cotas
 62
   253
420
 11382189
370
    25
100
AcDb2dPolyline
 66
     1
 10
0.0
 20
0.0
 30
0.0
  0
VERTEX
  5
18D
330
18C
100
AcDbEntity
  8
cotas
 62
   253
420
 11382189
370
    25
100
AcDbVertex
100
AcDb2dVertex
 10
26.1246758289723
 20
40.59218206450473
 30
0.0
  0
VERTEX
  5
18E
330
18C
100
AcDbEntity
  8
cotas
 62
   253
420
 11382189
370
    25
100
AcDbVertex
100
AcDb2dVertex
 10
26.1246758289723
 20
40.59218206450473
 30
0.0
  0
SEQEND
  5
18F
330
18C
100
AcDbEntity
  8
cotas
370
    25
  0
ENDBLK
  5
18B
330
188
100
AcDbEntity
  8
0
100
AcDbBlockEnd
  0
BLOCK
  5
192
330
190
100
AcDbEntity
  8
0
100
AcDbBlockBegin
  2
block 45
 70
     0
 71
     0
 10
0.0
 20
0.0
 30
0.0
  3
block 45
  1

  0
POLYLINE
  5
194
330
190
100
AcDbEntity
  8
cotas
 62
   253
420
 11382189
370
    25
100
AcDb2dPolyline
 66
     1
 10
0.0
 20
0.0
 30
0.0
  0
VERTEX
  5
195
330
194
100
AcDbEntity
  8
cotas
 62
   253
420
 11382189
370
    25
100
AcDbVertex
100
AcDb2dVertex
 10
72.07845999717136
 20
40.59218206450473
 30
0.0
  0
VERTEX
  5
196
330
194
100
AcDbEntity
  8
cotas
 62
   253
420
 11382189
370
    25
100
AcDbVertex
100
AcDb2dVertex
 10
72.07845999717136
 20
40.59218206450473
 30
0.0
  0
SEQEND
  5
197
330
194
100
AcDbEntity
  8
cotas
370
    25
  0
ENDBLK
  5
193
330
190
100
AcDbEntity
  8
0
100
AcDbBlockEnd
  0
BLOCK
  5
19A
330
198
100
AcDbEntity
  8
0
100
AcDbBlockBegin
  2
block 46
 70
     0
 71
     0
 10
0.0
 20
0.0
 30
0.0
  3
block 46
  1

  0
INSERT
  5
19D
330
198
100
AcDbEntity
  8
cotas
100
AcDbBlockReference
  2
block 47
 10
0.0
 20
0.0
 30
0.0
  0
INSERT
  5
1A5
330
198
100
AcDbEntity
  8
cotas
100
AcDbBlockReference
  2
block 48
 10
0.0
 20
0.0
 30
0.0
  0
INSERT
  5
1AD
330
198
100
AcDbEntity
  8
cotas
100
AcDbBlockReference
  2
block 49
 10
0.0
 20
0.0
 30
0.0
  0
INSERT
  5
1B5
330
198
100
AcDbEntity
  8
cotas
100
AcDbBlockReference
  2
block 50
 10
0.0
 20
0.0
 30
0.0
  0
INSERT
  5
1BD
330
198
100
AcDbEntity
  8
cotas
100
AcDbBlockReference
  2
block 51
 10
0.0
 20
0.0
 30
0.0
  0
INSERT
  5
1C5
330
198
100
AcDbEntity
  8
cotas
100
AcDbBlockReference
  2
block 52
 10
0.0
 20
0.0
 30
0.0
  0
INSERT
  5
1D0
330
198
100
AcDbEntity
  8
cotas
100
AcDbBlockReference
  2
block 53
 10
0.0
 20
0.0
 30
0.0
  0
INSERT
  5
1DB
330
198
100
AcDbEntity
  8
cotas
100
AcDbBlockReference
  2
block 54
 10
0.0
 20
0.0
 30
0.0
  0
INSERT
  5
1E0
330
198
100
AcDbEntity
  8
cotas
100
AcDbBlockReference
  2
block 55
 10
0.0
 20
0.0
 30
0.0
  0
INSERT
  5
1E8
330
198
100
AcDbEntity
  8
cotas
100
AcDbBlockReference
  2
block 56
 10
0.0
 20
0.0
 30
0.0
  0
INSERT
  5
1F0
330
198
100
AcDbEntity
  8
cotas
100
AcDbBlockReference
  2
block 57
 10
0.0
 20
0.0
 30
0.0
  0
ENDBLK
  5
19B
330
198
100
AcDbEntity
  8
0
100
AcDbBlockEnd
  0
BLOCK
  5
19E
330
19C
100
AcDbEntity
  8
0
100
AcDbBlockBegin
  2
block 47
 70
     0
 71
     0
 10
0.0
 20
0.0
 30
0.0
  3
block 47
  1

  0
POLYLINE
  5
1A0
330
19C
100
AcDbEntity
  8
cotas
 62
   253
420
 11382189
370
    25
100
AcDb2dPolyline
 66
     1
 10
0.0
 20
0.0
 30
0.0
  0
VERTEX
  5
1A1
330
1A0
100
AcDbEntity
  8
cotas
 62
   253
420
 11382189
370
    25
100
AcDbVertex
100
AcDb2dVertex
 10
20.85264620789448
 20
20.41012369281414
 30
0.0
  0
VERTEX
  5
1A2
330
1A0
100
AcDbEntity
  8
cotas
 62
   253
420
 11382189
370
    25
100
AcDbVertex
100
AcDb2dVertex
 10
20.85264620789448
 20
16.22812228326936
 30
0.0
  0
SEQEND
  5
1A3
330
1A0
100
AcDbEntity
  8
cotas
370
    25
  0
ENDBLK
  5
19F
330
19C
100
AcDbEntity
  8
0
100
AcDbBlockEnd
  0
BLOCK
  5
1A6
330
1A4
100
AcDbEntity
  8
0
100
AcDbBlockBegin
  2
block 48
 70
     0
 71
     0
 10
0.0
 20
0.0
 30
0.0
  3
block 48
  1

  0
POLYLINE
  5
1A8
330
1A4
100
AcDbEntity
  8
cotas
 62
   253
420
 11382189
370
    25
100
AcDb2dPolyline
 66
     1
 10
0.0
 20
0.0
 30
0.0
  0
VERTEX
  5
1A9
330
1A8
100
AcDbEntity
  8
cotas
 62
   253
420
 11382189
370
    25
100
AcDbVertex
100
AcDb2dVertex
 10
23.75513915421747
 20
20.40977918326561
 30
0.0
  0
VERTEX
  5
1AA
330
1A8
100
AcDbEntity
  8
cotas
 62
   253
420
 11382189
370
    25
100
AcDbVertex
100
AcDb2dVertex
 10
23.75513915421747
 20
16.22812228326936
 30
0.0
  0
SEQEND
  5
1AB
330
1A8
100
AcDbEntity
  8
cotas
370
    25
  0
ENDBLK
  5
1A7
330
1A4
100
AcDbEntity
  8
0
100
AcDbBlockEnd
  0
BLOCK
  5
1AE
330
1AC
100
AcDbEntity
  8
0
100
AcDbBlockBegin
  2
block 49
 70
     0
 71
     0
 10
0.0
 20
0.0
 30
0.0
  3
block 49
  1

  0
POLYLINE
  5
1B0
330
1AC
100
AcDbEntity
  8
cotas
 62
   253
420
 11382189
370
    25
100
AcDb2dPolyline
 66
     1
 10
0.0
 20
0.0
 30
0.0
  0
VERTEX
  5
1B1
330
1B0
100
AcDbEntity
  8
cotas
 62
   253
420
 11382189
370
    25
100
AcDbVertex
100
AcDb2dVertex
 10
19.46237792482191
 20
17.22099880211836
 30
0.0
  0
VERTEX
  5
1B2
330
1B0
100
AcDbEntity
  8
cotas
 62
   253
420
 11382189
370
    25
100
AcDbVertex
100
AcDb2dVertex
 10
18.07210964174934
 20
17.22099880211836
 30
0.0
  0
SEQEND
  5
1B3
330
1B0
100
AcDbEntity
  8
cotas
370
    25
  0
ENDBLK
  5
1AF
330
1AC
100
AcDbEntity
  8
0
100
AcDbBlockEnd
  0
BLOCK
  5
1B6
330
1B4
100
AcDbEntity
  8
0
100
AcDbBlockBegin
  2
block 50
 70
     0
 71
     0
 10
0.0
 20
0.0
 30
0.0
  3
block 50
  1

  0
POLYLINE
  5
1B8
330
1B4
100
AcDbEntity
  8
cotas
 62
   253
420
 11382189
370
    25
100
AcDb2dPolyline
 66
     1
 10
0.0
 20
0.0
 30
0.0
  0
VERTEX
  5
1B9
330
1B8
100
AcDbEntity
  8
cotas
 62
   253
420
 11382189
370
    25
100
AcDbVertex
100
AcDb2dVertex
 10
25.14540743729004
 20
17.22099880211836
 30
0.0
  0
VERTEX
  5
1BA
330
1B8
100
AcDbEntity
  8
cotas
 62
   253
420
 11382189
370
    25
100
AcDbVertex
100
AcDb2dVertex
 10
35.12223170779931
 20
17.22099880211836
 30
0.0
  0
SEQEND
  5
1BB
330
1B8
100
AcDbEntity
  8
cotas
370
    25
  0
ENDBLK
  5
1B7
330
1B4
100
AcDbEntity
  8
0
100
AcDbBlockEnd
  0
BLOCK
  5
1BE
330
1BC
100
AcDbEntity
  8
0
100
AcDbBlockBegin
  2
block 51
 70
     0
 71
     0
 10
0.0
 20
0.0
 30
0.0
  3
block 51
  1

  0
POLYLINE
  5
1C0
330
1BC
100
AcDbEntity
  8
cotas
 62
   253
420
 11382189
370
    25
100
AcDb2dPolyline
 66
     1
 10
0.0
 20
0.0
 30
0.0
  0
VERTEX
  5
1C1
330
1C0
100
AcDbEntity
  8
cotas
 62
   253
420
 11382189
370
    25
100
AcDbVertex
100
AcDb2dVertex
 10
20.85264620789448
 20
17.22099880211836
 30
0.0
  0
VERTEX
  5
1C2
330
1C0
100
AcDbEntity
  8
cotas
 62
   253
420
 11382189
370
    25
100
AcDbVertex
100
AcDb2dVertex
 10
23.75513915421747
 20
17.22099880211836
 30
0.0
  0
SEQEND
  5
1C3
330
1C0
100
AcDbEntity
  8
cotas
370
    25
  0
ENDBLK
  5
1BF
330
1BC
100
AcDbEntity
  8
0
100
AcDbBlockEnd
  0
BLOCK
  5
1C6
330
1C4
100
AcDbEntity
  8
0
100
AcDbBlockBegin
  2
block 52
 70
     0
 71
     0
 10
0.0
 20
0.0
 30
0.0
  3
block 52
  1

  0
POLYLINE
  5
1C8
330
1C4
100
AcDbEntity
  8
cotas
370
     0
100
AcDb2dPolyline
 66
     1
 10
0.0
 20
0.0
 30
0.0
  0
VERTEX
  5
1C9
330
1C8
100
AcDbEntity
  8
cotas
370
     0
100
AcDbVertex
100
AcDb2dVertex
 10
19.46237792482191
 20
17.45285372827568
 30
0.0
  0
VERTEX
  5
1CA
330
1C8
100
AcDbEntity
  8
cotas
370
     0
100
AcDbVertex
100
AcDb2dVertex
 10
19.46237792482191
 20
16.98948838550957
 30
0.0
  0
VERTEX
  5
1CB
330
1C8
100
AcDbEntity
  8
cotas
370
     0
100
AcDbVertex
100
AcDb2dVertex
 10
20.85264620789448
 20
17.22099880211836
 30
0.0
  0
VERTEX
  5
1CC
330
1C8
100
AcDbEntity
  8
cotas
370
     0
100
AcDbVertex
100
AcDb2dVertex
 10
19.46237792482191
 20
17.45285372827568
 30
0.0
  0
SEQEND
  5
1CD
330
1C8
100
AcDbEntity
  8
cotas
370
     0
  0
HATCH
  5
1CE
330
1C4
100
AcDbEntity
  8
cotas
 62
   253
420
 11382189
100
AcDbHatch
 10
0.0
 20
0.0
 30
0.0
210
0.0
220
0.0
230
1.0
  2
SOLID
 70
     1
 71
     0
 91
        1
 92
        1
 93
        3
 72
     1
 10
19.46237792482191
 20
17.45285372827568
 11
19.46237792482191
 21
16.98948838550957
 72
     1
 10
19.46237792482191
 20
16.98948838550957
 11
20.85264620789448
 21
17.22099880211836
 72
     1
 10
20.85264620789448
 20
17.22099880211836
 11
19.46237792482191
 21
17.45285372827568
 97
        0
 75
     2
 76
     1
 98
        0
  0
ENDBLK
  5
1C7
330
1C4
100
AcDbEntity
  8
0
100
AcDbBlockEnd
  0
BLOCK
  5
1D1
330
1CF
100
AcDbEntity
  8
0
100
AcDbBlockBegin
  2
block 53
 70
     0
 71
     0
 10
0.0
 20
0.0
 30
0.0
  3
block 53
  1

  0
POLYLINE
  5
1D3
330
1CF
100
AcDbEntity
  8
cotas
370
     0
100
AcDb2dPolyline
 66
     1
 10
0.0
 20
0.0
 30
0.0
  0
VERTEX
  5
1D4
330
1D3
100
AcDbEntity
  8
cotas
370
     0
100
AcDbVertex
100
AcDb2dVertex
 10
25.14540743729004
 20
17.45285372827568
 30
0.0
  0
VERTEX
  5
1D5
330
1D3
100
AcDbEntity
  8
cotas
370
     0
100
AcDbVertex
100
AcDb2dVertex
 10
25.14540743729004
 20
16.98948838550957
 30
0.0
  0
VERTEX
  5
1D6
330
1D3
100
AcDbEntity
  8
cotas
370
     0
100
AcDbVertex
100
AcDb2dVertex
 10
23.75513915421747
 20
17.22099880211836
 30
0.0
  0
VERTEX
  5
1D7
330
1D3
100
AcDbEntity
  8
cotas
370
     0
100
AcDbVertex
100
AcDb2dVertex
 10
25.14540743729004
 20
17.45285372827568
 30
0.0
  0
SEQEND
  5
1D8
330
1D3
100
AcDbEntity
  8
cotas
370
     0
  0
HATCH
  5
1D9
330
1CF
100
AcDbEntity
  8
cotas
 62
   253
420
 11382189
100
AcDbHatch
 10
0.0
 20
0.0
 30
0.0
210
0.0
220
0.0
230
1.0
  2
SOLID
 70
     1
 71
     0
 91
        1
 92
        1
 93
        3
 72
     1
 10
25.14540743729004
 20
17.45285372827568
 11
25.14540743729004
 21
16.98948838550957
 72
     1
 10
25.14540743729004
 20
16.98948838550957
 11
23.75513915421747
 21
17.22099880211836
 72
     1
 10
23.75513915421747
 20
17.22099880211836
 11
25.14540743729004
 21
17.45285372827568
 97
        0
 75
     2
 76
     1
 98
        0
  0
ENDBLK
  5
1D2
330
1CF
100
AcDbEntity
  8
0
100
AcDbBlockEnd
  0
BLOCK
  5
1DC
330
1DA
100
AcDbEntity
  8
0
100
AcDbBlockBegin
  2
block 54
 70
     0
 71
     0
 10
0.0
 20
0.0
 30
0.0
  3
block 54
  1

  0
MTEXT
  5
1DE
330
1DA
100
AcDbEntity
  8
cotas
 62
   253
420
 11382189
100
AcDbMText
 10
36.78604057240072
 20
15.73306206203896
 30
0.0
 40
2.979224642962469
 41
0.0
 71
     7
 72
     1
  1
\fArial|b0|i0|c0|p34;\W1;R 3/8"
 73
     1
 44
1.0
  0
ENDBLK
  5
1DD
330
1DA
100
AcDbEntity
  8
0
100
AcDbBlockEnd
  0
BLOCK
  5
1E1
330
1DF
100
AcDbEntity
  8
0
100
AcDbBlockBegin
  2
block 55
 70
     0
 71
     0
 10
0.0
 20
0.0
 30
0.0
  3
block 55
  1

  0
POLYLINE
  5
1E3
330
1DF
100
AcDbEntity
  8
cotas
 62
   253
420
 11382189
370
    25
100
AcDb2dPolyline
 66
     1
 10
0.0
 20
0.0
 30
0.0
  0
VERTEX
  5
1E4
330
1E3
100
AcDbEntity
  8
cotas
 62
   253
420
 11382189
370
    25
100
AcDbVertex
100
AcDb2dVertex
 10
20.85264620789448
 20
22.39656574960919
 30
0.0
  0
VERTEX
  5
1E5
330
1E3
100
AcDbEntity
  8
cotas
 62
   253
420
 11382189
370
    25
100
AcDbVertex
100
AcDb2dVertex
 10
20.85264620789448
 20
22.39656574960919
 30
0.0
  0
SEQEND
  5
1E6
330
1E3
100
AcDbEntity
  8
cotas
370
    25
  0
ENDBLK
  5
1E2
330
1DF
100
AcDbEntity
  8
0
100
AcDbBlockEnd
  0
BLOCK
  5
1E9
330
1E7
100
AcDbEntity
  8
0
100
AcDbBlockBegin
  2
block 56
 70
     0
 71
     0
 10
0.0
 20
0.0
 30
0.0
  3
block 56
  1

  0
POLYLINE
  5
1EB
330
1E7
100
AcDbEntity
  8
cotas
 62
   253
420
 11382189
370
    25
100
AcDb2dPolyline
 66
     1
 10
0.0
 20
0.0
 30
0.0
  0
VERTEX
  5
1EC
330
1EB
100
AcDbEntity
  8
cotas
 62
   253
420
 11382189
370
    25
100
AcDbVertex
100
AcDb2dVertex
 10
23.75513915421747
 20
22.39622124006067
 30
0.0
  0
VERTEX
  5
1ED
330
1EB
100
AcDbEntity
  8
cotas
 62
   253
420
 11382189
370
    25
100
AcDbVertex
100
AcDb2dVertex
 10
23.75513915421747
 20
22.39622124006067
 30
0.0
  0
SEQEND
  5
1EE
330
1EB
100
AcDbEntity
  8
cotas
370
    25
  0
ENDBLK
  5
1EA
330
1E7
100
AcDbEntity
  8
0
100
AcDbBlockEnd
  0
BLOCK
  5
1F1
330
1EF
100
AcDbEntity
  8
0
100
AcDbBlockBegin
  2
block 57
 70
     0
 71
     0
 10
0.0
 20
0.0
 30
0.0
  3
block 57
  1

  0
POLYLINE
  5
1F3
330
1EF
100
AcDbEntity
  8
cotas
 62
   253
420
 11382189
370
    25
100
AcDb2dPolyline
 66
     1
 10
0.0
 20
0.0
 30
0.0
  0
VERTEX
  5
1F4
330
1F3
100
AcDbEntity
  8
cotas
 62
   253
420
 11382189
370
    25
100
AcDbVertex
100
AcDb2dVertex
 10
23.75513915421747
 20
17.22099880211836
 30
0.0
  0
VERTEX
  5
1F5
330
1F3
100
AcDbEntity
  8
cotas
 62
   253
420
 11382189
370
    25
100
AcDbVertex
100
AcDb2dVertex
 10
23.75513915421747
 20
17.22099880211836
 30
0.0
  0
SEQEND
  5
1F6
330
1F3
100
AcDbEntity
  8
cotas
370
    25
  0
ENDBLK
  5
1F2
330
1EF
100
AcDbEntity
  8
0
100
AcDbBlockEnd
  0
BLOCK
  5
1F9
330
1F7
100
AcDbEntity
  8
0
100
AcDbBlockBegin
  2
block 58
 70
     0
 71
     0
 10
0.0
 20
0.0
 30
0.0
  3
block 58
  1

  0
INSERT
  5
1FC
330
1F7
100
AcDbEntity
  8
cotas
100
AcDbBlockReference
  2
block 59
 10
0.0
 20
0.0
 30
0.0
  0
INSERT
  5
204
330
1F7
100
AcDbEntity
  8
cotas
100
AcDbBlockReference
  2
block 60
 10
0.0
 20
0.0
 30
0.0
  0
INSERT
  5
20C
330
1F7
100
AcDbEntity
  8
cotas
100
AcDbBlockReference
  2
block 61
 10
0.0
 20
0.0
 30
0.0
  0
INSERT
  5
214
330
1F7
100
AcDbEntity
  8
cotas
100
AcDbBlockReference
  2
block 62
 10
0.0
 20
0.0
 30
0.0
  0
INSERT
  5
21C
330
1F7
100
AcDbEntity
  8
cotas
100
AcDbBlockReference
  2
block 63
 10
0.0
 20
0.0
 30
0.0
  0
INSERT
  5
227
330
1F7
100
AcDbEntity
  8
cotas
100
AcDbBlockReference
  2
block 64
 10
0.0
 20
0.0
 30
0.0
  0
INSERT
  5
232
330
1F7
100
AcDbEntity
  8
cotas
100
AcDbBlockReference
  2
block 65
 10
0.0
 20
0.0
 30
0.0
  0
INSERT
  5
237
330
1F7
100
AcDbEntity
  8
cotas
100
AcDbBlockReference
  2
block 66
 10
0.0
 20
0.0
 30
0.0
  0
INSERT
  5
23F
330
1F7
100
AcDbEntity
  8
cotas
100
AcDbBlockReference
  2
block 67
 10
0.0
 20
0.0
 30
0.0
  0
INSERT
  5
247
330
1F7
100
AcDbEntity
  8
cotas
100
AcDbBlockReference
  2
block 68
 10
0.0
 20
0.0
 30
0.0
  0
ENDBLK
  5
1FA
330
1F7
100
AcDbEntity
  8
0
100
AcDbBlockEnd
  0
BLOCK
  5
1FD
330
1FB
100
AcDbEntity
  8
0
100
AcDbBlockBegin
  2
block 59
 70
     0
 71
     0
 10
0.0
 20
0.0
 30
0.0
  3
block 59
  1

  0
POLYLINE
  5
1FF
330
1FB
100
AcDbEntity
  8
cotas
 62
   253
420
 11382189
370
    25
100
AcDb2dPolyline
 66
     1
 10
0.0
 20
0.0
 30
0.0
  0
VERTEX
  5
200
330
1FF
100
AcDbEntity
  8
cotas
 62
   253
420
 11382189
370
    25
100
AcDbVertex
100
AcDb2dVertex
 10
28.11077337621884
 20
40.59218206450473
 30
0.0
  0
VERTEX
  5
201
330
1FF
100
AcDbEntity
  8
cotas
 62
   253
420
 11382189
370
    25
100
AcDbVertex
100
AcDb2dVertex
 10
45.19793021873524
 20
40.59218206450473
 30
0.0
  0
SEQEND
  5
202
330
1FF
100
AcDbEntity
  8
cotas
370
    25
  0
ENDBLK
  5
1FE
330
1FB
100
AcDbEntity
  8
0
100
AcDbBlockEnd
  0
BLOCK
  5
205
330
203
100
AcDbEntity
  8
0
100
AcDbBlockBegin
  2
block 60
 70
     0
 71
     0
 10
0.0
 20
0.0
 30
0.0
  3
block 60
  1

  0
POLYLINE
  5
207
330
203
100
AcDbEntity
  8
cotas
 62
   253
420
 11382189
370
    25
100
AcDb2dPolyline
 66
     1
 10
0.0
 20
0.0
 30
0.0
  0
VERTEX
  5
208
330
207
100
AcDbEntity
  8
cotas
 62
   253
420
 11382189
370
    25
100
AcDbVertex
100
AcDb2dVertex
 10
28.17536891656727
 20
37.83128254262552
 30
0.0
  0
VERTEX
  5
209
330
207
100
AcDbEntity
  8
cotas
 62
   253
420
 11382189
370
    25
100
AcDbVertex
100
AcDb2dVertex
 10
45.19793021873524
 20
37.83128254262552
 30
0.0
  0
SEQEND
  5
20A
330
207
100
AcDbEntity
  8
cotas
370
    25
  0
ENDBLK
  5
206
330
203
100
AcDbEntity
  8
0
100
AcDbBlockEnd
  0
BLOCK
  5
20D
330
20B
100
AcDbEntity
  8
0
100
AcDbBlockBegin
  2
block 61
 70
     0
 71
     0
 10
0.0
 20
0.0
 30
0.0
  3
block 61
  1

  0
POLYLINE
  5
20F
330
20B
100
AcDbEntity
  8
cotas
 62
   253
420
 11382189
370
    25
100
AcDb2dPolyline
 66
     1
 10
0.0
 20
0.0
 30
0.0
  0
VERTEX
  5
210
330
20F
100
AcDbEntity
  8
cotas
 62
   253
420
 11382189
370
    25
100
AcDbVertex
100
AcDb2dVertex
 10
44.20470919033772
 20
41.98227809280304
 30
0.0
  0
VERTEX
  5
211
330
20F
100
AcDbEntity
  8
cotas
 62
   253
420
 11382189
370
    25
100
AcDbVertex
100
AcDb2dVertex
 10
44.20470919033772
 20
43.37271863064988
 30
0.0
  0
SEQEND
  5
212
330
20F
100
AcDbEntity
  8
cotas
370
    25
  0
ENDBLK
  5
20E
330
20B
100
AcDbEntity
  8
0
100
AcDbBlockEnd
  0
BLOCK
  5
215
330
213
100
AcDbEntity
  8
0
100
AcDbBlockBegin
  2
block 62
 70
     0
 71
     0
 10
0.0
 20
0.0
 30
0.0
  3
block 62
  1

  0
POLYLINE
  5
217
330
213
100
AcDbEntity
  8
cotas
 62
   253
420
 11382189
370
    25
100
AcDb2dPolyline
 66
     1
 10
0.0
 20
0.0
 30
0.0
  0
VERTEX
  5
218
330
217
100
AcDbEntity
  8
cotas
 62
   253
420
 11382189
370
    25
100
AcDbVertex
100
AcDb2dVertex
 10
44.20470919033772
 20
36.44084200477868
 30
0.0
  0
VERTEX
  5
219
330
217
100
AcDbEntity
  8
cotas
 62
   253
420
 11382189
370
    25
100
AcDbVertex
100
AcDb2dVertex
 10
44.20470919033772
 20
35.05040146693185
 30
0.0
  0
SEQEND
  5
21A
330
217
100
AcDbEntity
  8
cotas
370
    25
  0
ENDBLK
  5
216
330
213
100
AcDbEntity
  8
0
100
AcDbBlockEnd
  0
BLOCK
  5
21D
330
21B
100
AcDbEntity
  8
0
100
AcDbBlockBegin
  2
block 63
 70
     0
 71
     0
 10
0.0
 20
0.0
 30
0.0
  3
block 63
  1

  0
POLYLINE
  5
21F
330
21B
100
AcDbEntity
  8
cotas
370
     0
100
AcDb2dPolyline
 66
     1
 10
0.0
 20
0.0
 30
0.0
  0
VERTEX
  5
220
330
21F
100
AcDbEntity
  8
cotas
370
     0
100
AcDbVertex
100
AcDb2dVertex
 10
43.97302651895466
 20
41.98227809280304
 30
0.0
  0
VERTEX
  5
221
330
21F
100
AcDbEntity
  8
cotas
370
     0
100
AcDbVertex
100
AcDb2dVertex
 10
44.43656411649503
 20
41.98227809280304
 30
0.0
  0
VERTEX
  5
222
330
21F
100
AcDbEntity
  8
cotas
370
     0
100
AcDbVertex
100
AcDb2dVertex
 10
44.20470919033772
 20
40.59218206450473
 30
0.0
  0
VERTEX
  5
223
330
21F
100
AcDbEntity
  8
cotas
370
     0
100
AcDbVertex
100
AcDb2dVertex
 10
43.97302651895466
 20
41.98227809280304
 30
0.0
  0
SEQEND
  5
224
330
21F
100
AcDbEntity
  8
cotas
370
     0
  0
HATCH
  5
225
330
21B
100
AcDbEntity
  8
cotas
 62
   253
420
 11382189
100
AcDbHatch
 10
0.0
 20
0.0
 30
0.0
210
0.0
220
0.0
230
1.0
  2
SOLID
 70
     1
 71
     0
 91
        1
 92
        1
 93
        3
 72
     1
 10
43.97302651895466
 20
41.98227809280304
 11
44.43656411649503
 21
41.98227809280304
 72
     1
 10
44.43656411649503
 20
41.98227809280304
 11
44.20470919033772
 21
40.59218206450473
 72
     1
 10
44.20470919033772
 20
40.59218206450473
 11
43.97302651895466
 21
41.98227809280304
 97
        0
 75
     2
 76
     1
 98
        0
  0
ENDBLK
  5
21E
330
21B
100
AcDbEntity
  8
0
100
AcDbBlockEnd
  0
BLOCK
  5
228
330
226
100
AcDbEntity
  8
0
100
AcDbBlockBegin
  2
block 64
 70
     0
 71
     0
 10
0.0
 20
0.0
 30
0.0
  3
block 64
  1

  0
POLYLINE
  5
22A
330
226
100
AcDbEntity
  8
cotas
370
     0
100
AcDb2dPolyline
 66
     1
 10
0.0
 20
0.0
 30
0.0
  0
VERTEX
  5
22B
330
22A
100
AcDbEntity
  8
cotas
370
     0
100
AcDbVertex
100
AcDb2dVertex
 10
43.97302651895466
 20
36.44084200477868
 30
0.0
  0
VERTEX
  5
22C
330
22A
100
AcDbEntity
  8
cotas
370
     0
100
AcDbVertex
100
AcDb2dVertex
 10
44.43656411649503
 20
36.44084200477868
 30
0.0
  0
VERTEX
  5
22D
330
22A
100
AcDbEntity
  8
cotas
370
     0
100
AcDbVertex
100
AcDb2dVertex
 10
44.20470919033772
 20
37.83128254262552
 30
0.0
  0
VERTEX
  5
22E
330
22A
100
AcDbEntity
  8
cotas
370
     0
100
AcDbVertex
100
AcDb2dVertex
 10
43.97302651895466
 20
36.44084200477868
 30
0.0
  0
SEQEND
  5
22F
330
22A
100
AcDbEntity
  8
cotas
370
     0
  0
HATCH
  5
230
330
226
100
AcDbEntity
  8
cotas
 62
   253
420
 11382189
100
AcDbHatch
 10
0.0
 20
0.0
 30
0.0
210
0.0
220
0.0
230
1.0
  2
SOLID
 70
     1
 71
     0
 91
        1
 92
        1
 93
        3
 72
     1
 10
43.97302651895466
 20
36.44084200477868
 11
44.43656411649503
 21
36.44084200477868
 72
     1
 10
44.43656411649503
 20
36.44084200477868
 11
44.20470919033772
 21
37.83128254262552
 72
     1
 10
44.20470919033772
 20
37.83128254262552
 11
43.97302651895466
 21
36.44084200477868
 97
        0
 75
     2
 76
     1
 98
        0
  0
ENDBLK
  5
229
330
226
100
AcDbEntity
  8
0
100
AcDbBlockEnd
  0
BLOCK
  5
233
330
231
100
AcDbEntity
  8
0
100
AcDbBlockBegin
  2
block 65
 70
     0
 71
     0
 10
0.0
 20
0.0
 30
0.0
  3
block 65
  1

  0
MTEXT
  5
235
330
231
100
AcDbEntity
  8
cotas
 62
   253
420
 11382189
100
AcDbMText
 10
37.33381075455544
 20
37.74618868413985
 30
0.0
 40
2.979224642962469
 41
0.0
 71
     7
 72
     1
  1
\fArial|b0|i0|c0|p34;\W1;max.45
 11
0.9999999847691298
 21
0.0001745329200509578
 31
0.0
 73
     1
 44
1.0
  0
ENDBLK
  5
234
330
231
100
AcDbEntity
  8
0
100
AcDbBlockEnd
  0
BLOCK
  5
238
330
236
100
AcDbEntity
  8
0
100
AcDbBlockBegin
  2
block 66
 70
     0
 71
     0
 10
0.0
 20
0.0
 30
0.0
  3
block 66
  1

  0
POLYLINE
  5
23A
330
236
100
AcDbEntity
  8
cotas
 62
   253
420
 11382189
370
    25
100
AcDb2dPolyline
 66
     1
 10
0.0
 20
0.0
 30
0.0
  0
VERTEX
  5
23B
330
23A
100
AcDbEntity
  8
cotas
 62
   253
420
 11382189
370
    25
100
AcDbVertex
100
AcDb2dVertex
 10
26.1246758289723
 20
40.59218206450473
 30
0.0
  0
VERTEX
  5
23C
330
23A
100
AcDbEntity
  8
cotas
 62
   253
420
 11382189
370
    25
100
AcDbVertex
100
AcDb2dVertex
 10
26.1246758289723
 20
40.59218206450473
 30
0.0
  0
SEQEND
  5
23D
330
23A
100
AcDbEntity
  8
cotas
370
    25
  0
ENDBLK
  5
239
330
236
100
AcDbEntity
  8
0
100
AcDbBlockEnd
  0
BLOCK
  5
240
330
23E
100
AcDbEntity
  8
0
100
AcDbBlockBegin
  2
block 67
 70
     0
 71
     0
 10
0.0
 20
0.0
 30
0.0
  3
block 67
  1

  0
POLYLINE
  5
242
330
23E
100
AcDbEntity
  8
cotas
 62
   253
420
 11382189
370
    25
100
AcDb2dPolyline
 66
     1
 10
0.0
 20
0.0
 30
0.0
  0
VERTEX
  5
243
330
242
100
AcDbEntity
  8
cotas
 62
   253
420
 11382189
370
    25
100
AcDbVertex
100
AcDb2dVertex
 10
26.18927136932074
 20
37.83128254262552
 30
0.0
  0
VERTEX
  5
244
330
242
100
AcDbEntity
  8
cotas
 62
   253
420
 11382189
370
    25
100
AcDbVertex
100
AcDb2dVertex
 10
26.18927136932074
 20
37.83128254262552
 30
0.0
  0
SEQEND
  5
245
330
242
100
AcDbEntity
  8
cotas
370
    25
  0
ENDBLK
  5
241
330
23E
100
AcDbEntity
  8
0
100
AcDbBlockEnd
  0
BLOCK
  5
248
330
246
100
AcDbEntity
  8
0
100
AcDbBlockBegin
  2
block 68
 70
     0
 71
     0
 10
0.0
 20
0.0
 30
0.0
  3
block 68
  1

  0
POLYLINE
  5
24A
330
246
100
AcDbEntity
  8
cotas
 62
   253
420
 11382189
370
    25
100
AcDb2dPolyline
 66
     1
 10
0.0
 20
0.0
 30
0.0
  0
VERTEX
  5
24B
330
24A
100
AcDbEntity
  8
cotas
 62
   253
420
 11382189
370
    25
100
AcDbVertex
100
AcDb2dVertex
 10
44.20470919033772
 20
37.83128254262552
 30
0.0
  0
VERTEX
  5
24C
330
24A
100
AcDbEntity
  8
cotas
 62
   253
420
 11382189
370
    25
100
AcDbVertex
100
AcDb2dVertex
 10
44.20470919033772
 20
37.83128254262552
 30
0.0
  0
SEQEND
  5
24D
330
24A
100
AcDbEntity
  8
cotas
370
    25
  0
ENDBLK
  5
249
330
246
100
AcDbEntity
  8
0
100
AcDbBlockEnd
  0
BLOCK
  5
250
330
24E
100
AcDbEntity
  8
0
100
AcDbBlockBegin
  2
block 69
 70
     0
 71
     0
 10
0.0
 20
0.0
 30
0.0
  3
block 69
  1

  0
INSERT
  5
253
330
24E
100
AcDbEntity
  8
cotas
100
AcDbBlockReference
  2
block 70
 10
0.0
 20
0.0
 30
0.0
  0
INSERT
  5
25B
330
24E
100
AcDbEntity
  8
cotas
100
AcDbBlockReference
  2
block 71
 10
0.0
 20
0.0
 30
0.0
  0
INSERT
  5
263
330
24E
100
AcDbEntity
  8
cotas
100
AcDbBlockReference
  2
block 72
 10
0.0
 20
0.0
 30
0.0
  0
INSERT
  5
26B
330
24E
100
AcDbEntity
  8
cotas
100
AcDbBlockReference
  2
block 73
 10
0.0
 20
0.0
 30
0.0
  0
INSERT
  5
273
330
24E
100
AcDbEntity
  8
cotas
100
AcDbBlockReference
  2
block 74
 10
0.0
 20
0.0
 30
0.0
  0
INSERT
  5
27E
330
24E
100
AcDbEntity
  8
cotas
100
AcDbBlockReference
  2
block 75
 10
0.0
 20
0.0
 30
0.0
  0
INSERT
  5
289
330
24E
100
AcDbEntity
  8
cotas
100
AcDbBlockReference
  2
block 76
 10
0.0
 20
0.0
 30
0.0
  0
INSERT
  5
28E
330
24E
100
AcDbEntity
  8
cotas
100
AcDbBlockReference
  2
block 77
 10
0.0
 20
0.0
 30
0.0
  0
INSERT
  5
296
330
24E
100
AcDbEntity
  8
cotas
100
AcDbBlockReference
  2
block 78
 10
0.0
 20
0.0
 30
0.0
  0
INSERT
  5
29E
330
24E
100
AcDbEntity
  8
cotas
100
AcDbBlockReference
  2
block 79
 10
0.0
 20
0.0
 30
0.0
  0
ENDBLK
  5
251
330
24E
100
AcDbEntity
  8
0
100
AcDbBlockEnd
  0
BLOCK
  5
254
330
252
100
AcDbEntity
  8
0
100
AcDbBlockBegin
  2
block 70
 70
     0
 71
     0
 10
0.0
 20
0.0
 30
0.0
  3
block 70
  1

  0
POLYLINE
  5
256
330
252
100
AcDbEntity
  8
cotas
 62
   253
420
 11382189
370
    25
100
AcDb2dPolyline
 66
     1
 10
0.0
 20
0.0
 30
0.0
  0
VERTEX
  5
257
330
256
100
AcDbEntity
  8
cotas
 62
   253
420
 11382189
370
    25
100
AcDbVertex
100
AcDb2dVertex
 10
28.11077337621884
 20
40.59218206450473
 30
0.0
  0
VERTEX
  5
258
330
256
100
AcDbEntity
  8
cotas
 62
   253
420
 11382189
370
    25
100
AcDbVertex
100
AcDb2dVertex
 10
61.34337021035861
 20
40.59218206450473
 30
0.0
  0
SEQEND
  5
259
330
256
100
AcDbEntity
  8
cotas
370
    25
  0
ENDBLK
  5
255
330
252
100
AcDbEntity
  8
0
100
AcDbBlockEnd
  0
BLOCK
  5
25C
330
25A
100
AcDbEntity
  8
0
100
AcDbBlockBegin
  2
block 71
 70
     0
 71
     0
 10
0.0
 20
0.0
 30
0.0
  3
block 71
  1

  0
POLYLINE
  5
25E
330
25A
100
AcDbEntity
  8
cotas
 62
   253
420
 11382189
370
    25
100
AcDb2dPolyline
 66
     1
 10
0.0
 20
0.0
 30
0.0
  0
VERTEX
  5
25F
330
25E
100
AcDbEntity
  8
cotas
 62
   253
420
 11382189
370
    25
100
AcDbVertex
100
AcDb2dVertex
 10
25.741236701464
 20
22.39656574960919
 30
0.0
  0
VERTEX
  5
260
330
25E
100
AcDbEntity
  8
cotas
 62
   253
420
 11382189
370
    25
100
AcDbVertex
100
AcDb2dVertex
 10
61.34337021035861
 20
22.39656574960919
 30
0.0
  0
SEQEND
  5
261
330
25E
100
AcDbEntity
  8
cotas
370
    25
  0
ENDBLK
  5
25D
330
25A
100
AcDbEntity
  8
0
100
AcDbBlockEnd
  0
BLOCK
  5
264
330
262
100
AcDbEntity
  8
0
100
AcDbBlockBegin
  2
block 72
 70
     0
 71
     0
 10
0.0
 20
0.0
 30
0.0
  3
block 72
  1

  0
POLYLINE
  5
266
330
262
100
AcDbEntity
  8
cotas
 62
   253
420
 11382189
370
    25
100
AcDb2dPolyline
 66
     1
 10
0.0
 20
0.0
 30
0.0
  0
VERTEX
  5
267
330
266
100
AcDbEntity
  8
cotas
 62
   253
420
 11382189
370
    25
100
AcDbVertex
100
AcDb2dVertex
 10
60.35032143673534
 20
39.20208603620642
 30
0.0
  0
VERTEX
  5
268
330
266
100
AcDbEntity
  8
cotas
 62
   253
420
 11382189
370
    25
100
AcDbVertex
100
AcDb2dVertex
 10
60.35032143673534
 20
35.00251463968687
 30
0.0
  0
SEQEND
  5
269
330
266
100
AcDbEntity
  8
cotas
370
    25
  0
ENDBLK
  5
265
330
262
100
AcDbEntity
  8
0
100
AcDbBlockEnd
  0
BLOCK
  5
26C
330
26A
100
AcDbEntity
  8
0
100
AcDbBlockBegin
  2
block 73
 70
     0
 71
     0
 10
0.0
 20
0.0
 30
0.0
  3
block 73
  1

  0
POLYLINE
  5
26E
330
26A
100
AcDbEntity
  8
cotas
 62
   253
420
 11382189
370
    25
100
AcDb2dPolyline
 66
     1
 10
0.0
 20
0.0
 30
0.0
  0
VERTEX
  5
26F
330
26E
100
AcDbEntity
  8
cotas
 62
   253
420
 11382189
370
    25
100
AcDbVertex
100
AcDb2dVertex
 10
60.35032143673534
 20
23.78631726835898
 30
0.0
  0
VERTEX
  5
270
330
26E
100
AcDbEntity
  8
cotas
 62
   253
420
 11382189
370
    25
100
AcDbVertex
100
AcDb2dVertex
 10
60.35032143673534
 20
27.98623317442705
 30
0.0
  0
SEQEND
  5
271
330
26E
100
AcDbEntity
  8
cotas
370
    25
  0
ENDBLK
  5
26D
330
26A
100
AcDbEntity
  8
0
100
AcDbBlockEnd
  0
BLOCK
  5
274
330
272
100
AcDbEntity
  8
0
100
AcDbBlockBegin
  2
block 74
 70
     0
 71
     0
 10
0.0
 20
0.0
 30
0.0
  3
block 74
  1

  0
POLYLINE
  5
276
330
272
100
AcDbEntity
  8
cotas
370
     0
100
AcDb2dPolyline
 66
     1
 10
0.0
 20
0.0
 30
0.0
  0
VERTEX
  5
277
330
276
100
AcDbEntity
  8
cotas
370
     0
100
AcDbVertex
100
AcDb2dVertex
 10
60.11846651057802
 20
39.20208603620642
 30
0.0
  0
VERTEX
  5
278
330
276
100
AcDbEntity
  8
cotas
370
     0
100
AcDbVertex
100
AcDb2dVertex
 10
60.58200410811839
 20
39.20208603620642
 30
0.0
  0
VERTEX
  5
279
330
276
100
AcDbEntity
  8
cotas
370
     0
100
AcDbVertex
100
AcDb2dVertex
 10
60.35032143673534
 20
40.59218206450473
 30
0.0
  0
VERTEX
  5
27A
330
276
100
AcDbEntity
  8
cotas
370
     0
100
AcDbVertex
100
AcDb2dVertex
 10
60.11846651057802
 20
39.20208603620642
 30
0.0
  0
SEQEND
  5
27B
330
276
100
AcDbEntity
  8
cotas
370
     0
  0
HATCH
  5
27C
330
272
100
AcDbEntity
  8
cotas
 62
   253
420
 11382189
100
AcDbHatch
 10
0.0
 20
0.0
 30
0.0
210
0.0
220
0.0
230
1.0
  2
SOLID
 70
     1
 71
     0
 91
        1
 92
        1
 93
        3
 72
     1
 10
60.11846651057802
 20
39.20208603620642
 11
60.58200410811839
 21
39.20208603620642
 72
     1
 10
60.58200410811839
 20
39.20208603620642
 11
60.35032143673534
 21
40.59218206450473
 72
     1
 10
60.35032143673534
 20
40.59218206450473
 11
60.11846651057802
 21
39.20208603620642
 97
        0
 75
     2
 76
     1
 98
        0
  0
ENDBLK
  5
275
330
272
100
AcDbEntity
  8
0
100
AcDbBlockEnd
  0
BLOCK
  5
27F
330
27D
100
AcDbEntity
  8
0
100
AcDbBlockBegin
  2
block 75
 70
     0
 71
     0
 10
0.0
 20
0.0
 30
0.0
  3
block 75
  1

  0
POLYLINE
  5
281
330
27D
100
AcDbEntity
  8
cotas
370
     0
100
AcDb2dPolyline
 66
     1
 10
0.0
 20
0.0
 30
0.0
  0
VERTEX
  5
282
330
281
100
AcDbEntity
  8
cotas
370
     0
100
AcDbVertex
100
AcDb2dVertex
 10
60.11846651057802
 20
23.78631726835898
 30
0.0
  0
VERTEX
  5
283
330
281
100
AcDbEntity
  8
cotas
370
     0
100
AcDbVertex
100
AcDb2dVertex
 10
60.58200410811839
 20
23.78631726835898
 30
0.0
  0
VERTEX
  5
284
330
281
100
AcDbEntity
  8
cotas
370
     0
100
AcDbVertex
100
AcDb2dVertex
 10
60.35032143673534
 20
22.39656574960919
 30
0.0
  0
VERTEX
  5
285
330
281
100
AcDbEntity
  8
cotas
370
     0
100
AcDbVertex
100
AcDb2dVertex
 10
60.11846651057802
 20
23.78631726835898
 30
0.0
  0
SEQEND
  5
286
330
281
100
AcDbEntity
  8
cotas
370
     0
  0
HATCH
  5
287
330
27D
100
AcDbEntity
  8
cotas
 62
   253
420
 11382189
100
AcDbHatch
 10
0.0
 20
0.0
 30
0.0
210
0.0
220
0.0
230
1.0
  2
SOLID
 70
     1
 71
     0
 91
        1
 92
        1
 93
        3
 72
     1
 10
60.11846651057802
 20
23.78631726835898
 11
60.58200410811839
 21
23.78631726835898
 72
     1
 10
60.58200410811839
 20
23.78631726835898
 11
60.35032143673534
 21
22.39656574960919
 72
     1
 10
60.35032143673534
 20
22.39656574960919
 11
60.11846651057802
 21
23.78631726835898
 97
        0
 75
     2
 76
     1
 98
        0
  0
ENDBLK
  5
280
330
27D
100
AcDbEntity
  8
0
100
AcDbBlockEnd
  0
BLOCK
  5
28A
330
288
100
AcDbEntity
  8
0
100
AcDbBlockBegin
  2
block 76
 70
     0
 71
     0
 10
0.0
 20
0.0
 30
0.0
  3
block 76
  1

  0
MTEXT
  5
28C
330
288
100
AcDbEntity
  8
cotas
 62
   253
420
 11382189
100
AcDbMText
 10
56.89454615548123
 20
30.02366264440381
 30
0.0
 40
2.979224642962469
 41
0.0
 71
     7
 72
     1
  1
\fArial|b0|i0|c0|p34;\W1;370
 73
     1
 44
1.0
  0
ENDBLK
  5
28B
330
288
100
AcDbEntity
  8
0
100
AcDbBlockEnd
  0
BLOCK
  5
28F
330
28D
100
AcDbEntity
  8
0
100
AcDbBlockBegin
  2
block 77
 70
     0
 71
     0
 10
0.0
 20
0.0
 30
0.0
  3
block 77
  1

  0
POLYLINE
  5
291
330
28D
100
AcDbEntity
  8
cotas
 62
   253
420
 11382189
370
    25
100
AcDb2dPolyline
 66
     1
 10
0.0
 20
0.0
 30
0.0
  0
VERTEX
  5
292
330
291
100
AcDbEntity
  8
cotas
 62
   253
420
 11382189
370
    25
100
AcDbVertex
100
AcDb2dVertex
 10
26.1246758289723
 20
40.59218206450473
 30
0.0
  0
VERTEX
  5
293
330
291
100
AcDbEntity
  8
cotas
 62
   253
420
 11382189
370
    25
100
AcDbVertex
100
AcDb2dVertex
 10
26.1246758289723
 20
40.59218206450473
 30
0.0
  0
SEQEND
  5
294
330
291
100
AcDbEntity
  8
cotas
370
    25
  0
ENDBLK
  5
290
330
28D
100
AcDbEntity
  8
0
100
AcDbBlockEnd
  0
BLOCK
  5
297
330
295
100
AcDbEntity
  8
0
100
AcDbBlockBegin
  2
block 78
 70
     0
 71
     0
 10
0.0
 20
0.0
 30
0.0
  3
block 78
  1

  0
POLYLINE
  5
299
330
295
100
AcDbEntity
  8
cotas
 62
   253
420
 11382189
370
    25
100
AcDb2dPolyline
 66
     1
 10
0.0
 20
0.0
 30
0.0
  0
VERTEX
  5
29A
330
299
100
AcDbEntity
  8
cotas
 62
   253
420
 11382189
370
    25
100
AcDbVertex
100
AcDb2dVertex
 10
23.75513915421747
 20
22.39656574960919
 30
0.0
  0
VERTEX
  5
29B
330
299
100
AcDbEntity
  8
cotas
 62
   253
420
 11382189
370
    25
100
AcDbVertex
100
AcDb2dVertex
 10
23.75513915421747
 20
22.39656574960919
 30
0.0
  0
SEQEND
  5
29C
330
299
100
AcDbEntity
  8
cotas
370
    25
  0
ENDBLK
  5
298
330
295
100
AcDbEntity
  8
0
100
AcDbBlockEnd
  0
BLOCK
  5
29F
330
29D
100
AcDbEntity
  8
0
100
AcDbBlockBegin
  2
block 79
 70
     0
 71
     0
 10
0.0
 20
0.0
 30
0.0
  3
block 79
  1

  0
POLYLINE
  5
2A1
330
29D
100
AcDbEntity
  8
cotas
 62
   253
420
 11382189
370
    25
100
AcDb2dPolyline
 66
     1
 10
0.0
 20
0.0
 30
0.0
  0
VERTEX
  5
2A2
330
2A1
100
AcDbEntity
  8
cotas
 62
   253
420
 11382189
370
    25
100
AcDbVertex
100
AcDb2dVertex
 10
60.35032143673534
 20
22.39656574960919
 30
0.0
  0
VERTEX
  5
2A3
330
2A1
100
AcDbEntity
  8
cotas
 62
   253
420
 11382189
370
    25
100
AcDbVertex
100
AcDb2dVertex
 10
60.35032143673534
 20
22.39656574960919
 30
0.0
  0
SEQEND
  5
2A4
330
2A1
100
AcDbEntity
  8
cotas
370
    25
  0
ENDBLK
  5
2A0
330
29D
100
AcDbEntity
  8
0
100
AcDbBlockEnd
  0
BLOCK
  5
2A7
330
2A5
100
AcDbEntity
  8
0
100
AcDbBlockBegin
  2
block 80
 70
     0
 71
     0
 10
0.0
 20
0.0
 30
0.0
  3
block 80
  1

  0
POLYLINE
  5
2A9
330
2A5
100
AcDbEntity
  8
cotas
370
     0
100
AcDb2dPolyline
 66
     1
 10
0.0
 20
0.0
 30
0.0
  0
VERTEX
  5
2AA
330
2A9
100
AcDbEntity
  8
cotas
370
     0
100
AcDbVertex
100
AcDb2dVertex
 10
21.33409830195814
 20
27.93455674214831
 30
0.0
  0
VERTEX
  5
2AB
330
2A9
100
AcDbEntity
  8
cotas
370
     0
100
AcDbVertex
100
AcDb2dVertex
 10
23.32019584920467
 20
27.93455674214831
 30
0.0
  0
VERTEX
  5
2AC
330
2A9
100
AcDbEntity
  8
cotas
370
     0
100
AcDbVertex
100
AcDb2dVertex
 10
23.32019584920467
 20
29.98645561316311
 30
0.0
  0
VERTEX
  5
2AD
330
2A9
100
AcDbEntity
  8
cotas
370
     0
100
AcDbVertex
100
AcDb2dVertex
 10
21.33409830195814
 20
29.45556639888611
 30
0.0
  0
VERTEX
  5
2AE
330
2A9
100
AcDbEntity
  8
cotas
370
     0
100
AcDbVertex
100
AcDb2dVertex
 10
21.33409830195814
 20
27.93455674214831
 30
0.0
  0
VERTEX
  5
2AF
330
2A9
100
AcDbEntity
  8
cotas
370
     0
100
AcDbVertex
100
AcDb2dVertex
 10
21.33409830195814
 20
27.93455674214831
 30
0.0
  0
SEQEND
  5
2B0
330
2A9
100
AcDbEntity
  8
cotas
370
     0
  0
POLYLINE
  5
2B1
330
2A5
100
AcDbEntity
  8
cotas
370
     0
100
AcDb2dPolyline
 66
     1
 10
0.0
 20
0.0
 30
0.0
  0
VERTEX
  5
2B2
330
2B1
100
AcDbEntity
  8
cotas
370
     0
100
AcDbVertex
100
AcDb2dVertex
 10
23.32019584920467
 20
34.9656521179947
 30
0.0
  0
VERTEX
  5
2B3
330
2B1
100
AcDbEntity
  8
cotas
370
     0
100
AcDbVertex
100
AcDb2dVertex
 10
21.33409830195814
 20
34.9656521179947
 30
0.0
  0
VERTEX
  5
2B4
330
2B1
100
AcDbEntity
  8
cotas
370
     0
100
AcDbVertex
100
AcDb2dVertex
 10
21.33409830195814
 20
31.80615504847207
 30
0.0
  0
VERTEX
  5
2B5
330
2B1
100
AcDbEntity
  8
cotas
370
     0
100
AcDbVertex
100
AcDb2dVertex
 10
23.32019584920467
 20
32.3373887722976
 30
0.0
  0
VERTEX
  5
2B6
330
2B1
100
AcDbEntity
  8
cotas
370
     0
100
AcDbVertex
100
AcDb2dVertex
 10
23.32019584920467
 20
34.9656521179947
 30
0.0
  0
VERTEX
  5
2B7
330
2B1
100
AcDbEntity
  8
cotas
370
     0
100
AcDbVertex
100
AcDb2dVertex
 10
23.32019584920467
 20
34.9656521179947
 30
0.0
  0
SEQEND
  5
2B8
330
2B1
100
AcDbEntity
  8
cotas
370
     0
  0
POLYLINE
  5
2B9
330
2A5
100
AcDbEntity
  8
cotas
370
     0
100
AcDb2dPolyline
 66
     1
 10
0.0
 20
0.0
 30
0.0
  0
VERTEX
  5
2BA
330
2B9
100
AcDbEntity
  8
cotas
370
     0
100
AcDbVertex
100
AcDb2dVertex
 10
21.33409830195814
 20
37.83024901397994
 30
0.0
  0
VERTEX
  5
2BB
330
2B9
100
AcDbEntity
  8
cotas
370
     0
100
AcDbVertex
100
AcDb2dVertex
 10
23.32019584920467
 20
37.83024901397994
 30
0.0
  0
VERTEX
  5
2BC
330
2B9
100
AcDbEntity
  8
cotas
370
     0
100
AcDbVertex
100
AcDb2dVertex
 10
23.32019584920467
 20
40.59252657405326
 30
0.0
  0
VERTEX
  5
2BD
330
2B9
100
AcDbEntity
  8
cotas
370
     0
100
AcDbVertex
100
AcDb2dVertex
 10
21.33409830195814
 20
40.59252657405326
 30
0.0
  0
VERTEX
  5
2BE
330
2B9
100
AcDbEntity
  8
cotas
370
     0
100
AcDbVertex
100
AcDb2dVertex
 10
21.33409830195814
 20
37.83024901397994
 30
0.0
  0
VERTEX
  5
2BF
330
2B9
100
AcDbEntity
  8
cotas
370
     0
100
AcDbVertex
100
AcDb2dVertex
 10
21.33409830195814
 20
37.83024901397994
 30
0.0
  0
SEQEND
  5
2C0
330
2B9
100
AcDbEntity
  8
cotas
370
     0
  0
POLYLINE
  5
2C1
330
2A5
100
AcDbEntity
  8
cotas
370
     0
100
AcDb2dPolyline
 66
     1
 10
0.0
 20
0.0
 30
0.0
  0
VERTEX
  5
2C2
330
2C1
100
AcDbEntity
  8
cotas
370
     0
100
AcDbVertex
100
AcDb2dVertex
 10
23.32019584920467
 20
37.24079317645369
 30
0.0
  0
VERTEX
  5
2C3
330
2C1
100
AcDbEntity
  8
cotas
370
     0
100
AcDbVertex
100
AcDb2dVertex
 10
21.33409830195814
 20
37.24079317645369
 30
0.0
  0
VERTEX
  5
2C4
330
2C1
100
AcDbEntity
  8
cotas
370
     0
100
AcDbVertex
100
AcDb2dVertex
 10
21.33409830195814
 20
36.15076496492065
 30
0.0
  0
VERTEX
  5
2C5
330
2C1
100
AcDbEntity
  8
cotas
370
     0
100
AcDbVertex
100
AcDb2dVertex
 10
23.32019584920467
 20
36.15076496492065
 30
0.0
  0
VERTEX
  5
2C6
330
2C1
100
AcDbEntity
  8
cotas
370
     0
100
AcDbVertex
100
AcDb2dVertex
 10
23.32019584920467
 20
37.24079317645369
 30
0.0
  0
VERTEX
  5
2C7
330
2C1
100
AcDbEntity
  8
cotas
370
     0
100
AcDbVertex
100
AcDb2dVertex
 10
23.32019584920467
 20
37.24079317645369
 30
0.0
  0
SEQEND
  5
2C8
330
2C1
100
AcDbEntity
  8
cotas
370
     0
  0
POLYLINE
  5
2C9
330
2A5
100
AcDbEntity
  8
cotas
 62
   253
420
 11382189
370
    25
100
AcDb2dPolyline
 66
     1
 10
0.0
 20
0.0
 30
0.0
  0
VERTEX
  5
2CA
330
2C9
100
AcDbEntity
  8
cotas
 62
   253
420
 11382189
370
    25
100
AcDbVertex
100
AcDb2dVertex
 10
21.33409830195814
 20
39.02914224284688
 30
0.0
  0
VERTEX
  5
2CB
330
2C9
100
AcDbEntity
  8
cotas
 62
   253
420
 11382189
370
    25
100
AcDbVertex
100
AcDb2dVertex
 10
22.89644910451894
 20
40.59252657405326
 30
0.0
  0
SEQEND
  5
2CC
330
2C9
100
AcDbEntity
  8
cotas
370
    25
  0
POLYLINE
  5
2CD
330
2A5
100
AcDbEntity
  8
cotas
 62
   253
420
 11382189
370
    25
100
AcDb2dPolyline
 66
     1
 10
0.0
 20
0.0
 30
0.0
  0
VERTEX
  5
2CE
330
2CD
100
AcDbEntity
  8
cotas
 62
   253
420
 11382189
370
    25
100
AcDbVertex
100
AcDb2dVertex
 10
21.71529811740104
 20
37.83024901397994
 30
0.0
  0
VERTEX
  5
2CF
330
2CD
100
AcDbEntity
  8
cotas
 62
   253
420
 11382189
370
    25
100
AcDbVertex
100
AcDb2dVertex
 10
23.32019584920467
 20
39.43669703875194
 30
0.0
  0
SEQEND
  5
2D0
330
2CD
100
AcDbEntity
  8
cotas
370
    25
  0
POLYLINE
  5
2D1
330
2A5
100
AcDbEntity
  8
cotas
 62
   253
420
 11382189
370
    25
100
AcDb2dPolyline
 66
     1
 10
0.0
 20
0.0
 30
0.0
  0
VERTEX
  5
2D2
330
2D1
100
AcDbEntity
  8
cotas
 62
   253
420
 11382189
370
    25
100
AcDbVertex
100
AcDb2dVertex
 10
21.61521809355453
 20
36.15076496492065
 30
0.0
  0
VERTEX
  5
2D3
330
2D1
100
AcDbEntity
  8
cotas
 62
   253
420
 11382189
370
    25
100
AcDbVertex
100
AcDb2dVertex
 10
22.70541855986184
 20
37.24079317645369
 30
0.0
  0
SEQEND
  5
2D4
330
2D1
100
AcDbEntity
  8
cotas
370
    25
  0
POLYLINE
  5
2D5
330
2A5
100
AcDbEntity
  8
cotas
 62
   253
420
 11382189
370
    25
100
AcDb2dPolyline
 66
     1
 10
0.0
 20
0.0
 30
0.0
  0
VERTEX
  5
2D6
330
2D5
100
AcDbEntity
  8
cotas
 62
   253
420
 11382189
370
    25
100
AcDbVertex
100
AcDb2dVertex
 10
23.29504665216235
 20
37.83024901397994
 30
0.0
  0
VERTEX
  5
2D7
330
2D5
100
AcDbEntity
  8
cotas
 62
   253
420
 11382189
370
    25
100
AcDbVertex
100
AcDb2dVertex
 10
23.32019584920467
 20
37.85574272057079
 30
0.0
  0
SEQEND
  5
2D8
330
2D5
100
AcDbEntity
  8
cotas
370
    25
  0
POLYLINE
  5
2D9
330
2A5
100
AcDbEntity
  8
cotas
 62
   253
420
 11382189
370
    25
100
AcDb2dPolyline
 66
     1
 10
0.0
 20
0.0
 30
0.0
  0
VERTEX
  5
2DA
330
2D9
100
AcDbEntity
  8
cotas
 62
   253
420
 11382189
370
    25
100
AcDbVertex
100
AcDb2dVertex
 10
21.33409830195814
 20
34.29041340288573
 30
0.0
  0
VERTEX
  5
2DB
330
2D9
100
AcDbEntity
  8
cotas
 62
   253
420
 11382189
370
    25
100
AcDbVertex
100
AcDb2dVertex
 10
22.00899250751858
 20
34.9656521179947
 30
0.0
  0
SEQEND
  5
2DC
330
2D9
100
AcDbEntity
  8
cotas
370
    25
  0
POLYLINE
  5
2DD
330
2A5
100
AcDbEntity
  8
cotas
 62
   253
420
 11382189
370
    25
100
AcDb2dPolyline
 66
     1
 10
0.0
 20
0.0
 30
0.0
  0
VERTEX
  5
2DE
330
2DD
100
AcDbEntity
  8
cotas
 62
   253
420
 11382189
370
    25
100
AcDbVertex
100
AcDb2dVertex
 10
23.19513888309011
 20
36.15076496492065
 30
0.0
  0
VERTEX
  5
2DF
330
2DD
100
AcDbEntity
  8
cotas
 62
   253
420
 11382189
370
    25
100
AcDbVertex
100
AcDb2dVertex
 10
23.32019584920467
 20
36.27685545968079
 30
0.0
  0
SEQEND
  5
2E0
330
2DD
100
AcDbEntity
  8
cotas
370
    25
  0
POLYLINE
  5
2E1
330
2A5
100
AcDbEntity
  8
cotas
 62
   253
420
 11382189
370
    25
100
AcDb2dPolyline
 66
     1
 10
0.0
 20
0.0
 30
0.0
  0
VERTEX
  5
2E2
330
2E1
100
AcDbEntity
  8
cotas
 62
   253
420
 11382189
370
    25
100
AcDbVertex
100
AcDb2dVertex
 10
21.33409830195814
 20
32.7098035942531
 30
0.0
  0
VERTEX
  5
2E3
330
2E1
100
AcDbEntity
  8
cotas
 62
   253
420
 11382189
370
    25
100
AcDbVertex
100
AcDb2dVertex
 10
23.32019584920467
 20
34.69590114149964
 30
0.0
  0
SEQEND
  5
2E4
330
2E1
100
AcDbEntity
  8
cotas
370
    25
  0
POLYLINE
  5
2E5
330
2A5
100
AcDbEntity
  8
cotas
 62
   253
420
 11382189
370
    25
100
AcDb2dPolyline
 66
     1
 10
0.0
 20
0.0
 30
0.0
  0
VERTEX
  5
2E6
330
2E5
100
AcDbEntity
  8
cotas
 62
   253
420
 11382189
370
    25
100
AcDbVertex
100
AcDb2dVertex
 10
22.25635036335952
 20
32.05247937566744
 30
0.0
  0
VERTEX
  5
2E7
330
2E5
100
AcDbEntity
  8
cotas
 62
   253
420
 11382189
370
    25
100
AcDbVertex
100
AcDb2dVertex
 10
23.32019584920467
 20
33.11701388060964
 30
0.0
  0
SEQEND
  5
2E8
330
2E5
100
AcDbEntity
  8
cotas
370
    25
  0
POLYLINE
  5
2E9
330
2A5
100
AcDbEntity
  8
cotas
 62
   253
420
 11382189
370
    25
100
AcDb2dPolyline
 66
     1
 10
0.0
 20
0.0
 30
0.0
  0
VERTEX
  5
2EA
330
2E9
100
AcDbEntity
  8
cotas
 62
   253
420
 11382189
370
    25
100
AcDbVertex
100
AcDb2dVertex
 10
21.33409830195814
 20
27.96935220654933
 30
0.0
  0
VERTEX
  5
2EB
330
2E9
100
AcDbEntity
  8
cotas
 62
   253
420
 11382189
370
    25
100
AcDbVertex
100
AcDb2dVertex
 10
23.32019584920467
 20
29.95544975379586
 30
0.0
  0
SEQEND
  5
2EC
330
2E9
100
AcDbEntity
  8
cotas
370
    25
  0
POLYLINE
  5
2ED
330
2A5
100
AcDbEntity
  8
cotas
 62
   253
420
 11382189
370
    25
100
AcDb2dPolyline
 66
     1
 10
0.0
 20
0.0
 30
0.0
  0
VERTEX
  5
2EE
330
2ED
100
AcDbEntity
  8
cotas
 62
   253
420
 11382189
370
    25
100
AcDbVertex
100
AcDb2dVertex
 10
22.87905137231843
 20
27.93455674214831
 30
0.0
  0
VERTEX
  5
2EF
330
2ED
100
AcDbEntity
  8
cotas
 62
   253
420
 11382189
370
    25
100
AcDbVertex
100
AcDb2dVertex
 10
23.32019584920467
 20
28.37690700245438
 30
0.0
  0
SEQEND
  5
2F0
330
2ED
100
AcDbEntity
  8
cotas
370
    25
  0
POLYLINE
  5
2F1
330
2A5
100
AcDbEntity
  8
cotas
 62
   253
420
 11382189
370
    25
100
AcDb2dPolyline
 66
     1
 10
0.0
 20
0.0
 30
0.0
  0
VERTEX
  5
2F2
330
2F1
100
AcDbEntity
  8
cotas
 62
   253
420
 11382189
370
    25
100
AcDbVertex
100
AcDb2dVertex
 10
22.57347140277677
 20
27.93455674214831
 30
0.0
  0
VERTEX
  5
2F3
330
2F1
100
AcDbEntity
  8
cotas
 62
   253
420
 11382189
370
    25
100
AcDbVertex
100
AcDb2dVertex
 10
21.33409830195814
 20
29.1741020977412
 30
0.0
  0
SEQEND
  5
2F4
330
2F1
100
AcDbEntity
  8
cotas
370
    25
  0
POLYLINE
  5
2F5
330
2A5
100
AcDbEntity
  8
cotas
 62
   253
420
 11382189
370
    25
100
AcDb2dPolyline
 66
     1
 10
0.0
 20
0.0
 30
0.0
  0
VERTEX
  5
2F6
330
2F5
100
AcDbEntity
  8
cotas
 62
   253
420
 11382189
370
    25
100
AcDbVertex
100
AcDb2dVertex
 10
23.32019584920467
 20
28.76654730183614
 30
0.0
  0
VERTEX
  5
2F7
330
2F5
100
AcDbEntity
  8
cotas
 62
   253
420
 11382189
370
    25
100
AcDbVertex
100
AcDb2dVertex
 10
22.35832518972292
 20
29.72876247086642
 30
0.0
  0
SEQEND
  5
2F8
330
2F5
100
AcDbEntity
  8
cotas
370
    25
  0
POLYLINE
  5
2F9
330
2A5
100
AcDbEntity
  8
cotas
 62
   253
420
 11382189
370
    25
100
AcDb2dPolyline
 66
     1
 10
0.0
 20
0.0
 30
0.0
  0
VERTEX
  5
2FA
330
2F9
100
AcDbEntity
  8
cotas
 62
   253
420
 11382189
370
    25
100
AcDbVertex
100
AcDb2dVertex
 10
21.75112711044764
 20
31.91674261354859
 30
0.0
  0
VERTEX
  5
2FB
330
2F9
100
AcDbEntity
  8
cotas
 62
   253
420
 11382189
370
    25
100
AcDbVertex
100
AcDb2dVertex
 10
21.33409830195814
 20
32.33359916726383
 30
0.0
  0
SEQEND
  5
2FC
330
2F9
100
AcDbEntity
  8
cotas
370
    25
  0
POLYLINE
  5
2FD
330
2A5
100
AcDbEntity
  8
cotas
 62
   253
420
 11382189
370
    25
100
AcDb2dPolyline
 66
     1
 10
0.0
 20
0.0
 30
0.0
  0
VERTEX
  5
2FE
330
2FD
100
AcDbEntity
  8
cotas
 62
   253
420
 11382189
370
    25
100
AcDbVertex
100
AcDb2dVertex
 10
22.9972181474625
 20
32.25022785652078
 30
0.0
  0
VERTEX
  5
2FF
330
2FD
100
AcDbEntity
  8
cotas
 62
   253
420
 11382189
370
    25
100
AcDbVertex
100
AcDb2dVertex
 10
21.33409830195814
 20
33.91455348544498
 30
0.0
  0
SEQEND
  5
300
330
2FD
100
AcDbEntity
  8
cotas
370
    25
  0
POLYLINE
  5
301
330
2A5
100
AcDbEntity
  8
cotas
 62
   253
420
 11382189
370
    25
100
AcDb2dPolyline
 66
     1
 10
0.0
 20
0.0
 30
0.0
  0
VERTEX
  5
302
330
301
100
AcDbEntity
  8
cotas
 62
   253
420
 11382189
370
    25
100
AcDbVertex
100
AcDb2dVertex
 10
23.32019584920467
 20
33.50699868953992
 30
0.0
  0
VERTEX
  5
303
330
301
100
AcDbEntity
  8
cotas
 62
   253
420
 11382189
370
    25
100
AcDbVertex
100
AcDb2dVertex
 10
21.86274820416973
 20
34.9656521179947
 30
0.0
  0
SEQEND
  5
304
330
301
100
AcDbEntity
  8
cotas
370
    25
  0
POLYLINE
  5
305
330
2A5
100
AcDbEntity
  8
cotas
 62
   253
420
 11382189
370
    25
100
AcDb2dPolyline
 66
     1
 10
0.0
 20
0.0
 30
0.0
  0
VERTEX
  5
306
330
305
100
AcDbEntity
  8
cotas
 62
   253
420
 11382189
370
    25
100
AcDbVertex
100
AcDb2dVertex
 10
22.2573838920051
 20
36.15076496492065
 30
0.0
  0
VERTEX
  5
307
330
305
100
AcDbEntity
  8
cotas
 62
   253
420
 11382189
370
    25
100
AcDbVertex
100
AcDb2dVertex
 10
21.33409830195814
 20
37.0740505549676
 30
0.0
  0
SEQEND
  5
308
330
305
100
AcDbEntity
  8
cotas
370
    25
  0
POLYLINE
  5
309
330
2A5
100
AcDbEntity
  8
cotas
 62
   253
420
 11382189
370
    25
100
AcDb2dPolyline
 66
     1
 10
0.0
 20
0.0
 30
0.0
  0
VERTEX
  5
30A
330
309
100
AcDbEntity
  8
cotas
 62
   253
420
 11382189
370
    25
100
AcDbVertex
100
AcDb2dVertex
 10
23.32019584920467
 20
36.66684026861107
 30
0.0
  0
VERTEX
  5
30B
330
309
100
AcDbEntity
  8
cotas
 62
   253
420
 11382189
370
    25
100
AcDbVertex
100
AcDb2dVertex
 10
22.74624294136205
 20
37.24079317645369
 30
0.0
  0
SEQEND
  5
30C
330
309
100
AcDbEntity
  8
cotas
370
    25
  0
POLYLINE
  5
30D
330
2A5
100
AcDbEntity
  8
cotas
 62
   253
420
 11382189
370
    25
100
AcDb2dPolyline
 66
     1
 10
0.0
 20
0.0
 30
0.0
  0
VERTEX
  5
30E
330
30D
100
AcDbEntity
  8
cotas
 62
   253
420
 11382189
370
    25
100
AcDbVertex
100
AcDb2dVertex
 10
22.15644259428728
 20
37.83024901397994
 30
0.0
  0
VERTEX
  5
30F
330
30D
100
AcDbEntity
  8
cotas
 62
   253
420
 11382189
370
    25
100
AcDbVertex
100
AcDb2dVertex
 10
21.33409830195814
 20
38.65259330630908
 30
0.0
  0
SEQEND
  5
310
330
30D
100
AcDbEntity
  8
cotas
370
    25
  0
POLYLINE
  5
311
330
2A5
100
AcDbEntity
  8
cotas
 62
   253
420
 11382189
370
    25
100
AcDb2dPolyline
 66
     1
 10
0.0
 20
0.0
 30
0.0
  0
VERTEX
  5
312
330
311
100
AcDbEntity
  8
cotas
 62
   253
420
 11382189
370
    25
100
AcDbVertex
100
AcDb2dVertex
 10
23.32019584920467
 20
38.2474500772437
 30
0.0
  0
VERTEX
  5
313
330
311
100
AcDbEntity
  8
cotas
 62
   253
420
 11382189
370
    25
100
AcDbVertex
100
AcDb2dVertex
 10
21.33409830195814
 20
40.23354762449023
 30
0.0
  0
SEQEND
  5
314
330
311
100
AcDbEntity
  8
cotas
370
    25
  0
POLYLINE
  5
315
330
2A5
100
AcDbEntity
  8
cotas
 62
   253
420
 11382189
370
    25
100
AcDb2dPolyline
 66
     1
 10
0.0
 20
0.0
 30
0.0
  0
VERTEX
  5
316
330
315
100
AcDbEntity
  8
cotas
 62
   253
420
 11382189
370
    25
100
AcDbVertex
100
AcDb2dVertex
 10
23.32019584920467
 20
39.8263373381337
 30
0.0
  0
VERTEX
  5
317
330
315
100
AcDbEntity
  8
cotas
 62
   253
420
 11382189
370
    25
100
AcDbVertex
100
AcDb2dVertex
 10
22.55504014193069
 20
40.59252657405326
 30
0.0
  0
SEQEND
  5
318
330
315
100
AcDbEntity
  8
cotas
370
    25
  0
ENDBLK
  5
2A8
330
2A5
100
AcDbEntity
  8
0
100
AcDbBlockEnd
  0
BLOCK
  5
31B
330
319
100
AcDbEntity
  8
0
100
AcDbBlockBegin
  2
block 81
 70
     0
 71
     0
 10
0.0
 20
0.0
 30
0.0
  3
block 81
  1

  0
INSERT
  5
31E
330
319
100
AcDbEntity
  8
cotas
100
AcDbBlockReference
  2
block 82
 10
0.0
 20
0.0
 30
0.0
  0
INSERT
  5
326
330
319
100
AcDbEntity
  8
cotas
100
AcDbBlockReference
  2
block 83
 10
0.0
 20
0.0
 30
0.0
  0
INSERT
  5
32E
330
319
100
AcDbEntity
  8
cotas
100
AcDbBlockReference
  2
block 84
 10
0.0
 20
0.0
 30
0.0
  0
INSERT
  5
336
330
319
100
AcDbEntity
  8
cotas
100
AcDbBlockReference
  2
block 85
 10
0.0
 20
0.0
 30
0.0
  0
INSERT
  5
33E
330
319
100
AcDbEntity
  8
cotas
100
AcDbBlockReference
  2
block 86
 10
0.0
 20
0.0
 30
0.0
  0
INSERT
  5
346
330
319
100
AcDbEntity
  8
cotas
100
AcDbBlockReference
  2
block 87
 10
0.0
 20
0.0
 30
0.0
  0
INSERT
  5
351
330
319
100
AcDbEntity
  8
cotas
100
AcDbBlockReference
  2
block 88
 10
0.0
 20
0.0
 30
0.0
  0
INSERT
  5
35C
330
319
100
AcDbEntity
  8
cotas
100
AcDbBlockReference
  2
block 89
 10
0.0
 20
0.0
 30
0.0
  0
INSERT
  5
361
330
319
100
AcDbEntity
  8
cotas
100
AcDbBlockReference
  2
block 90
 10
0.0
 20
0.0
 30
0.0
  0
INSERT
  5
369
330
319
100
AcDbEntity
  8
cotas
100
AcDbBlockReference
  2
block 91
 10
0.0
 20
0.0
 30
0.0
  0
INSERT
  5
371
330
319
100
AcDbEntity
  8
cotas
100
AcDbBlockReference
  2
block 92
 10
0.0
 20
0.0
 30
0.0
  0
ENDBLK
  5
31C
330
319
100
AcDbEntity
  8
0
100
AcDbBlockEnd
  0
BLOCK
  5
31F
330
31D
100
AcDbEntity
  8
0
100
AcDbBlockBegin
  2
block 82
 70
     0
 71
     0
 10
0.0
 20
0.0
 30
0.0
  3
block 82
  1

  0
POLYLINE
  5
321
330
31D
100
AcDbEntity
  8
cotas
 62
   253
420
 11382189
370
    25
100
AcDb2dPolyline
 66
     1
 10
0.0
 20
0.0
 30
0.0
  0
VERTEX
  5
322
330
321
100
AcDbEntity
  8
cotas
 62
   253
420
 11382189
370
    25
100
AcDbVertex
100
AcDb2dVertex
 10
18.33393689862832
 20
27.74473198091104
 30
0.0
  0
VERTEX
  5
323
330
321
100
AcDbEntity
  8
cotas
 62
   253
420
 11382189
370
    25
100
AcDbVertex
100
AcDb2dVertex
 10
18.33393689862832
 20
9.610093856104422
 30
0.0
  0
SEQEND
  5
324
330
321
100
AcDbEntity
  8
cotas
370
    25
  0
ENDBLK
  5
320
330
31D
100
AcDbEntity
  8
0
100
AcDbBlockEnd
  0
BLOCK
  5
327
330
325
100
AcDbEntity
  8
0
100
AcDbBlockBegin
  2
block 83
 70
     0
 71
     0
 10
0.0
 20
0.0
 30
0.0
  3
block 83
  1

  0
POLYLINE
  5
329
330
325
100
AcDbEntity
  8
cotas
 62
   253
420
 11382189
370
    25
100
AcDb2dPolyline
 66
     1
 10
0.0
 20
0.0
 30
0.0
  0
VERTEX
  5
32A
330
329
100
AcDbEntity
  8
cotas
 62
   253
420
 11382189
370
    25
100
AcDbVertex
100
AcDb2dVertex
 10
19.90679524241914
 20
27.74473198091104
 30
0.0
  0
VERTEX
  5
32B
330
329
100
AcDbEntity
  8
cotas
 62
   253
420
 11382189
370
    25
100
AcDbVertex
100
AcDb2dVertex
 10
19.90679524241914
 20
9.610093856104422
 30
0.0
  0
SEQEND
  5
32C
330
329
100
AcDbEntity
  8
cotas
370
    25
  0
ENDBLK
  5
328
330
325
100
AcDbEntity
  8
0
100
AcDbBlockEnd
  0
BLOCK
  5
32F
330
32D
100
AcDbEntity
  8
0
100
AcDbBlockBegin
  2
block 84
 70
     0
 71
     0
 10
0.0
 20
0.0
 30
0.0
  3
block 84
  1

  0
POLYLINE
  5
331
330
32D
100
AcDbEntity
  8
cotas
 62
   253
420
 11382189
370
    25
100
AcDb2dPolyline
 66
     1
 10
0.0
 20
0.0
 30
0.0
  0
VERTEX
  5
332
330
331
100
AcDbEntity
  8
cotas
 62
   253
420
 11382189
370
    25
100
AcDbVertex
100
AcDb2dVertex
 10
16.94349636078149
 20
10.60297037495342
 30
0.0
  0
VERTEX
  5
333
330
331
100
AcDbEntity
  8
cotas
 62
   253
420
 11382189
370
    25
100
AcDbVertex
100
AcDb2dVertex
 10
15.55322807770892
 20
10.60297037495342
 30
0.0
  0
SEQEND
  5
334
330
331
100
AcDbEntity
  8
cotas
370
    25
  0
ENDBLK
  5
330
330
32D
100
AcDbEntity
  8
0
100
AcDbBlockEnd
  0
BLOCK
  5
337
330
335
100
AcDbEntity
  8
0
100
AcDbBlockBegin
  2
block 85
 70
     0
 71
     0
 10
0.0
 20
0.0
 30
0.0
  3
block 85
  1

  0
POLYLINE
  5
339
330
335
100
AcDbEntity
  8
cotas
 62
   253
420
 11382189
370
    25
100
AcDb2dPolyline
 66
     1
 10
0.0
 20
0.0
 30
0.0
  0
VERTEX
  5
33A
330
339
100
AcDbEntity
  8
cotas
 62
   253
420
 11382189
370
    25
100
AcDbVertex
100
AcDb2dVertex
 10
21.29723578026597
 20
10.60297037495342
 30
0.0
  0
VERTEX
  5
33B
330
339
100
AcDbEntity
  8
cotas
 62
   253
420
 11382189
370
    25
100
AcDbVertex
100
AcDb2dVertex
 10
34.72122259331622
 20
10.60297037495342
 30
0.0
  0
SEQEND
  5
33C
330
339
100
AcDbEntity
  8
cotas
370
    25
  0
ENDBLK
  5
338
330
335
100
AcDbEntity
  8
0
100
AcDbBlockEnd
  0
BLOCK
  5
33F
330
33D
100
AcDbEntity
  8
0
100
AcDbBlockBegin
  2
block 86
 70
     0
 71
     0
 10
0.0
 20
0.0
 30
0.0
  3
block 86
  1

  0
POLYLINE
  5
341
330
33D
100
AcDbEntity
  8
cotas
 62
   253
420
 11382189
370
    25
100
AcDb2dPolyline
 66
     1
 10
0.0
 20
0.0
 30
0.0
  0
VERTEX
  5
342
330
341
100
AcDbEntity
  8
cotas
 62
   253
420
 11382189
370
    25
100
AcDbVertex
100
AcDb2dVertex
 10
18.33393689862832
 20
10.60297037495342
 30
0.0
  0
VERTEX
  5
343
330
341
100
AcDbEntity
  8
cotas
 62
   253
420
 11382189
370
    25
100
AcDbVertex
100
AcDb2dVertex
 10
19.90679524241914
 20
10.60297037495342
 30
0.0
  0
SEQEND
  5
344
330
341
100
AcDbEntity
  8
cotas
370
    25
  0
ENDBLK
  5
340
330
33D
100
AcDbEntity
  8
0
100
AcDbBlockEnd
  0
BLOCK
  5
347
330
345
100
AcDbEntity
  8
0
100
AcDbBlockBegin
  2
block 87
 70
     0
 71
     0
 10
0.0
 20
0.0
 30
0.0
  3
block 87
  1

  0
POLYLINE
  5
349
330
345
100
AcDbEntity
  8
cotas
370
     0
100
AcDb2dPolyline
 66
     1
 10
0.0
 20
0.0
 30
0.0
  0
VERTEX
  5
34A
330
349
100
AcDbEntity
  8
cotas
370
     0
100
AcDbVertex
100
AcDb2dVertex
 10
16.94349636078149
 20
10.83482530111074
 30
0.0
  0
VERTEX
  5
34B
330
349
100
AcDbEntity
  8
cotas
370
     0
100
AcDbVertex
100
AcDb2dVertex
 10
16.94349636078149
 20
10.37145995834464
 30
0.0
  0
VERTEX
  5
34C
330
349
100
AcDbEntity
  8
cotas
370
     0
100
AcDbVertex
100
AcDb2dVertex
 10
18.33393689862832
 20
10.60297037495342
 30
0.0
  0
VERTEX
  5
34D
330
349
100
AcDbEntity
  8
cotas
370
     0
100
AcDbVertex
100
AcDb2dVertex
 10
16.94349636078149
 20
10.83482530111074
 30
0.0
  0
SEQEND
  5
34E
330
349
100
AcDbEntity
  8
cotas
370
     0
  0
HATCH
  5
34F
330
345
100
AcDbEntity
  8
cotas
 62
   253
420
 11382189
100
AcDbHatch
 10
0.0
 20
0.0
 30
0.0
210
0.0
220
0.0
230
1.0
  2
SOLID
 70
     1
 71
     0
 91
        1
 92
        1
 93
        3
 72
     1
 10
16.94349636078149
 20
10.83482530111074
 11
16.94349636078149
 21
10.37145995834464
 72
     1
 10
16.94349636078149
 20
10.37145995834464
 11
18.33393689862832
 21
10.60297037495342
 72
     1
 10
18.33393689862832
 20
10.60297037495342
 11
16.94349636078149
 21
10.83482530111074
 97
        0
 75
     2
 76
     1
 98
        0
  0
ENDBLK
  5
348
330
345
100
AcDbEntity
  8
0
100
AcDbBlockEnd
  0
BLOCK
  5
352
330
350
100
AcDbEntity
  8
0
100
AcDbBlockBegin
  2
block 88
 70
     0
 71
     0
 10
0.0
 20
0.0
 30
0.0
  3
block 88
  1

  0
POLYLINE
  5
354
330
350
100
AcDbEntity
  8
cotas
370
     0
100
AcDb2dPolyline
 66
     1
 10
0.0
 20
0.0
 30
0.0
  0
VERTEX
  5
355
330
354
100
AcDbEntity
  8
cotas
370
     0
100
AcDbVertex
100
AcDb2dVertex
 10
21.29723578026597
 20
10.83482530111074
 30
0.0
  0
VERTEX
  5
356
330
354
100
AcDbEntity
  8
cotas
370
     0
100
AcDbVertex
100
AcDb2dVertex
 10
21.29723578026597
 20
10.37145995834464
 30
0.0
  0
VERTEX
  5
357
330
354
100
AcDbEntity
  8
cotas
370
     0
100
AcDbVertex
100
AcDb2dVertex
 10
19.90679524241914
 20
10.60297037495342
 30
0.0
  0
VERTEX
  5
358
330
354
100
AcDbEntity
  8
cotas
370
     0
100
AcDbVertex
100
AcDb2dVertex
 10
21.29723578026597
 20
10.83482530111074
 30
0.0
  0
SEQEND
  5
359
330
354
100
AcDbEntity
  8
cotas
370
     0
  0
HATCH
  5
35A
330
350
100
AcDbEntity
  8
cotas
 62
   253
420
 11382189
100
AcDbHatch
 10
0.0
 20
0.0
 30
0.0
210
0.0
220
0.0
230
1.0
  2
SOLID
 70
     1
 71
     0
 91
        1
 92
        1
 93
        3
 72
     1
 10
21.29723578026597
 20
10.83482530111074
 11
21.29723578026597
 21
10.37145995834464
 72
     1
 10
21.29723578026597
 20
10.37145995834464
 11
19.90679524241914
 21
10.60297037495342
 72
     1
 10
19.90679524241914
 20
10.60297037495342
 11
21.29723578026597
 21
10.83482530111074
 97
        0
 75
     2
 76
     1
 98
        0
  0
ENDBLK
  5
353
330
350
100
AcDbEntity
  8
0
100
AcDbBlockEnd
  0
BLOCK
  5
35D
330
35B
100
AcDbEntity
  8
0
100
AcDbBlockBegin
  2
block 89
 70
     0
 71
     0
 10
0.0
 20
0.0
 30
0.0
  3
block 89
  1

  0
MTEXT
  5
35F
330
35B
100
AcDbEntity
  8
cotas
 62
   253
420
 11382189
100
AcDbMText
 10
36.4058742856034
 20
9.132603621848794
 30
0.0
 40
2.979224642962469
 41
0.0
 71
     7
 72
     1
  1
\fArial|b0|i0|c0|p34;\W1;M8x1.25
 73
     1
 44
1.0
  0
ENDBLK
  5
35E
330
35B
100
AcDbEntity
  8
0
100
AcDbBlockEnd
  0
BLOCK
  5
362
330
360
100
AcDbEntity
  8
0
100
AcDbBlockBegin
  2
block 90
 70
     0
 71
     0
 10
0.0
 20
0.0
 30
0.0
  3
block 90
  1

  0
POLYLINE
  5
364
330
360
100
AcDbEntity
  8
cotas
 62
   253
420
 11382189
370
    25
100
AcDb2dPolyline
 66
     1
 10
0.0
 20
0.0
 30
0.0
  0
VERTEX
  5
365
330
364
100
AcDbEntity
  8
cotas
 62
   253
420
 11382189
370
    25
100
AcDbVertex
100
AcDb2dVertex
 10
18.33393689862832
 20
29.73082952815757
 30
0.0
  0
VERTEX
  5
366
330
364
100
AcDbEntity
  8
cotas
 62
   253
420
 11382189
370
    25
100
AcDbVertex
100
AcDb2dVertex
 10
18.33393689862832
 20
29.73082952815757
 30
0.0
  0
SEQEND
  5
367
330
364
100
AcDbEntity
  8
cotas
370
    25
  0
ENDBLK
  5
363
330
360
100
AcDbEntity
  8
0
100
AcDbBlockEnd
  0
BLOCK
  5
36A
330
368
100
AcDbEntity
  8
0
100
AcDbBlockBegin
  2
block 91
 70
     0
 71
     0
 10
0.0
 20
0.0
 30
0.0
  3
block 91
  1

  0
POLYLINE
  5
36C
330
368
100
AcDbEntity
  8
cotas
 62
   253
420
 11382189
370
    25
100
AcDb2dPolyline
 66
     1
 10
0.0
 20
0.0
 30
0.0
  0
VERTEX
  5
36D
330
36C
100
AcDbEntity
  8
cotas
 62
   253
420
 11382189
370
    25
100
AcDbVertex
100
AcDb2dVertex
 10
19.90679524241914
 20
29.73082952815757
 30
0.0
  0
VERTEX
  5
36E
330
36C
100
AcDbEntity
  8
cotas
 62
   253
420
 11382189
370
    25
100
AcDbVertex
100
AcDb2dVertex
 10
19.90679524241914
 20
29.73082952815757
 30
0.0
  0
SEQEND
  5
36F
330
36C
100
AcDbEntity
  8
cotas
370
    25
  0
ENDBLK
  5
36B
330
368
100
AcDbEntity
  8
0
100
AcDbBlockEnd
  0
BLOCK
  5
372
330
370
100
AcDbEntity
  8
0
100
AcDbBlockBegin
  2
block 92
 70
     0
 71
     0
 10
0.0
 20
0.0
 30
0.0
  3
block 92
  1

  0
POLYLINE
  5
374
330
370
100
AcDbEntity
  8
cotas
 62
   253
420
 11382189
370
    25
100
AcDb2dPolyline
 66
     1
 10
0.0
 20
0.0
 30
0.0
  0
VERTEX
  5
375
330
374
100
AcDbEntity
  8
cotas
 62
   253
420
 11382189
370
    25
100
AcDbVertex
100
AcDb2dVertex
 10
19.90679524241914
 20
10.60297037495342
 30
0.0
  0
VERTEX
  5
376
330
374
100
AcDbEntity
  8
cotas
 62
   253
420
 11382189
370
    25
100
AcDbVertex
100
AcDb2dVertex
 10
19.90679524241914
 20
10.60297037495342
 30
0.0
  0
SEQEND
  5
377
330
374
100
AcDbEntity
  8
cotas
370
    25
  0
ENDBLK
  5
373
330
370
100
AcDbEntity
  8
0
100
AcDbBlockEnd
  0
BLOCK
  5
37B
330
379
100
AcDbEntity
  8
0
100
AcDbBlockBegin
  2
block 93
 70
     0
 71
     0
 10
0.0
 20
0.0
 30
0.0
  3
block 93
  1

  0
POLYLINE
  5
37D
330
379
100
AcDbEntity
  8
cuerpo
 62
     7
420
 16777215
370
    25
100
AcDb2dPolyline
 66
     1
 10
0.0
 20
0.0
 30
0.0
  0
VERTEX
  5
37E
330
37D
100
AcDbEntity
  8
cuerpo
 62
     7
420
 16777215
370
    25
100
AcDbVertex
100
AcDb2dVertex
 10
17.18689235681439
 20
41.64500324479708
 30
0.0
  0
VERTEX
  5
37F
330
37D
100
AcDbEntity
  8
cuerpo
 62
     7
420
 16777215
370
    25
100
AcDbVertex
100
AcDb2dVertex
 10
25.13162705534904
 20
41.64500324479708
 30
0.0
  0
SEQEND
  5
380
330
37D
100
AcDbEntity
  8
cuerpo
370
    25
  0
ENDBLK
  5
37C
330
379
100
AcDbEntity
  8
0
100
AcDbBlockEnd
  0
BLOCK
  5
383
330
381
100
AcDbEntity
  8
0
100
AcDbBlockBegin
  2
block 94
 70
     0
 71
     0
 10
0.0
 20
0.0
 30
0.0
  3
block 94
  1

  0
POLYLINE
  5
385
330
381
100
AcDbEntity
  8
cuerpo
 62
     7
420
 16777215
370
    25
100
AcDb2dPolyline
 66
     1
 10
0.0
 20
0.0
 30
0.0
  0
VERTEX
  5
386
330
385
100
AcDbEntity
  8
cuerpo
 62
     7
420
 16777215
370
    25
100
AcDbVertex
100
AcDb2dVertex
 10
17.18689235681439
 20
41.64500324479708
 30
0.0
  0
VERTEX
  5
387
330
385
100
AcDbEntity
  8
cuerpo
 62
     7
420
 16777215
370
    25
100
AcDbVertex
100
AcDb2dVertex
 10
25.13162705534904
 20
41.64500324479708
 30
0.0
  0
SEQEND
  5
388
330
385
100
AcDbEntity
  8
cuerpo
370
    25
  0
ENDBLK
  5
384
330
381
100
AcDbEntity
  8
0
100
AcDbBlockEnd
  0
BLOCK
  5
38B
330
389
100
AcDbEntity
  8
0
100
AcDbBlockBegin
  2
block 95
 70
     0
 71
     0
 10
0.0
 20
0.0
 30
0.0
  3
block 95
  1

  0
POLYLINE
  5
38D
330
389
100
AcDbEntity
  8
cuerpo
 62
     7
420
 16777215
370
    25
100
AcDb2dPolyline
 66
     1
 10
0.0
 20
0.0
 30
0.0
  0
VERTEX
  5
38E
330
38D
100
AcDbEntity
  8
cuerpo
 62
     7
420
 16777215
370
    25
100
AcDbVertex
100
AcDb2dVertex
 10
26.1246758289723
 20
41.64500324479708
 30
0.0
  0
VERTEX
  5
38F
330
38D
100
AcDbEntity
  8
cuerpo
 62
     7
420
 16777215
370
    25
100
AcDbVertex
100
AcDb2dVertex
 10
26.1246758289723
 20
40.59218206450473
 30
0.0
  0
SEQEND
  5
390
330
38D
100
AcDbEntity
  8
cuerpo
370
    25
  0
ENDBLK
  5
38C
330
389
100
AcDbEntity
  8
0
100
AcDbBlockEnd
  0
BLOCK
  5
393
330
391
100
AcDbEntity
  8
0
100
AcDbBlockBegin
  2
block 96
 70
     0
 71
     0
 10
0.0
 20
0.0
 30
0.0
  3
block 96
  1

  0
POLYLINE
  5
395
330
391
100
AcDbEntity
  8
cuerpo
 62
     7
420
 16777215
370
    25
100
AcDb2dPolyline
 66
     1
 10
0.0
 20
0.0
 30
0.0
  0
VERTEX
  5
396
330
395
100
AcDbEntity
  8
cuerpo
 62
     7
420
 16777215
370
    25
100
AcDbVertex
100
AcDb2dVertex
 10
16.19401583796538
 20
41.64500324479708
 30
0.0
  0
VERTEX
  5
397
330
395
100
AcDbEntity
  8
cuerpo
 62
     7
420
 16777215
370
    25
100
AcDbVertex
100
AcDb2dVertex
 10
16.19401583796538
 20
40.59218206450473
 30
0.0
  0
SEQEND
  5
398
330
395
100
AcDbEntity
  8
cuerpo
370
    25
  0
ENDBLK
  5
394
330
391
100
AcDbEntity
  8
0
100
AcDbBlockEnd
  0
BLOCK
  5
39B
330
399
100
AcDbEntity
  8
0
100
AcDbBlockBegin
  2
block 97
 70
     0
 71
     0
 10
0.0
 20
0.0
 30
0.0
  3
block 97
  1

  0
POLYLINE
  5
39D
330
399
100
AcDbEntity
  8
cuerpo
 62
     7
420
 16777215
370
    25
100
AcDb2dPolyline
 66
     1
 10
0.0
 20
0.0
 30
0.0
  0
VERTEX
  5
39E
330
39D
100
AcDbEntity
  8
cuerpo
 62
     7
420
 16777215
370
    25
100
AcDbVertex
100
AcDb2dVertex
 10
26.1246758289723
 20
41.64500324479708
 30
0.0
  0
VERTEX
  5
39F
330
39D
100
AcDbEntity
  8
cuerpo
 62
     7
420
 16777215
370
    25
100
AcDbVertex
100
AcDb2dVertex
 10
16.19401583796538
 20
41.64500324479708
 30
0.0
  0
SEQEND
  5
3A0
330
39D
100
AcDbEntity
  8
cuerpo
370
    25
  0
ENDBLK
  5
39C
330
399
100
AcDbEntity
  8
0
100
AcDbBlockEnd
  0
BLOCK
  5
3A3
330
3A1
100
AcDbEntity
  8
0
100
AcDbBlockBegin
  2
block 98
 70
     0
 71
     0
 10
0.0
 20
0.0
 30
0.0
  3
block 98
  1

  0
POLYLINE
  5
3A5
330
3A1
100
AcDbEntity
  8
cuerpo
 62
     7
420
 16777215
370
    25
100
AcDb2dPolyline
 66
     1
 10
0.0
 20
0.0
 30
0.0
  0
VERTEX
  5
3A6
330
3A5
100
AcDbEntity
  8
cuerpo
 62
     7
420
 16777215
370
    25
100
AcDbVertex
100
AcDb2dVertex
 10
16.19401583796538
 20
40.59218206450473
 30
0.0
  0
VERTEX
  5
3A7
330
3A5
100
AcDbEntity
  8
cuerpo
 62
     7
420
 16777215
370
    25
100
AcDbVertex
100
AcDb2dVertex
 10
26.1246758289723
 20
40.59218206450473
 30
0.0
  0
SEQEND
  5
3A8
330
3A5
100
AcDbEntity
  8
cuerpo
370
    25
  0
ENDBLK
  5
3A4
330
3A1
100
AcDbEntity
  8
0
100
AcDbBlockEnd
  0
BLOCK
  5
3AB
330
3A9
100
AcDbEntity
  8
0
100
AcDbBlockBegin
  2
block 99
 70
     0
 71
     0
 10
0.0
 20
0.0
 30
0.0
  3
block 99
  1

  0
POLYLINE
  5
3AD
330
3A9
100
AcDbEntity
  8
cuerpo
 62
     7
420
 16777215
370
    25
100
AcDb2dPolyline
 66
     1
 10
0.0
 20
0.0
 30
0.0
  0
VERTEX
  5
3AE
330
3AD
100
AcDbEntity
  8
cuerpo
 62
     7
420
 16777215
370
    25
100
AcDbVertex
100
AcDb2dVertex
 10
25.13162705534904
 20
56.73968911341925
 30
0.0
  0
VERTEX
  5
3AF
330
3AD
100
AcDbEntity
  8
cuerpo
 62
     7
420
 16777215
370
    25
100
AcDbVertex
100
AcDb2dVertex
 10
25.13162705534904
 20
49.78817544328213
 30
0.0
  0
SEQEND
  5
3B0
330
3AD
100
AcDbEntity
  8
cuerpo
370
    25
  0
ENDBLK
  5
3AC
330
3A9
100
AcDbEntity
  8
0
100
AcDbBlockEnd
  0
BLOCK
  5
3B3
330
3B1
100
AcDbEntity
  8
0
100
AcDbBlockBegin
  2
block 100
 70
     0
 71
     0
 10
0.0
 20
0.0
 30
0.0
  3
block 100
  1

  0
POLYLINE
  5
3B5
330
3B1
100
AcDbEntity
  8
cuerpo
 62
     7
420
 16777215
370
    25
100
AcDb2dPolyline
 66
     1
 10
0.0
 20
0.0
 30
0.0
  0
VERTEX
  5
3B6
330
3B5
100
AcDbEntity
  8
cuerpo
 62
     7
420
 16777215
370
    25
100
AcDbVertex
100
AcDb2dVertex
 10
25.13162705534904
 20
49.78817544328213
 30
0.0
  0
VERTEX
  5
3B7
330
3B5
100
AcDbEntity
  8
cuerpo
 62
     7
420
 16777215
370
    25
100
AcDbVertex
100
AcDb2dVertex
 10
30.89148219713824
 20
49.78817544328213
 30
0.0
  0
SEQEND
  5
3B8
330
3B5
100
AcDbEntity
  8
cuerpo
370
    25
  0
ENDBLK
  5
3B4
330
3B1
100
AcDbEntity
  8
0
100
AcDbBlockEnd
  0
BLOCK
  5
3BB
330
3B9
100
AcDbEntity
  8
0
100
AcDbBlockBegin
  2
block 101
 70
     0
 71
     0
 10
0.0
 20
0.0
 30
0.0
  3
block 101
  1

  0
POLYLINE
  5
3BD
330
3B9
100
AcDbEntity
  8
cuerpo
 62
     7
420
 16777215
370
    25
100
AcDb2dPolyline
 66
     1
 10
0.0
 20
0.0
 30
0.0
  0
VERTEX
  5
3BE
330
3BD
100
AcDbEntity
  8
cuerpo
 62
     7
420
 16777215
370
    25
100
AcDbVertex
100
AcDb2dVertex
 10
30.89148219713824
 20
56.73968911341925
 30
0.0
  0
VERTEX
  5
3BF
330
3BD
100
AcDbEntity
  8
cuerpo
 62
     7
420
 16777215
370
    25
100
AcDbVertex
100
AcDb2dVertex
 10
25.13162705534904
 20
56.73968911341925
 30
0.0
  0
SEQEND
  5
3C0
330
3BD
100
AcDbEntity
  8
cuerpo
370
    25
  0
ENDBLK
  5
3BC
330
3B9
100
AcDbEntity
  8
0
100
AcDbBlockEnd
  0
BLOCK
  5
3C3
330
3C1
100
AcDbEntity
  8
0
100
AcDbBlockBegin
  2
block 102
 70
     0
 71
     0
 10
0.0
 20
0.0
 30
0.0
  3
block 102
  1

  0
POLYLINE
  5
3C5
330
3C1
100
AcDbEntity
  8
cuerpo
 62
     7
420
 16777215
370
    25
100
AcDb2dPolyline
 66
     1
 10
0.0
 20
0.0
 30
0.0
  0
VERTEX
  5
3C6
330
3C5
100
AcDbEntity
  8
cuerpo
 62
     7
420
 16777215
370
    25
100
AcDbVertex
100
AcDb2dVertex
 10
30.89148219713824
 20
49.78817544328213
 30
0.0
  0
VERTEX
  5
3C7
330
3C5
100
AcDbEntity
  8
cuerpo
 62
     7
420
 16777215
370
    25
100
AcDbVertex
100
AcDb2dVertex
 10
30.89148219713824
 20
56.73968911341925
 30
0.0
  0
SEQEND
  5
3C8
330
3C5
100
AcDbEntity
  8
cuerpo
370
    25
  0
ENDBLK
  5
3C4
330
3C1
100
AcDbEntity
  8
0
100
AcDbBlockEnd
  0
BLOCK
  5
3CB
330
3C9
100
AcDbEntity
  8
0
100
AcDbBlockBegin
  2
block 103
 70
     0
 71
     0
 10
0.0
 20
0.0
 30
0.0
  3
block 103
  1

  0
POLYLINE
  5
3CD
330
3C9
100
AcDbEntity
  8
cuerpo
 62
     7
420
 16777215
370
    25
100
AcDb2dPolyline
 66
     1
 10
0.0
 20
0.0
 30
0.0
  0
VERTEX
  5
3CE
330
3CD
100
AcDbEntity
  8
cuerpo
 62
     7
420
 16777215
370
    25
100
AcDbVertex
100
AcDb2dVertex
 10
20.16621093245845
 20
61.50632322681092
 30
0.0
  0
VERTEX
  5
3CF
330
3CD
100
AcDbEntity
  8
cuerpo
 62
     7
420
 16777215
370
    25
100
AcDbVertex
100
AcDb2dVertex
 10
22.15230847970498
 20
61.50632322681092
 30
0.0
  0
SEQEND
  5
3D0
330
3CD
100
AcDbEntity
  8
cuerpo
370
    25
  0
ENDBLK
  5
3CC
330
3C9
100
AcDbEntity
  8
0
100
AcDbBlockEnd
  0
BLOCK
  5
3D3
330
3D1
100
AcDbEntity
  8
0
100
AcDbBlockBegin
  2
block 104
 70
     0
 71
     0
 10
0.0
 20
0.0
 30
0.0
  3
block 104
  1

  0
POLYLINE
  5
3D5
330
3D1
100
AcDbEntity
  8
cuerpo
 62
     7
420
 16777215
370
    25
100
AcDb2dPolyline
 66
     1
 10
0.0
 20
0.0
 30
0.0
  0
VERTEX
  5
3D6
330
3D5
100
AcDbEntity
  8
cuerpo
 62
     7
420
 16777215
370
    25
100
AcDbVertex
100
AcDb2dVertex
 10
17.18689235681439
 20
61.50632322681092
 30
0.0
  0
VERTEX
  5
3D7
330
3D5
100
AcDbEntity
  8
cuerpo
 62
     7
420
 16777215
370
    25
100
AcDbVertex
100
AcDb2dVertex
 10
25.13162705534904
 20
61.50632322681092
 30
0.0
  0
SEQEND
  5
3D8
330
3D5
100
AcDbEntity
  8
cuerpo
370
    25
  0
ENDBLK
  5
3D4
330
3D1
100
AcDbEntity
  8
0
100
AcDbBlockEnd
  0
BLOCK
  5
3DB
330
3D9
100
AcDbEntity
  8
0
100
AcDbBlockBegin
  2
block 105
 70
     0
 71
     0
 10
0.0
 20
0.0
 30
0.0
  3
block 105
  1

  0
POLYLINE
  5
3DD
330
3D9
100
AcDbEntity
  8
cuerpo
 62
     7
420
 16777215
370
    25
100
AcDb2dPolyline
 66
     1
 10
0.0
 20
0.0
 30
0.0
  0
VERTEX
  5
3DE
330
3DD
100
AcDbEntity
  8
cuerpo
 62
     7
420
 16777215
370
    25
100
AcDbVertex
100
AcDb2dVertex
 10
25.13162705534904
 20
41.64500324479708
 30
0.0
  0
VERTEX
  5
3DF
330
3DD
100
AcDbEntity
  8
cuerpo
 62
     7
420
 16777215
370
    25
100
AcDbVertex
100
AcDb2dVertex
 10
25.13162705534904
 20
61.50632322681092
 30
0.0
  0
SEQEND
  5
3E0
330
3DD
100
AcDbEntity
  8
cuerpo
370
    25
  0
ENDBLK
  5
3DC
330
3D9
100
AcDbEntity
  8
0
100
AcDbBlockEnd
  0
BLOCK
  5
3E3
330
3E1
100
AcDbEntity
  8
0
100
AcDbBlockBegin
  2
block 106
 70
     0
 71
     0
 10
0.0
 20
0.0
 30
0.0
  3
block 106
  1

  0
POLYLINE
  5
3E5
330
3E1
100
AcDbEntity
  8
cuerpo
 62
     7
420
 16777215
370
    25
100
AcDb2dPolyline
 66
     1
 10
0.0
 20
0.0
 30
0.0
  0
VERTEX
  5
3E6
330
3E5
100
AcDbEntity
  8
cuerpo
 62
     7
420
 16777215
370
    25
100
AcDbVertex
100
AcDb2dVertex
 10
17.18689235681439
 20
61.50632322681092
 30
0.0
  0
VERTEX
  5
3E7
330
3E5
100
AcDbEntity
  8
cuerpo
 62
     7
420
 16777215
370
    25
100
AcDbVertex
100
AcDb2dVertex
 10
17.18689235681439
 20
41.64500324479708
 30
0.0
  0
SEQEND
  5
3E8
330
3E5
100
AcDbEntity
  8
cuerpo
370
    25
  0
ENDBLK
  5
3E4
330
3E1
100
AcDbEntity
  8
0
100
AcDbBlockEnd
  0
BLOCK
  5
3EB
330
3E9
100
AcDbEntity
  8
0
100
AcDbBlockBegin
  2
block 107
 70
     0
 71
     0
 10
0.0
 20
0.0
 30
0.0
  3
block 107
  1

  0
POLYLINE
  5
3ED
330
3E9
100
AcDbEntity
  8
cuerpo
 62
     7
420
 16777215
370
    25
100
AcDb2dPolyline
 66
     1
 10
0.0
 20
0.0
 30
0.0
  0
VERTEX
  5
3EE
330
3ED
100
AcDbEntity
  8
cuerpo
 62
     7
420
 16777215
370
    25
100
AcDbVertex
100
AcDb2dVertex
 10
30.89148219713824
 20
50.28461370270663
 30
0.0
  0
VERTEX
  5
3EF
330
3ED
100
AcDbEntity
  8
cuerpo
 62
     7
420
 16777215
370
    25
100
AcDbVertex
100
AcDb2dVertex
 10
32.09433728581322
 20
50.37349716622607
 30
0.0
  0
SEQEND
  5
3F0
330
3ED
100
AcDbEntity
  8
cuerpo
370
    25
  0
ENDBLK
  5
3EC
330
3E9
100
AcDbEntity
  8
0
100
AcDbBlockEnd
  0
BLOCK
  5
3F3
330
3F1
100
AcDbEntity
  8
0
100
AcDbBlockBegin
  2
block 108
 70
     0
 71
     0
 10
0.0
 20
0.0
 30
0.0
  3
block 108
  1

  0
POLYLINE
  5
3F5
330
3F1
100
AcDbEntity
  8
cuerpo
 62
     7
420
 16777215
370
    25
100
AcDb2dPolyline
 66
     1
 10
0.0
 20
0.0
 30
0.0
  0
VERTEX
  5
3F6
330
3F5
100
AcDbEntity
  8
cuerpo
 62
     7
420
 16777215
370
    25
100
AcDbVertex
100
AcDb2dVertex
 10
32.41783175187818
 20
50.46651474432782
 30
0.0
  0
VERTEX
  5
3F7
330
3F5
100
AcDbEntity
  8
cuerpo
 62
     7
420
 16777215
370
    25
100
AcDbVertex
100
AcDb2dVertex
 10
32.35823159998336
 20
50.4399875090914
 30
0.0
  0
SEQEND
  5
3F8
330
3F5
100
AcDbEntity
  8
cuerpo
370
    25
  0
ENDBLK
  5
3F4
330
3F1
100
AcDbEntity
  8
0
100
AcDbBlockEnd
  0
BLOCK
  5
3FB
330
3F9
100
AcDbEntity
  8
0
100
AcDbBlockBegin
  2
block 109
 70
     0
 71
     0
 10
0.0
 20
0.0
 30
0.0
  3
block 109
  1

  0
SPLINE
  5
3FD
330
3F9
100
AcDbEntity
  8
cuerpo
 62
     7
420
 16777215
370
    25
100
AcDbSpline
210
0.0
220
0.0
230
1.0
 70
     8
 71
     3
 72
     8
 73
     4
 74
     0
 42
0.0000000001
 43
0.0000000001
 40
0.0
 40
0.0
 40
0.0
 40
0.0
 40
1.0
 40
1.0
 40
1.0
 40
1.0
 10
32.09433728581322
 20
50.37349716622607
 30
0.0
 10
32.18546006139808
 20
50.38038735719658
 30
0.0
 10
32.27468803446605
 20
50.4027804778507
 30
0.0
 10
32.35823159998336
 20
50.4399875090914
 30
0.0
  0
ENDBLK
  5
3FC
330
3F9
100
AcDbEntity
  8
0
100
AcDbBlockEnd
  0
BLOCK
  5
400
330
3FE
100
AcDbEntity
  8
0
100
AcDbBlockBegin
  2
block 110
 70
     0
 71
     0
 10
0.0
 20
0.0
 30
0.0
  3
block 110
  1

  0
POLYLINE
  5
402
330
3FE
100
AcDbEntity
  8
cuerpo
 62
     7
420
 16777215
370
    25
100
AcDb2dPolyline
 66
     1
 10
0.0
 20
0.0
 30
0.0
  0
VERTEX
  5
403
330
402
100
AcDbEntity
  8
cuerpo
 62
     7
420
 16777215
370
    25
100
AcDbVertex
100
AcDb2dVertex
 10
30.89148219713824
 20
56.24290634444622
 30
0.0
  0
VERTEX
  5
404
330
402
100
AcDbEntity
  8
cuerpo
 62
     7
420
 16777215
370
    25
100
AcDbVertex
100
AcDb2dVertex
 10
31.0900919518629
 20
56.22809243385964
 30
0.0
  0
SEQEND
  5
405
330
402
100
AcDbEntity
  8
cuerpo
370
    25
  0
ENDBLK
  5
401
330
3FE
100
AcDbEntity
  8
0
100
AcDbBlockEnd
  0
BLOCK
  5
408
330
406
100
AcDbEntity
  8
0
100
AcDbBlockBegin
  2
block 111
 70
     0
 71
     0
 10
0.0
 20
0.0
 30
0.0
  3
block 111
  1

  0
POLYLINE
  5
40A
330
406
100
AcDbEntity
  8
cuerpo
 62
     7
420
 16777215
370
    25
100
AcDb2dPolyline
 66
     1
 10
0.0
 20
0.0
 30
0.0
  0
VERTEX
  5
40B
330
40A
100
AcDbEntity
  8
cuerpo
 62
     7
420
 16777215
370
    25
100
AcDbVertex
100
AcDb2dVertex
 10
30.89148219713824
 20
56.24290634444622
 30
0.0
  0
VERTEX
  5
40C
330
40A
100
AcDbEntity
  8
cuerpo
 62
     7
420
 16777215
370
    25
100
AcDbVertex
100
AcDb2dVertex
 10
30.89148219713824
 20
50.28461370270663
 30
0.0
  0
SEQEND
  5
40D
330
40A
100
AcDbEntity
  8
cuerpo
370
    25
  0
ENDBLK
  5
409
330
406
100
AcDbEntity
  8
0
100
AcDbBlockEnd
  0
BLOCK
  5
410
330
40E
100
AcDbEntity
  8
0
100
AcDbBlockBegin
  2
block 112
 70
     0
 71
     0
 10
0.0
 20
0.0
 30
0.0
  3
block 112
  1

  0
POLYLINE
  5
412
330
40E
100
AcDbEntity
  8
cuerpo
 62
     7
420
 16777215
370
    25
100
AcDb2dPolyline
 66
     1
 10
0.0
 20
0.0
 30
0.0
  0
VERTEX
  5
413
330
412
100
AcDbEntity
  8
cuerpo
 62
     7
420
 16777215
370
    25
100
AcDbVertex
100
AcDb2dVertex
 10
37.96202391629075
 20
70.64237194414497
 30
0.0
  0
VERTEX
  5
414
330
412
100
AcDbEntity
  8
cuerpo
 62
     7
420
 16777215
370
    25
100
AcDbVertex
100
AcDb2dVertex
 10
38.75646293518936
 20
70.64237194414497
 30
0.0
  0
SEQEND
  5
415
330
412
100
AcDbEntity
  8
cuerpo
370
    25
  0
ENDBLK
  5
411
330
40E
100
AcDbEntity
  8
0
100
AcDbBlockEnd
  0
BLOCK
  5
418
330
416
100
AcDbEntity
  8
0
100
AcDbBlockBegin
  2
block 113
 70
     0
 71
     0
 10
0.0
 20
0.0
 30
0.0
  3
block 113
  1

  0
POLYLINE
  5
41A
330
416
100
AcDbEntity
  8
cuerpo
 62
     7
420
 16777215
370
    25
100
AcDb2dPolyline
 66
     1
 10
0.0
 20
0.0
 30
0.0
  0
VERTEX
  5
41B
330
41A
100
AcDbEntity
  8
cuerpo
 62
     7
420
 16777215
370
    25
100
AcDbVertex
100
AcDb2dVertex
 10
37.96202391629075
 20
56.73968911341925
 30
0.0
  0
VERTEX
  5
41C
330
41A
100
AcDbEntity
  8
cuerpo
 62
     7
420
 16777215
370
    25
100
AcDbVertex
100
AcDb2dVertex
 10
37.96202391629075
 20
70.64237194414497
 30
0.0
  0
SEQEND
  5
41D
330
41A
100
AcDbEntity
  8
cuerpo
370
    25
  0
ENDBLK
  5
419
330
416
100
AcDbEntity
  8
0
100
AcDbBlockEnd
  0
BLOCK
  5
420
330
41E
100
AcDbEntity
  8
0
100
AcDbBlockBegin
  2
block 114
 70
     0
 71
     0
 10
0.0
 20
0.0
 30
0.0
  3
block 114
  1

  0
POLYLINE
  5
422
330
41E
100
AcDbEntity
  8
cuerpo
 62
     7
420
 16777215
370
    25
100
AcDb2dPolyline
 66
     1
 10
0.0
 20
0.0
 30
0.0
  0
VERTEX
  5
423
330
422
100
AcDbEntity
  8
cuerpo
 62
     7
420
 16777215
370
    25
100
AcDbVertex
100
AcDb2dVertex
 10
31.0900919518629
 20
53.46236977830107
 30
0.0
  0
VERTEX
  5
424
330
422
100
AcDbEntity
  8
cuerpo
 62
     7
420
 16777215
370
    25
100
AcDbVertex
100
AcDb2dVertex
 10
31.0900919518629
 20
56.73968911341925
 30
0.0
  0
SEQEND
  5
425
330
422
100
AcDbEntity
  8
cuerpo
370
    25
  0
ENDBLK
  5
421
330
41E
100
AcDbEntity
  8
0
100
AcDbBlockEnd
  0
BLOCK
  5
428
330
426
100
AcDbEntity
  8
0
100
AcDbBlockBegin
  2
block 115
 70
     0
 71
     0
 10
0.0
 20
0.0
 30
0.0
  3
block 115
  1

  0
POLYLINE
  5
42A
330
426
100
AcDbEntity
  8
cuerpo
 62
     7
420
 16777215
370
    25
100
AcDb2dPolyline
 66
     1
 10
0.0
 20
0.0
 30
0.0
  0
VERTEX
  5
42B
330
42A
100
AcDbEntity
  8
cuerpo
 62
     7
420
 16777215
370
    25
100
AcDbVertex
100
AcDb2dVertex
 10
38.75646293518936
 20
49.78817544328213
 30
0.0
  0
VERTEX
  5
42C
330
42A
100
AcDbEntity
  8
cuerpo
 62
     7
420
 16777215
370
    25
100
AcDbVertex
100
AcDb2dVertex
 10
38.75646293518936
 20
70.64237194414497
 30
0.0
  0
SEQEND
  5
42D
330
42A
100
AcDbEntity
  8
cuerpo
370
    25
  0
ENDBLK
  5
429
330
426
100
AcDbEntity
  8
0
100
AcDbBlockEnd
  0
BLOCK
  5
430
330
42E
100
AcDbEntity
  8
0
100
AcDbBlockBegin
  2
block 116
 70
     0
 71
     0
 10
0.0
 20
0.0
 30
0.0
  3
block 116
  1

  0
POLYLINE
  5
432
330
42E
100
AcDbEntity
  8
cuerpo
 62
     7
420
 16777215
370
    25
100
AcDb2dPolyline
 66
     1
 10
0.0
 20
0.0
 30
0.0
  0
VERTEX
  5
433
330
432
100
AcDbEntity
  8
cuerpo
 62
     7
420
 16777215
370
    25
100
AcDbVertex
100
AcDb2dVertex
 10
31.0900919518629
 20
56.73968911341925
 30
0.0
  0
VERTEX
  5
434
330
432
100
AcDbEntity
  8
cuerpo
 62
     7
420
 16777215
370
    25
100
AcDbVertex
100
AcDb2dVertex
 10
38.75646293518936
 20
56.73968911341925
 30
0.0
  0
SEQEND
  5
435
330
432
100
AcDbEntity
  8
cuerpo
370
    25
  0
ENDBLK
  5
431
330
42E
100
AcDbEntity
  8
0
100
AcDbBlockEnd
  0
BLOCK
  5
438
330
436
100
AcDbEntity
  8
0
100
AcDbBlockBegin
  2
block 117
 70
     0
 71
     0
 10
0.0
 20
0.0
 30
0.0
  3
block 117
  1

  0
POLYLINE
  5
43A
330
436
100
AcDbEntity
  8
cuerpo
 62
     7
420
 16777215
370
    25
100
AcDb2dPolyline
 66
     1
 10
0.0
 20
0.0
 30
0.0
  0
VERTEX
  5
43B
330
43A
100
AcDbEntity
  8
cuerpo
 62
     7
420
 16777215
370
    25
100
AcDbVertex
100
AcDb2dVertex
 10
32.71876084251475
 20
49.78817544328213
 30
0.0
  0
VERTEX
  5
43C
330
43A
100
AcDbEntity
  8
cuerpo
 62
     7
420
 16777215
370
    25
100
AcDbVertex
100
AcDb2dVertex
 10
38.75646293518936
 20
49.78817544328213
 30
0.0
  0
SEQEND
  5
43D
330
43A
100
AcDbEntity
  8
cuerpo
370
    25
  0
ENDBLK
  5
439
330
436
100
AcDbEntity
  8
0
100
AcDbBlockEnd
  0
BLOCK
  5
440
330
43E
100
AcDbEntity
  8
0
100
AcDbBlockBegin
  2
block 118
 70
     0
 71
     0
 10
0.0
 20
0.0
 30
0.0
  3
block 118
  1

  0
POLYLINE
  5
442
330
43E
100
AcDbEntity
  8
cuerpo
 62
     7
420
 16777215
370
    25
100
AcDb2dPolyline
 66
     1
 10
0.0
 20
0.0
 30
0.0
  0
VERTEX
  5
443
330
442
100
AcDbEntity
  8
cuerpo
 62
     7
420
 16777215
370
    25
100
AcDbVertex
100
AcDb2dVertex
 10
31.0900919518629
 20
53.46236977830107
 30
0.0
  0
VERTEX
  5
444
330
442
100
AcDbEntity
  8
cuerpo
 62
     7
420
 16777215
370
    25
100
AcDbVertex
100
AcDb2dVertex
 10
32.71876084251475
 20
49.78817544328213
 30
0.0
  0
SEQEND
  5
445
330
442
100
AcDbEntity
  8
cuerpo
370
    25
  0
ENDBLK
  5
441
330
43E
100
AcDbEntity
  8
0
100
AcDbBlockEnd
  0
BLOCK
  5
448
330
446
100
AcDbEntity
  8
0
100
AcDbBlockBegin
  2
block 119
 70
     0
 71
     0
 10
0.0
 20
0.0
 30
0.0
  3
block 119
  1

  0
POLYLINE
  5
44A
330
446
100
AcDbEntity
  8
cuerpo
 62
     7
420
 16777215
370
    25
100
AcDb2dPolyline
 66
     1
 10
0.0
 20
0.0
 30
0.0
  0
VERTEX
  5
44B
330
44A
100
AcDbEntity
  8
cuerpo
 62
     7
420
 16777215
370
    25
100
AcDbVertex
100
AcDb2dVertex
 10
37.96202391629075
 20
49.78817544328213
 30
0.0
  0
VERTEX
  5
44C
330
44A
100
AcDbEntity
  8
cuerpo
 62
     7
420
 16777215
370
    25
100
AcDbVertex
100
AcDb2dVertex
 10
38.75646293518936
 20
49.78817544328213
 30
0.0
  0
SEQEND
  5
44D
330
44A
100
AcDbEntity
  8
cuerpo
370
    25
  0
ENDBLK
  5
449
330
446
100
AcDbEntity
  8
0
100
AcDbBlockEnd
  0
BLOCK
  5
450
330
44E
100
AcDbEntity
  8
0
100
AcDbBlockBegin
  2
block 120
 70
     0
 71
     0
 10
0.0
 20
0.0
 30
0.0
  3
block 120
  1

  0
POLYLINE
  5
452
330
44E
100
AcDbEntity
  8
cuerpo
 62
     7
420
 16777215
370
    25
100
AcDb2dPolyline
 66
     1
 10
0.0
 20
0.0
 30
0.0
  0
VERTEX
  5
453
330
452
100
AcDbEntity
  8
cuerpo
 62
     7
420
 16777215
370
    25
100
AcDbVertex
100
AcDb2dVertex
 10
38.75646293518936
 20
49.78817544328213
 30
0.0
  0
VERTEX
  5
454
330
452
100
AcDbEntity
  8
cuerpo
 62
     7
420
 16777215
370
    25
100
AcDbVertex
100
AcDb2dVertex
 10
38.75646293518936
 20
57.10521374440425
 30
0.0
  0
SEQEND
  5
455
330
452
100
AcDbEntity
  8
cuerpo
370
    25
  0
ENDBLK
  5
451
330
44E
100
AcDbEntity
  8
0
100
AcDbBlockEnd
  0
BLOCK
  5
458
330
456
100
AcDbEntity
  8
0
100
AcDbBlockBegin
  2
block 121
 70
     0
 71
     0
 10
0.0
 20
0.0
 30
0.0
  3
block 121
  1

  0
POLYLINE
  5
45A
330
456
100
AcDbEntity
  8
cuerpo
 62
     7
420
 16777215
370
    25
100
AcDb2dPolyline
 66
     1
 10
0.0
 20
0.0
 30
0.0
  0
VERTEX
  5
45B
330
45A
100
AcDbEntity
  8
cuerpo
 62
     7
420
 16777215
370
    25
100
AcDbVertex
100
AcDb2dVertex
 10
22.15230847970498
 20
61.50632322681092
 30
0.0
  0
VERTEX
  5
45C
330
45A
100
AcDbEntity
  8
cuerpo
 62
     7
420
 16777215
370
    25
100
AcDbVertex
100
AcDb2dVertex
 10
20.16621093245845
 20
61.50632322681092
 30
0.0
  0
SEQEND
  5
45D
330
45A
100
AcDbEntity
  8
cuerpo
370
    25
  0
ENDBLK
  5
459
330
456
100
AcDbEntity
  8
0
100
AcDbBlockEnd
  0
BLOCK
  5
460
330
45E
100
AcDbEntity
  8
0
100
AcDbBlockBegin
  2
block 122
 70
     0
 71
     0
 10
0.0
 20
0.0
 30
0.0
  3
block 122
  1

  0
POLYLINE
  5
462
330
45E
100
AcDbEntity
  8
cuerpo
 62
     7
420
 16777215
370
    25
100
AcDb2dPolyline
 66
     1
 10
0.0
 20
0.0
 30
0.0
  0
VERTEX
  5
463
330
462
100
AcDbEntity
  8
cuerpo
 62
     7
420
 16777215
370
    25
100
AcDbVertex
100
AcDb2dVertex
 10
22.15230847970498
 20
78.82929685529268
 30
0.0
  0
VERTEX
  5
464
330
462
100
AcDbEntity
  8
cuerpo
 62
     7
420
 16777215
370
    25
100
AcDbVertex
100
AcDb2dVertex
 10
22.15230847970498
 20
61.50632322681092
 30
0.0
  0
SEQEND
  5
465
330
462
100
AcDbEntity
  8
cuerpo
370
    25
  0
ENDBLK
  5
461
330
45E
100
AcDbEntity
  8
0
100
AcDbBlockEnd
  0
BLOCK
  5
468
330
466
100
AcDbEntity
  8
0
100
AcDbBlockBegin
  2
block 123
 70
     0
 71
     0
 10
0.0
 20
0.0
 30
0.0
  3
block 123
  1

  0
POLYLINE
  5
46A
330
466
100
AcDbEntity
  8
cuerpo
 62
     7
420
 16777215
370
    25
100
AcDb2dPolyline
 66
     1
 10
0.0
 20
0.0
 30
0.0
  0
VERTEX
  5
46B
330
46A
100
AcDbEntity
  8
cuerpo
 62
     7
420
 16777215
370
    25
100
AcDbVertex
100
AcDb2dVertex
 10
20.16621093245845
 20
78.82929685529268
 30
0.0
  0
VERTEX
  5
46C
330
46A
100
AcDbEntity
  8
cuerpo
 62
     7
420
 16777215
370
    25
100
AcDbVertex
100
AcDb2dVertex
 10
20.16621093245845
 20
61.50632322681092
 30
0.0
  0
SEQEND
  5
46D
330
46A
100
AcDbEntity
  8
cuerpo
370
    25
  0
ENDBLK
  5
469
330
466
100
AcDbEntity
  8
0
100
AcDbBlockEnd
  0
BLOCK
  5
470
330
46E
100
AcDbEntity
  8
0
100
AcDbBlockBegin
  2
block 124
 70
     0
 71
     0
 10
0.0
 20
0.0
 30
0.0
  3
block 124
  1

  0
SPLINE
  5
472
330
46E
100
AcDbEntity
  8
cuerpo
 62
     7
420
 16777215
370
    25
100
AcDbSpline
210
0.0
220
0.0
230
1.0
 70
     8
 71
     3
 72
     8
 73
     4
 74
     0
 42
0.0000000001
 43
0.0000000001
 40
0.0
 40
0.0
 40
0.0
 40
0.0
 40
1.0
 40
1.0
 40
1.0
 40
1.0
 10
27.11772460259557
 20
83.79436846863474
 30
0.0
 10
24.3754285963367
 20
83.79436846863474
 30
0.0
 10
22.15230847970498
 20
81.57124835200302
 30
0.0
 10
22.15230847970498
 20
78.82929685529268
 30
0.0
  0
ENDBLK
  5
471
330
46E
100
AcDbEntity
  8
0
100
AcDbBlockEnd
  0
BLOCK
  5
475
330
473
100
AcDbEntity
  8
0
100
AcDbBlockBegin
  2
block 125
 70
     0
 71
     0
 10
0.0
 20
0.0
 30
0.0
  3
block 125
  1

  0
SPLINE
  5
477
330
473
100
AcDbEntity
  8
cuerpo
 62
     7
420
 16777215
370
    25
100
AcDbSpline
210
0.0
220
0.0
230
1.0
 70
     8
 71
     3
 72
     8
 73
     4
 74
     0
 42
0.0000000001
 43
0.0000000001
 40
0.0
 40
0.0
 40
0.0
 40
0.0
 40
1.0
 40
1.0
 40
1.0
 40
1.0
 10
27.11772460259557
 20
85.78046601588127
 30
0.0
 10
23.27851019383315
 20
85.78046601588127
 30
0.0
 10
20.16621093245845
 20
82.66816675450657
 30
0.0
 10
20.16621093245845
 20
78.82929685529268
 30
0.0
  0
ENDBLK
  5
476
330
473
100
AcDbEntity
  8
0
100
AcDbBlockEnd
  0
BLOCK
  5
47A
330
478
100
AcDbEntity
  8
0
100
AcDbBlockBegin
  2
block 126
 70
     0
 71
     0
 10
0.0
 20
0.0
 30
0.0
  3
block 126
  1

  0
POLYLINE
  5
47C
330
478
100
AcDbEntity
  8
cuerpo
 62
     7
420
 16777215
370
    25
100
AcDb2dPolyline
 66
     1
 10
0.0
 20
0.0
 30
0.0
  0
VERTEX
  5
47D
330
47C
100
AcDbEntity
  8
cuerpo
 62
     7
420
 16777215
370
    25
100
AcDbVertex
100
AcDb2dVertex
 10
53.93073050952079
 20
83.79436846863474
 30
0.0
  0
VERTEX
  5
47E
330
47C
100
AcDbEntity
  8
cuerpo
 62
     7
420
 16777215
370
    25
100
AcDbVertex
100
AcDb2dVertex
 10
27.11772460259557
 20
83.79436846863474
 30
0.0
  0
SEQEND
  5
47F
330
47C
100
AcDbEntity
  8
cuerpo
370
    25
  0
ENDBLK
  5
47B
330
478
100
AcDbEntity
  8
0
100
AcDbBlockEnd
  0
BLOCK
  5
482
330
480
100
AcDbEntity
  8
0
100
AcDbBlockBegin
  2
block 127
 70
     0
 71
     0
 10
0.0
 20
0.0
 30
0.0
  3
block 127
  1

  0
POLYLINE
  5
484
330
480
100
AcDbEntity
  8
cuerpo
 62
     7
420
 16777215
370
    25
100
AcDb2dPolyline
 66
     1
 10
0.0
 20
0.0
 30
0.0
  0
VERTEX
  5
485
330
484
100
AcDbEntity
  8
cuerpo
 62
     7
420
 16777215
370
    25
100
AcDbVertex
100
AcDb2dVertex
 10
53.93073050952079
 20
85.78046601588127
 30
0.0
  0
VERTEX
  5
486
330
484
100
AcDbEntity
  8
cuerpo
 62
     7
420
 16777215
370
    25
100
AcDbVertex
100
AcDb2dVertex
 10
27.11772460259557
 20
85.78046601588127
 30
0.0
  0
SEQEND
  5
487
330
484
100
AcDbEntity
  8
cuerpo
370
    25
  0
ENDBLK
  5
483
330
480
100
AcDbEntity
  8
0
100
AcDbBlockEnd
  0
BLOCK
  5
48A
330
488
100
AcDbEntity
  8
0
100
AcDbBlockBegin
  2
block 128
 70
     0
 71
     0
 10
0.0
 20
0.0
 30
0.0
  3
block 128
  1

  0
POLYLINE
  5
48C
330
488
100
AcDbEntity
  8
cuerpo
 62
     7
420
 16777215
370
    25
100
AcDb2dPolyline
 66
     1
 10
0.0
 20
0.0
 30
0.0
  0
VERTEX
  5
48D
330
48C
100
AcDbEntity
  8
cuerpo
 62
     7
420
 16777215
370
    25
100
AcDbVertex
100
AcDb2dVertex
 10
53.93073050952079
 20
83.79436846863474
 30
0.0
  0
VERTEX
  5
48E
330
48C
100
AcDbEntity
  8
cuerpo
 62
     7
420
 16777215
370
    25
100
AcDbVertex
100
AcDb2dVertex
 10
53.93073050952079
 20
85.58168400638236
 30
0.0
  0
SEQEND
  5
48F
330
48C
100
AcDbEntity
  8
cuerpo
370
    25
  0
ENDBLK
  5
48B
330
488
100
AcDbEntity
  8
0
100
AcDbBlockEnd
  0
BLOCK
  5
492
330
490
100
AcDbEntity
  8
0
100
AcDbBlockBegin
  2
block 129
 70
     0
 71
     0
 10
0.0
 20
0.0
 30
0.0
  3
block 129
  1

  0
POLYLINE
  5
494
330
490
100
AcDbEntity
  8
cuerpo
 62
     7
420
 16777215
370
    25
100
AcDb2dPolyline
 66
     1
 10
0.0
 20
0.0
 30
0.0
  0
VERTEX
  5
495
330
494
100
AcDbEntity
  8
cuerpo
 62
     7
420
 16777215
370
    25
100
AcDbVertex
100
AcDb2dVertex
 10
53.93073050952079
 20
83.79436846863474
 30
0.0
  0
VERTEX
  5
496
330
494
100
AcDbEntity
  8
cuerpo
 62
     7
420
 16777215
370
    25
100
AcDbVertex
100
AcDb2dVertex
 10
53.93073050952079
 20
85.78046601588127
 30
0.0
  0
SEQEND
  5
497
330
494
100
AcDbEntity
  8
cuerpo
370
    25
  0
ENDBLK
  5
493
330
490
100
AcDbEntity
  8
0
100
AcDbBlockEnd
  0
BLOCK
  5
49A
330
498
100
AcDbEntity
  8
0
100
AcDbBlockBegin
  2
block 130
 70
     0
 71
     0
 10
0.0
 20
0.0
 30
0.0
  3
block 130
  1

  0
POLYLINE
  5
49C
330
498
100
AcDbEntity
  8
cuerpo
 62
     7
420
 16777215
370
    25
100
AcDb2dPolyline
 66
     1
 10
0.0
 20
0.0
 30
0.0
  0
VERTEX
  5
49D
330
49C
100
AcDbEntity
  8
cuerpo
 62
     7
420
 16777215
370
    25
100
AcDbVertex
100
AcDb2dVertex
 10
16.19401583796538
 20
37.83128254262552
 30
0.0
  0
VERTEX
  5
49E
330
49C
100
AcDbEntity
  8
cuerpo
 62
     7
420
 16777215
370
    25
100
AcDbVertex
100
AcDb2dVertex
 10
26.1246758289723
 20
37.83128254262552
 30
0.0
  0
SEQEND
  5
49F
330
49C
100
AcDbEntity
  8
cuerpo
370
    25
  0
ENDBLK
  5
49B
330
498
100
AcDbEntity
  8
0
100
AcDbBlockEnd
  0
BLOCK
  5
4A2
330
4A0
100
AcDbEntity
  8
0
100
AcDbBlockBegin
  2
block 131
 70
     0
 71
     0
 10
0.0
 20
0.0
 30
0.0
  3
block 131
  1

  0
POLYLINE
  5
4A4
330
4A0
100
AcDbEntity
  8
cuerpo
 62
     7
420
 16777215
370
    25
100
AcDb2dPolyline
 66
     1
 10
0.0
 20
0.0
 30
0.0
  0
VERTEX
  5
4A5
330
4A4
100
AcDbEntity
  8
cuerpo
 62
     7
420
 16777215
370
    25
100
AcDbVertex
100
AcDb2dVertex
 10
20.4392347496645
 20
31.56534287405311
 30
0.0
  0
VERTEX
  5
4A6
330
4A4
100
AcDbEntity
  8
cuerpo
 62
     7
420
 16777215
370
    25
100
AcDbVertex
100
AcDb2dVertex
 10
25.19277750021222
 20
32.83899467494997
 30
0.0
  0
SEQEND
  5
4A7
330
4A4
100
AcDbEntity
  8
cuerpo
370
    25
  0
ENDBLK
  5
4A3
330
4A0
100
AcDbEntity
  8
0
100
AcDbBlockEnd
  0
BLOCK
  5
4AA
330
4A8
100
AcDbEntity
  8
0
100
AcDbBlockBegin
  2
block 132
 70
     0
 71
     0
 10
0.0
 20
0.0
 30
0.0
  3
block 132
  1

  0
POLYLINE
  5
4AC
330
4A8
100
AcDbEntity
  8
cuerpo
 62
     7
420
 16777215
370
    25
100
AcDb2dPolyline
 66
     1
 10
0.0
 20
0.0
 30
0.0
  0
VERTEX
  5
4AD
330
4AC
100
AcDbEntity
  8
cuerpo
 62
     7
420
 16777215
370
    25
100
AcDbVertex
100
AcDb2dVertex
 10
21.33995496428307
 20
29.45487737978906
 30
0.0
  0
VERTEX
  5
4AE
330
4AC
100
AcDbEntity
  8
cuerpo
 62
     7
420
 16777215
370
    25
100
AcDbVertex
100
AcDb2dVertex
 10
21.33995496428307
 20
27.93455674214831
 30
0.0
  0
SEQEND
  5
4AF
330
4AC
100
AcDbEntity
  8
cuerpo
370
    25
  0
ENDBLK
  5
4AB
330
4A8
100
AcDbEntity
  8
0
100
AcDbBlockEnd
  0
BLOCK
  5
4B2
330
4B0
100
AcDbEntity
  8
0
100
AcDbBlockBegin
  2
block 133
 70
     0
 71
     0
 10
0.0
 20
0.0
 30
0.0
  3
block 133
  1

  0
POLYLINE
  5
4B4
330
4B0
100
AcDbEntity
  8
cuerpo
 62
     7
420
 16777215
370
    25
100
AcDb2dPolyline
 66
     1
 10
0.0
 20
0.0
 30
0.0
  0
VERTEX
  5
4B5
330
4B4
100
AcDbEntity
  8
cuerpo
 62
     7
420
 16777215
370
    25
100
AcDbVertex
100
AcDb2dVertex
 10
20.4392347496645
 20
29.21475422446715
 30
0.0
  0
VERTEX
  5
4B6
330
4B4
100
AcDbEntity
  8
cuerpo
 62
     7
420
 16777215
370
    25
100
AcDbVertex
100
AcDb2dVertex
 10
25.19277750021222
 20
30.48840602536401
 30
0.0
  0
SEQEND
  5
4B7
330
4B4
100
AcDbEntity
  8
cuerpo
370
    25
  0
ENDBLK
  5
4B3
330
4B0
100
AcDbEntity
  8
0
100
AcDbBlockEnd
  0
BLOCK
  5
4BA
330
4B8
100
AcDbEntity
  8
0
100
AcDbBlockBegin
  2
block 134
 70
     0
 71
     0
 10
0.0
 20
0.0
 30
0.0
  3
block 134
  1

  0
SPLINE
  5
4BC
330
4B8
100
AcDbEntity
  8
cuerpo
 62
     7
420
 16777215
370
    25
100
AcDbSpline
210
0.0
220
0.0
230
1.0
 70
     8
 71
     3
 72
    11
 73
     7
 74
     0
 42
0.0000000001
 43
0.0000000001
 40
0.0
 40
0.0
 40
0.0
 40
0.0
 40
1.0
 40
1.0
 40
1.0
 40
2.0
 40
2.0
 40
2.0
 40
2.0
 10
23.22132160877801
 20
24.65758191657866
 30
0.0
 10
23.39857177149411
 20
24.67101778897113
 30
0.0
 10
23.53155245722475
 20
24.82535806671033
 30
0.0
 10
23.51811658483228
 20
25.0027804842007
 30
0.0
 10
23.51501599889555
 20
25.04481064912074
 30
0.0
 10
23.50381943856849
 20
25.08511826629817
 30
0.0
 10
23.48521592294814
 20
25.12266980708739
 30
0.0
  0
ENDBLK
  5
4BB
330
4B8
100
AcDbEntity
  8
0
100
AcDbBlockEnd
  0
BLOCK
  5
4BF
330
4BD
100
AcDbEntity
  8
0
100
AcDbBlockBegin
  2
block 135
 70
     0
 71
     0
 10
0.0
 20
0.0
 30
0.0
  3
block 135
  1

  0
SPLINE
  5
4C1
330
4BD
100
AcDbEntity
  8
cuerpo
 62
     7
420
 16777215
370
    25
100
AcDbSpline
210
0.0
220
0.0
230
1.0
 70
     8
 71
     3
 72
    11
 73
     7
 74
     0
 42
0.0000000001
 43
0.0000000001
 40
0.0
 40
0.0
 40
0.0
 40
0.0
 40
1.0
 40
1.0
 40
1.0
 40
2.0
 40
2.0
 40
2.0
 40
2.0
 10
21.16976724731173
 20
25.12266980708739
 30
0.0
 10
21.09018554160246
 20
24.96350639566885
 30
0.0
 10
21.15478108195089
 20
24.77023653894633
 30
0.0
 10
21.31377223859517
 20
24.69065483323706
 30
0.0
 10
21.35115152461013
 20
24.67170680806819
 30
0.0
 10
21.39180365133608
 20
24.66068250251539
 30
0.0
 10
21.43366156148186
 20
24.65758191657866
 30
0.0
  0
ENDBLK
  5
4C0
330
4BD
100
AcDbEntity
  8
0
100
AcDbBlockEnd
  0
BLOCK
  5
4C4
330
4C2
100
AcDbEntity
  8
0
100
AcDbBlockBegin
  2
block 136
 70
     0
 71
     0
 10
0.0
 20
0.0
 30
0.0
  3
block 136
  1

  0
POLYLINE
  5
4C6
330
4C2
100
AcDbEntity
  8
cuerpo
 62
     7
420
 16777215
370
    25
100
AcDb2dPolyline
 66
     1
 10
0.0
 20
0.0
 30
0.0
  0
VERTEX
  5
4C7
330
4C6
100
AcDbEntity
  8
cuerpo
 62
     7
420
 16777215
370
    25
100
AcDbVertex
100
AcDb2dVertex
 10
23.32036810397894
 20
25.45202093547728
 30
0.0
  0
VERTEX
  5
4C8
330
4C6
100
AcDbEntity
  8
cuerpo
 62
     7
420
 16777215
370
    25
100
AcDbVertex
100
AcDb2dVertex
 10
23.32036810397894
 20
26.84211696377558
 30
0.0
  0
SEQEND
  5
4C9
330
4C6
100
AcDbEntity
  8
cuerpo
370
    25
  0
ENDBLK
  5
4C5
330
4C2
100
AcDbEntity
  8
0
100
AcDbBlockEnd
  0
BLOCK
  5
4CC
330
4CA
100
AcDbEntity
  8
0
100
AcDbBlockBegin
  2
block 137
 70
     0
 71
     0
 10
0.0
 20
0.0
 30
0.0
  3
block 137
  1

  0
POLYLINE
  5
4CE
330
4CA
100
AcDbEntity
  8
cuerpo
 62
     7
420
 16777215
370
    25
100
AcDb2dPolyline
 66
     1
 10
0.0
 20
0.0
 30
0.0
  0
VERTEX
  5
4CF
330
4CE
100
AcDbEntity
  8
cuerpo
 62
     7
420
 16777215
370
    25
100
AcDbVertex
100
AcDb2dVertex
 10
23.51915011347785
 20
27.6117512951804
 30
0.0
  0
VERTEX
  5
4D0
330
4CE
100
AcDbEntity
  8
cuerpo
 62
     7
420
 16777215
370
    25
100
AcDbVertex
100
AcDb2dVertex
 10
23.51915011347785
 20
27.93455674214831
 30
0.0
  0
SEQEND
  5
4D1
330
4CE
100
AcDbEntity
  8
cuerpo
370
    25
  0
ENDBLK
  5
4CD
330
4CA
100
AcDbEntity
  8
0
100
AcDbBlockEnd
  0
BLOCK
  5
4D4
330
4D2
100
AcDbEntity
  8
0
100
AcDbBlockBegin
  2
block 138
 70
     0
 71
     0
 10
0.0
 20
0.0
 30
0.0
  3
block 138
  1

  0
SPLINE
  5
4D6
330
4D2
100
AcDbEntity
  8
cuerpo
 62
     7
420
 16777215
370
    25
100
AcDbSpline
210
0.0
220
0.0
230
1.0
 70
     8
 71
     3
 72
     8
 73
     4
 74
     0
 42
0.0000000001
 43
0.0000000001
 40
0.0
 40
0.0
 40
0.0
 40
0.0
 40
1.0
 40
1.0
 40
1.0
 40
1.0
 10
23.32036810397894
 20
26.84211696377558
 30
0.0
 10
23.45076496809564
 20
27.07776149496667
 30
0.0
 10
23.51915011347785
 20
27.34234482823386
 30
0.0
 10
23.51915011347785
 20
27.6117512951804
 30
0.0
  0
ENDBLK
  5
4D5
330
4D2
100
AcDbEntity
  8
0
100
AcDbBlockEnd
  0
BLOCK
  5
4D9
330
4D7
100
AcDbEntity
  8
0
100
AcDbBlockBegin
  2
block 139
 70
     0
 71
     0
 10
0.0
 20
0.0
 30
0.0
  3
block 139
  1

  0
POLYLINE
  5
4DB
330
4D7
100
AcDbEntity
  8
cuerpo
 62
     7
420
 16777215
370
    25
100
AcDb2dPolyline
 66
     1
 10
0.0
 20
0.0
 30
0.0
  0
VERTEX
  5
4DC
330
4DB
100
AcDbEntity
  8
cuerpo
 62
     7
420
 16777215
370
    25
100
AcDbVertex
100
AcDb2dVertex
 10
23.32036810397894
 20
25.45202093547728
 30
0.0
  0
VERTEX
  5
4DD
330
4DB
100
AcDbEntity
  8
cuerpo
 62
     7
420
 16777215
370
    25
100
AcDbVertex
100
AcDb2dVertex
 10
23.48521592294814
 20
25.12266980708739
 30
0.0
  0
SEQEND
  5
4DE
330
4DB
100
AcDbEntity
  8
cuerpo
370
    25
  0
ENDBLK
  5
4DA
330
4D7
100
AcDbEntity
  8
0
100
AcDbBlockEnd
  0
BLOCK
  5
4E1
330
4DF
100
AcDbEntity
  8
0
100
AcDbBlockBegin
  2
block 140
 70
     0
 71
     0
 10
0.0
 20
0.0
 30
0.0
  3
block 140
  1

  0
POLYLINE
  5
4E3
330
4DF
100
AcDbEntity
  8
cuerpo
 62
     7
420
 16777215
370
    25
100
AcDb2dPolyline
 66
     1
 10
0.0
 20
0.0
 30
0.0
  0
VERTEX
  5
4E4
330
4E3
100
AcDbEntity
  8
cuerpo
 62
     7
420
 16777215
370
    25
100
AcDbVertex
100
AcDb2dVertex
 10
23.17153997901615
 20
25.45202093547728
 30
0.0
  0
VERTEX
  5
4E5
330
4E3
100
AcDbEntity
  8
cuerpo
 62
     7
420
 16777215
370
    25
100
AcDbVertex
100
AcDb2dVertex
 10
23.17153997901615
 20
26.84211696377558
 30
0.0
  0
SEQEND
  5
4E6
330
4E3
100
AcDbEntity
  8
cuerpo
370
    25
  0
ENDBLK
  5
4E2
330
4DF
100
AcDbEntity
  8
0
100
AcDbBlockEnd
  0
BLOCK
  5
4E9
330
4E7
100
AcDbEntity
  8
0
100
AcDbBlockBegin
  2
block 141
 70
     0
 71
     0
 10
0.0
 20
0.0
 30
0.0
  3
block 141
  1

  0
POLYLINE
  5
4EB
330
4E7
100
AcDbEntity
  8
cuerpo
 62
     7
420
 16777215
370
    25
100
AcDb2dPolyline
 66
     1
 10
0.0
 20
0.0
 30
0.0
  0
VERTEX
  5
4EC
330
4EB
100
AcDbEntity
  8
cuerpo
 62
     7
420
 16777215
370
    25
100
AcDbVertex
100
AcDb2dVertex
 10
22.57571071484218
 20
25.45202093547728
 30
0.0
  0
VERTEX
  5
4ED
330
4EB
100
AcDbEntity
  8
cuerpo
 62
     7
420
 16777215
370
    25
100
AcDbVertex
100
AcDb2dVertex
 10
22.57571071484218
 20
26.84211696377558
 30
0.0
  0
SEQEND
  5
4EE
330
4EB
100
AcDbEntity
  8
cuerpo
370
    25
  0
ENDBLK
  5
4EA
330
4E7
100
AcDbEntity
  8
0
100
AcDbBlockEnd
  0
BLOCK
  5
4F1
330
4EF
100
AcDbEntity
  8
0
100
AcDbBlockBegin
  2
block 142
 70
     0
 71
     0
 10
0.0
 20
0.0
 30
0.0
  3
block 142
  1

  0
POLYLINE
  5
4F3
330
4EF
100
AcDbEntity
  8
cuerpo
 62
     7
420
 16777215
370
    25
100
AcDb2dPolyline
 66
     1
 10
0.0
 20
0.0
 30
0.0
  0
VERTEX
  5
4F4
330
4F3
100
AcDbEntity
  8
cuerpo
 62
     7
420
 16777215
370
    25
100
AcDbVertex
100
AcDb2dVertex
 10
22.07910020064342
 20
25.45202093547728
 30
0.0
  0
VERTEX
  5
4F5
330
4F3
100
AcDbEntity
  8
cuerpo
 62
     7
420
 16777215
370
    25
100
AcDbVertex
100
AcDb2dVertex
 10
22.07910020064342
 20
26.84211696377558
 30
0.0
  0
SEQEND
  5
4F6
330
4F3
100
AcDbEntity
  8
cuerpo
370
    25
  0
ENDBLK
  5
4F2
330
4EF
100
AcDbEntity
  8
0
100
AcDbBlockEnd
  0
BLOCK
  5
4F9
330
4F7
100
AcDbEntity
  8
0
100
AcDbBlockBegin
  2
block 143
 70
     0
 71
     0
 10
0.0
 20
0.0
 30
0.0
  3
block 143
  1

  0
POLYLINE
  5
4FB
330
4F7
100
AcDbEntity
  8
cuerpo
 62
     7
420
 16777215
370
    25
100
AcDb2dPolyline
 66
     1
 10
0.0
 20
0.0
 30
0.0
  0
VERTEX
  5
4FC
330
4FB
100
AcDbEntity
  8
cuerpo
 62
     7
420
 16777215
370
    25
100
AcDbVertex
100
AcDb2dVertex
 10
22.82392984455443
 20
25.45202093547728
 30
0.0
  0
VERTEX
  5
4FD
330
4FB
100
AcDbEntity
  8
cuerpo
 62
     7
420
 16777215
370
    25
100
AcDbVertex
100
AcDb2dVertex
 10
22.82392984455443
 20
26.84211696377558
 30
0.0
  0
SEQEND
  5
4FE
330
4FB
100
AcDbEntity
  8
cuerpo
370
    25
  0
ENDBLK
  5
4FA
330
4F7
100
AcDbEntity
  8
0
100
AcDbBlockEnd
  0
BLOCK
  5
501
330
4FF
100
AcDbEntity
  8
0
100
AcDbBlockBegin
  2
block 144
 70
     0
 71
     0
 10
0.0
 20
0.0
 30
0.0
  3
block 144
  1

  0
SPLINE
  5
503
330
4FF
100
AcDbEntity
  8
cuerpo
 62
     7
420
 16777215
370
    25
100
AcDbSpline
210
0.0
220
0.0
230
1.0
 70
     8
 71
     3
 72
    11
 73
     7
 74
     0
 42
0.0000000001
 43
0.0000000001
 40
0.0
 40
0.0
 40
0.0
 40
0.0
 40
1.0
 40
1.0
 40
1.0
 40
2.0
 40
2.0
 40
2.0
 40
2.0
 10
22.07910020064342
 20
25.45202093547728
 30
0.0
 10
22.07910020064342
 20
25.31490613516433
 30
0.0
 10
22.19037678481699
 20
25.20362955099076
 30
0.0
 10
22.32749158512993
 20
25.20362955099076
 30
0.0
 10
22.46460638544288
 20
25.20362955099076
 30
0.0
 10
22.57571071484218
 20
25.31490613516433
 30
0.0
 10
22.57571071484218
 20
25.45202093547728
 30
0.0
  0
ENDBLK
  5
502
330
4FF
100
AcDbEntity
  8
0
100
AcDbBlockEnd
  0
BLOCK
  5
506
330
504
100
AcDbEntity
  8
0
100
AcDbBlockBegin
  2
block 145
 70
     0
 71
     0
 10
0.0
 20
0.0
 30
0.0
  3
block 145
  1

  0
SPLINE
  5
508
330
504
100
AcDbEntity
  8
cuerpo
 62
     7
420
 16777215
370
    25
100
AcDbSpline
210
0.0
220
0.0
230
1.0
 70
     8
 71
     3
 72
    11
 73
     7
 74
     0
 42
0.0000000001
 43
0.0000000001
 40
0.0
 40
0.0
 40
0.0
 40
0.0
 40
1.0
 40
1.0
 40
1.0
 40
2.0
 40
2.0
 40
2.0
 40
2.0
 10
22.57571071484218
 20
26.84211696377558
 30
0.0
 10
22.57571071484218
 20
26.97923176408853
 30
0.0
 10
22.46460638544288
 20
27.0905083482621
 30
0.0
 10
22.32749158512993
 20
27.0905083482621
 30
0.0
 10
22.19037678481699
 20
27.0905083482621
 30
0.0
 10
22.07910020064342
 20
26.97923176408853
 30
0.0
 10
22.07910020064342
 20
26.84211696377558
 30
0.0
  0
ENDBLK
  5
507
330
504
100
AcDbEntity
  8
0
100
AcDbBlockEnd
  0
BLOCK
  5
50B
330
509
100
AcDbEntity
  8
0
100
AcDbBlockBegin
  2
block 146
 70
     0
 71
     0
 10
0.0
 20
0.0
 30
0.0
  3
block 146
  1

  0
POLYLINE
  5
50D
330
509
100
AcDbEntity
  8
cuerpo
 62
     7
420
 16777215
370
    25
100
AcDb2dPolyline
 66
     1
 10
0.0
 20
0.0
 30
0.0
  0
VERTEX
  5
50E
330
50D
100
AcDbEntity
  8
cuerpo
 62
     7
420
 16777215
370
    25
100
AcDbVertex
100
AcDb2dVertex
 10
21.13583305678202
 20
27.6117512951804
 30
0.0
  0
VERTEX
  5
50F
330
50D
100
AcDbEntity
  8
cuerpo
 62
     7
420
 16777215
370
    25
100
AcDbVertex
100
AcDb2dVertex
 10
21.13583305678202
 20
27.93455674214831
 30
0.0
  0
SEQEND
  5
510
330
50D
100
AcDbEntity
  8
cuerpo
370
    25
  0
ENDBLK
  5
50C
330
509
100
AcDbEntity
  8
0
100
AcDbBlockEnd
  0
BLOCK
  5
513
330
511
100
AcDbEntity
  8
0
100
AcDbBlockBegin
  2
block 147
 70
     0
 71
     0
 10
0.0
 20
0.0
 30
0.0
  3
block 147
  1

  0
SPLINE
  5
515
330
511
100
AcDbEntity
  8
cuerpo
 62
     7
420
 16777215
370
    25
100
AcDbSpline
210
0.0
220
0.0
230
1.0
 70
     8
 71
     3
 72
     8
 73
     4
 74
     0
 42
0.0000000001
 43
0.0000000001
 40
0.0
 40
0.0
 40
0.0
 40
0.0
 40
1.0
 40
1.0
 40
1.0
 40
1.0
 10
21.13583305678202
 20
27.6117512951804
 30
0.0
 10
21.13583305678202
 20
27.34234482823386
 30
0.0
 10
21.20404594738996
 20
27.07776149496667
 30
0.0
 10
21.33427055673241
 20
26.84211696377558
 30
0.0
  0
ENDBLK
  5
514
330
511
100
AcDbEntity
  8
0
100
AcDbBlockEnd
  0
BLOCK
  5
518
330
516
100
AcDbEntity
  8
0
100
AcDbBlockBegin
  2
block 148
 70
     0
 71
     0
 10
0.0
 20
0.0
 30
0.0
  3
block 148
  1

  0
POLYLINE
  5
51A
330
516
100
AcDbEntity
  8
cuerpo
 62
     7
420
 16777215
370
    25
100
AcDb2dPolyline
 66
     1
 10
0.0
 20
0.0
 30
0.0
  0
VERTEX
  5
51B
330
51A
100
AcDbEntity
  8
cuerpo
 62
     7
420
 16777215
370
    25
100
AcDbVertex
100
AcDb2dVertex
 10
21.33427055673241
 20
25.45202093547728
 30
0.0
  0
VERTEX
  5
51C
330
51A
100
AcDbEntity
  8
cuerpo
 62
     7
420
 16777215
370
    25
100
AcDbVertex
100
AcDb2dVertex
 10
21.16976724731173
 20
25.12266980708739
 30
0.0
  0
SEQEND
  5
51D
330
51A
100
AcDbEntity
  8
cuerpo
370
    25
  0
ENDBLK
  5
519
330
516
100
AcDbEntity
  8
0
100
AcDbBlockEnd
  0
BLOCK
  5
520
330
51E
100
AcDbEntity
  8
0
100
AcDbBlockBegin
  2
block 149
 70
     0
 71
     0
 10
0.0
 20
0.0
 30
0.0
  3
block 149
  1

  0
POLYLINE
  5
522
330
51E
100
AcDbEntity
  8
cuerpo
 62
     7
420
 16777215
370
    25
100
AcDb2dPolyline
 66
     1
 10
0.0
 20
0.0
 30
0.0
  0
VERTEX
  5
523
330
522
100
AcDbEntity
  8
cuerpo
 62
     7
420
 16777215
370
    25
100
AcDbVertex
100
AcDb2dVertex
 10
21.48327093646946
 20
25.45202093547728
 30
0.0
  0
VERTEX
  5
524
330
522
100
AcDbEntity
  8
cuerpo
 62
     7
420
 16777215
370
    25
100
AcDbVertex
100
AcDb2dVertex
 10
21.48327093646946
 20
26.84211696377558
 30
0.0
  0
SEQEND
  5
525
330
522
100
AcDbEntity
  8
cuerpo
370
    25
  0
ENDBLK
  5
521
330
51E
100
AcDbEntity
  8
0
100
AcDbBlockEnd
  0
BLOCK
  5
528
330
526
100
AcDbEntity
  8
0
100
AcDbBlockBegin
  2
block 150
 70
     0
 71
     0
 10
0.0
 20
0.0
 30
0.0
  3
block 150
  1

  0
POLYLINE
  5
52A
330
526
100
AcDbEntity
  8
cuerpo
 62
     7
420
 16777215
370
    25
100
AcDb2dPolyline
 66
     1
 10
0.0
 20
0.0
 30
0.0
  0
VERTEX
  5
52B
330
52A
100
AcDbEntity
  8
cuerpo
 62
     7
420
 16777215
370
    25
100
AcDbVertex
100
AcDb2dVertex
 10
21.83070881615691
 20
25.45202093547728
 30
0.0
  0
VERTEX
  5
52C
330
52A
100
AcDbEntity
  8
cuerpo
 62
     7
420
 16777215
370
    25
100
AcDbVertex
100
AcDb2dVertex
 10
21.83070881615691
 20
26.84211696377558
 30
0.0
  0
SEQEND
  5
52D
330
52A
100
AcDbEntity
  8
cuerpo
370
    25
  0
ENDBLK
  5
529
330
526
100
AcDbEntity
  8
0
100
AcDbBlockEnd
  0
BLOCK
  5
530
330
52E
100
AcDbEntity
  8
0
100
AcDbBlockBegin
  2
block 151
 70
     0
 71
     0
 10
0.0
 20
0.0
 30
0.0
  3
block 151
  1

  0
POLYLINE
  5
532
330
52E
100
AcDbEntity
  8
cuerpo
 62
     7
420
 16777215
370
    25
100
AcDb2dPolyline
 66
     1
 10
0.0
 20
0.0
 30
0.0
  0
VERTEX
  5
533
330
532
100
AcDbEntity
  8
cuerpo
 62
     7
420
 16777215
370
    25
100
AcDbVertex
100
AcDb2dVertex
 10
21.33427055673241
 20
25.45202093547728
 30
0.0
  0
VERTEX
  5
534
330
532
100
AcDbEntity
  8
cuerpo
 62
     7
420
 16777215
370
    25
100
AcDbVertex
100
AcDb2dVertex
 10
21.33427055673241
 20
26.84211696377558
 30
0.0
  0
SEQEND
  5
535
330
532
100
AcDbEntity
  8
cuerpo
370
    25
  0
ENDBLK
  5
531
330
52E
100
AcDbEntity
  8
0
100
AcDbBlockEnd
  0
BLOCK
  5
538
330
536
100
AcDbEntity
  8
0
100
AcDbBlockBegin
  2
block 152
 70
     0
 71
     0
 10
0.0
 20
0.0
 30
0.0
  3
block 152
  1

  0
POLYLINE
  5
53A
330
536
100
AcDbEntity
  8
cuerpo
 62
     7
420
 16777215
370
    25
100
AcDb2dPolyline
 66
     1
 10
0.0
 20
0.0
 30
0.0
  0
VERTEX
  5
53B
330
53A
100
AcDbEntity
  8
cuerpo
 62
     7
420
 16777215
370
    25
100
AcDbVertex
100
AcDb2dVertex
 10
21.13583305678202
 20
27.93455674214831
 30
0.0
  0
VERTEX
  5
53C
330
53A
100
AcDbEntity
  8
cuerpo
 62
     7
420
 16777215
370
    25
100
AcDbVertex
100
AcDb2dVertex
 10
23.51915011347785
 20
27.93455674214831
 30
0.0
  0
SEQEND
  5
53D
330
53A
100
AcDbEntity
  8
cuerpo
370
    25
  0
ENDBLK
  5
539
330
536
100
AcDbEntity
  8
0
100
AcDbBlockEnd
  0
BLOCK
  5
540
330
53E
100
AcDbEntity
  8
0
100
AcDbBlockBegin
  2
block 153
 70
     0
 71
     0
 10
0.0
 20
0.0
 30
0.0
  3
block 153
  1

  0
POLYLINE
  5
542
330
53E
100
AcDbEntity
  8
cuerpo
 62
     7
420
 16777215
370
    25
100
AcDb2dPolyline
 66
     1
 10
0.0
 20
0.0
 30
0.0
  0
VERTEX
  5
543
330
542
100
AcDbEntity
  8
cuerpo
 62
     7
420
 16777215
370
    25
100
AcDbVertex
100
AcDb2dVertex
 10
19.90679524241914
 20
29.5726996453846
 30
0.0
  0
VERTEX
  5
544
330
542
100
AcDbEntity
  8
cuerpo
 62
     7
420
 16777215
370
    25
100
AcDbVertex
100
AcDb2dVertex
 10
19.2382744635064
 20
29.5726996453846
 30
0.0
  0
SEQEND
  5
545
330
542
100
AcDbEntity
  8
cuerpo
370
    25
  0
ENDBLK
  5
541
330
53E
100
AcDbEntity
  8
0
100
AcDbBlockEnd
  0
BLOCK
  5
548
330
546
100
AcDbEntity
  8
0
100
AcDbBlockBegin
  2
block 154
 70
     0
 71
     0
 10
0.0
 20
0.0
 30
0.0
  3
block 154
  1

  0
SPLINE
  5
54A
330
546
100
AcDbEntity
  8
cuerpo
 62
     7
420
 16777215
370
    25
100
AcDbSpline
210
0.0
220
0.0
230
1.0
 70
     8
 71
     3
 72
     8
 73
     4
 74
     0
 42
0.0000000001
 43
0.0000000001
 40
0.0
 40
0.0
 40
0.0
 40
0.0
 40
1.0
 40
1.0
 40
1.0
 40
1.0
 10
19.2382744635064
 20
29.14860839115035
 30
0.0
 10
19.51319308322934
 20
29.1837483650999
 30
0.0
 10
19.75813937223061
 20
29.33877766193614
 30
0.0
 10
19.90679524241914
 20
29.5726996453846
 30
0.0
  0
ENDBLK
  5
549
330
546
100
AcDbEntity
  8
0
100
AcDbBlockEnd
  0
BLOCK
  5
54D
330
54B
100
AcDbEntity
  8
0
100
AcDbBlockBegin
  2
block 155
 70
     0
 71
     0
 10
0.0
 20
0.0
 30
0.0
  3
block 155
  1

  0
POLYLINE
  5
54F
330
54B
100
AcDbEntity
  8
cuerpo
 62
     7
420
 16777215
370
    25
100
AcDb2dPolyline
 66
     1
 10
0.0
 20
0.0
 30
0.0
  0
VERTEX
  5
550
330
54F
100
AcDbEntity
  8
cuerpo
 62
     7
420
 16777215
370
    25
100
AcDbVertex
100
AcDb2dVertex
 10
19.00228542276679
 20
29.5726996453846
 30
0.0
  0
VERTEX
  5
551
330
54F
100
AcDbEntity
  8
cuerpo
 62
     7
420
 16777215
370
    25
100
AcDbVertex
100
AcDb2dVertex
 10
18.33393689862832
 20
29.5726996453846
 30
0.0
  0
SEQEND
  5
552
330
54F
100
AcDbEntity
  8
cuerpo
370
    25
  0
ENDBLK
  5
54E
330
54B
100
AcDbEntity
  8
0
100
AcDbBlockEnd
  0
BLOCK
  5
555
330
553
100
AcDbEntity
  8
0
100
AcDbBlockBegin
  2
block 156
 70
     0
 71
     0
 10
0.0
 20
0.0
 30
0.0
  3
block 156
  1

  0
POLYLINE
  5
557
330
553
100
AcDbEntity
  8
cuerpo
 62
     7
420
 16777215
370
    25
100
AcDb2dPolyline
 66
     1
 10
0.0
 20
0.0
 30
0.0
  0
VERTEX
  5
558
330
557
100
AcDbEntity
  8
cuerpo
 62
     7
420
 16777215
370
    25
100
AcDbVertex
100
AcDb2dVertex
 10
19.00228542276679
 20
29.73082952815757
 30
0.0
  0
VERTEX
  5
559
330
557
100
AcDbEntity
  8
cuerpo
 62
     7
420
 16777215
370
    25
100
AcDbVertex
100
AcDb2dVertex
 10
19.2382744635064
 20
29.73082952815757
 30
0.0
  0
SEQEND
  5
55A
330
557
100
AcDbEntity
  8
cuerpo
370
    25
  0
ENDBLK
  5
556
330
553
100
AcDbEntity
  8
0
100
AcDbBlockEnd
  0
BLOCK
  5
55D
330
55B
100
AcDbEntity
  8
0
100
AcDbBlockBegin
  2
block 157
 70
     0
 71
     0
 10
0.0
 20
0.0
 30
0.0
  3
block 157
  1

  0
POLYLINE
  5
55F
330
55B
100
AcDbEntity
  8
cuerpo
 62
     7
420
 16777215
370
    25
100
AcDb2dPolyline
 66
     1
 10
0.0
 20
0.0
 30
0.0
  0
VERTEX
  5
560
330
55F
100
AcDbEntity
  8
cuerpo
 62
     7
420
 16777215
370
    25
100
AcDbVertex
100
AcDb2dVertex
 10
19.2382744635064
 20
29.73082952815757
 30
0.0
  0
VERTEX
  5
561
330
55F
100
AcDbEntity
  8
cuerpo
 62
     7
420
 16777215
370
    25
100
AcDbVertex
100
AcDb2dVertex
 10
19.2382744635064
 20
29.14860839115035
 30
0.0
  0
SEQEND
  5
562
330
55F
100
AcDbEntity
  8
cuerpo
370
    25
  0
ENDBLK
  5
55E
330
55B
100
AcDbEntity
  8
0
100
AcDbBlockEnd
  0
BLOCK
  5
565
330
563
100
AcDbEntity
  8
0
100
AcDbBlockBegin
  2
block 158
 70
     0
 71
     0
 10
0.0
 20
0.0
 30
0.0
  3
block 158
  1

  0
POLYLINE
  5
567
330
563
100
AcDbEntity
  8
cuerpo
 62
     7
420
 16777215
370
    25
100
AcDb2dPolyline
 66
     1
 10
0.0
 20
0.0
 30
0.0
  0
VERTEX
  5
568
330
567
100
AcDbEntity
  8
cuerpo
 62
     7
420
 16777215
370
    25
100
AcDbVertex
100
AcDb2dVertex
 10
19.00228542276679
 20
29.73082952815757
 30
0.0
  0
VERTEX
  5
569
330
567
100
AcDbEntity
  8
cuerpo
 62
     7
420
 16777215
370
    25
100
AcDbVertex
100
AcDb2dVertex
 10
19.00228542276679
 20
29.14860839115035
 30
0.0
  0
SEQEND
  5
56A
330
567
100
AcDbEntity
  8
cuerpo
370
    25
  0
ENDBLK
  5
566
330
563
100
AcDbEntity
  8
0
100
AcDbBlockEnd
  0
BLOCK
  5
56D
330
56B
100
AcDbEntity
  8
0
100
AcDbBlockBegin
  2
block 159
 70
     0
 71
     0
 10
0.0
 20
0.0
 30
0.0
  3
block 159
  1

  0
SPLINE
  5
56F
330
56B
100
AcDbEntity
  8
cuerpo
 62
     7
420
 16777215
370
    25
100
AcDbSpline
210
0.0
220
0.0
230
1.0
 70
     8
 71
     3
 72
     8
 73
     4
 74
     0
 42
0.0000000001
 43
0.0000000001
 40
0.0
 40
0.0
 40
0.0
 40
0.0
 40
1.0
 40
1.0
 40
1.0
 40
1.0
 10
18.33393689862832
 20
29.5726996453846
 30
0.0
 10
18.48259276881685
 20
29.33877766193614
 30
0.0
 10
18.72771131259238
 20
29.1837483650999
 30
0.0
 10
19.00228542276679
 20
29.14860839115035
 30
0.0
  0
ENDBLK
  5
56E
330
56B
100
AcDbEntity
  8
0
100
AcDbBlockEnd
  0
BLOCK
  5
572
330
570
100
AcDbEntity
  8
0
100
AcDbBlockBegin
  2
block 160
 70
     0
 71
     0
 10
0.0
 20
0.0
 30
0.0
  3
block 160
  1

  0
POLYLINE
  5
574
330
570
100
AcDbEntity
  8
cuerpo
 62
     7
420
 16777215
370
    25
100
AcDb2dPolyline
 66
     1
 10
0.0
 20
0.0
 30
0.0
  0
VERTEX
  5
575
330
574
100
AcDbEntity
  8
cuerpo
 62
     7
420
 16777215
370
    25
100
AcDbVertex
100
AcDb2dVertex
 10
20.36912705653966
 20
34.86677787756803
 30
0.0
  0
VERTEX
  5
576
330
574
100
AcDbEntity
  8
cuerpo
 62
     7
420
 16777215
370
    25
100
AcDbVertex
100
AcDb2dVertex
 10
20.36912705653966
 20
32.11380207530488
 30
0.0
  0
SEQEND
  5
577
330
574
100
AcDbEntity
  8
cuerpo
370
    25
  0
ENDBLK
  5
573
330
570
100
AcDbEntity
  8
0
100
AcDbBlockEnd
  0
BLOCK
  5
57A
330
578
100
AcDbEntity
  8
0
100
AcDbBlockBegin
  2
block 161
 70
     0
 71
     0
 10
0.0
 20
0.0
 30
0.0
  3
block 161
  1

  0
POLYLINE
  5
57C
330
578
100
AcDbEntity
  8
cuerpo
 62
     7
420
 16777215
370
    25
100
AcDb2dPolyline
 66
     1
 10
0.0
 20
0.0
 30
0.0
  0
VERTEX
  5
57D
330
57C
100
AcDbEntity
  8
cuerpo
 62
     7
420
 16777215
370
    25
100
AcDbVertex
100
AcDb2dVertex
 10
18.49602864120933
 20
34.86677787756803
 30
0.0
  0
VERTEX
  5
57E
330
57C
100
AcDbEntity
  8
cuerpo
 62
     7
420
 16777215
370
    25
100
AcDbVertex
100
AcDb2dVertex
 10
18.49602864120933
 20
32.11380207530488
 30
0.0
  0
SEQEND
  5
57F
330
57C
100
AcDbEntity
  8
cuerpo
370
    25
  0
ENDBLK
  5
57B
330
578
100
AcDbEntity
  8
0
100
AcDbBlockEnd
  0
BLOCK
  5
582
330
580
100
AcDbEntity
  8
0
100
AcDbBlockBegin
  2
block 162
 70
     0
 71
     0
 10
0.0
 20
0.0
 30
0.0
  3
block 162
  1

  0
POLYLINE
  5
584
330
580
100
AcDbEntity
  8
cuerpo
 62
     7
420
 16777215
370
    25
100
AcDb2dPolyline
 66
     1
 10
0.0
 20
0.0
 30
0.0
  0
VERTEX
  5
585
330
584
100
AcDbEntity
  8
cuerpo
 62
     7
420
 16777215
370
    25
100
AcDbVertex
100
AcDb2dVertex
 10
17.8716050845078
 20
34.86677787756803
 30
0.0
  0
VERTEX
  5
586
330
584
100
AcDbEntity
  8
cuerpo
 62
     7
420
 16777215
370
    25
100
AcDbVertex
100
AcDb2dVertex
 10
17.8716050845078
 20
32.11380207530488
 30
0.0
  0
SEQEND
  5
587
330
584
100
AcDbEntity
  8
cuerpo
370
    25
  0
ENDBLK
  5
583
330
580
100
AcDbEntity
  8
0
100
AcDbBlockEnd
  0
BLOCK
  5
58A
330
588
100
AcDbEntity
  8
0
100
AcDbBlockBegin
  2
block 163
 70
     0
 71
     0
 10
0.0
 20
0.0
 30
0.0
  3
block 163
  1

  0
POLYLINE
  5
58C
330
588
100
AcDbEntity
  8
cuerpo
 62
     7
420
 16777215
370
    25
100
AcDb2dPolyline
 66
     1
 10
0.0
 20
0.0
 30
0.0
  0
VERTEX
  5
58D
330
58C
100
AcDbEntity
  8
cuerpo
 62
     7
420
 16777215
370
    25
100
AcDbVertex
100
AcDb2dVertex
 10
20.19893933956832
 20
32.01561685397527
 30
0.0
  0
VERTEX
  5
58E
330
58C
100
AcDbEntity
  8
cuerpo
 62
     7
420
 16777215
370
    25
100
AcDbVertex
100
AcDb2dVertex
 10
18.0419650562534
 20
32.01561685397527
 30
0.0
  0
SEQEND
  5
58F
330
58C
100
AcDbEntity
  8
cuerpo
370
    25
  0
ENDBLK
  5
58B
330
588
100
AcDbEntity
  8
0
100
AcDbBlockEnd
  0
BLOCK
  5
592
330
590
100
AcDbEntity
  8
0
100
AcDbBlockBegin
  2
block 164
 70
     0
 71
     0
 10
0.0
 20
0.0
 30
0.0
  3
block 164
  1

  0
SPLINE
  5
594
330
590
100
AcDbEntity
  8
cuerpo
 62
     7
420
 16777215
370
    25
100
AcDbSpline
210
0.0
220
0.0
230
1.0
 70
     8
 71
     3
 72
     8
 73
     4
 74
     0
 42
0.0000000001
 43
0.0000000001
 40
0.0
 40
0.0
 40
0.0
 40
0.0
 40
1.0
 40
1.0
 40
1.0
 40
1.0
 10
18.18338622592291
 20
32.01561685397527
 30
0.0
 10
18.29535182919352
 20
32.01561685397527
 30
0.0
 10
18.40438910130168
 20
32.04972329927924
 30
0.0
 10
18.49602864120933
 20
32.11380207530488
 30
0.0
  0
ENDBLK
  5
593
330
590
100
AcDbEntity
  8
0
100
AcDbBlockEnd
  0
BLOCK
  5
597
330
595
100
AcDbEntity
  8
0
100
AcDbBlockBegin
  2
block 165
 70
     0
 71
     0
 10
0.0
 20
0.0
 30
0.0
  3
block 165
  1

  0
POLYLINE
  5
599
330
595
100
AcDbEntity
  8
cuerpo
 62
     7
420
 16777215
370
    25
100
AcDb2dPolyline
 66
     1
 10
0.0
 20
0.0
 30
0.0
  0
VERTEX
  5
59A
330
599
100
AcDbEntity
  8
cuerpo
 62
     7
420
 16777215
370
    25
100
AcDbVertex
100
AcDb2dVertex
 10
17.8716050845078
 20
32.11380207530488
 30
0.0
  0
VERTEX
  5
59B
330
599
100
AcDbEntity
  8
cuerpo
 62
     7
420
 16777215
370
    25
100
AcDbVertex
100
AcDb2dVertex
 10
18.0419650562534
 20
32.01561685397527
 30
0.0
  0
SEQEND
  5
59C
330
599
100
AcDbEntity
  8
cuerpo
370
    25
  0
ENDBLK
  5
598
330
595
100
AcDbEntity
  8
0
100
AcDbBlockEnd
  0
BLOCK
  5
59F
330
59D
100
AcDbEntity
  8
0
100
AcDbBlockBegin
  2
block 166
 70
     0
 71
     0
 10
0.0
 20
0.0
 30
0.0
  3
block 166
  1

  0
POLYLINE
  5
5A1
330
59D
100
AcDbEntity
  8
cuerpo
 62
     7
420
 16777215
370
    25
100
AcDb2dPolyline
 66
     1
 10
0.0
 20
0.0
 30
0.0
  0
VERTEX
  5
5A2
330
5A1
100
AcDbEntity
  8
cuerpo
 62
     7
420
 16777215
370
    25
100
AcDbVertex
100
AcDb2dVertex
 10
20.36912705653966
 20
32.11380207530488
 30
0.0
  0
VERTEX
  5
5A3
330
5A1
100
AcDbEntity
  8
cuerpo
 62
     7
420
 16777215
370
    25
100
AcDbVertex
100
AcDb2dVertex
 10
20.19893933956832
 20
32.01561685397527
 30
0.0
  0
SEQEND
  5
5A4
330
5A1
100
AcDbEntity
  8
cuerpo
370
    25
  0
ENDBLK
  5
5A0
330
59D
100
AcDbEntity
  8
0
100
AcDbBlockEnd
  0
BLOCK
  5
5A7
330
5A5
100
AcDbEntity
  8
0
100
AcDbBlockBegin
  2
block 167
 70
     0
 71
     0
 10
0.0
 20
0.0
 30
0.0
  3
block 167
  1

  0
POLYLINE
  5
5A9
330
5A5
100
AcDbEntity
  8
cuerpo
 62
     7
420
 16777215
370
    25
100
AcDb2dPolyline
 66
     1
 10
0.0
 20
0.0
 30
0.0
  0
VERTEX
  5
5AA
330
5A9
100
AcDbEntity
  8
cuerpo
 62
     7
420
 16777215
370
    25
100
AcDbVertex
100
AcDb2dVertex
 10
17.8716050845078
 20
34.86677787756803
 30
0.0
  0
VERTEX
  5
5AB
330
5A9
100
AcDbEntity
  8
cuerpo
 62
     7
420
 16777215
370
    25
100
AcDbVertex
100
AcDb2dVertex
 10
18.0419650562534
 20
34.96496309889765
 30
0.0
  0
SEQEND
  5
5AC
330
5A9
100
AcDbEntity
  8
cuerpo
370
    25
  0
ENDBLK
  5
5A8
330
5A5
100
AcDbEntity
  8
0
100
AcDbBlockEnd
  0
BLOCK
  5
5AF
330
5AD
100
AcDbEntity
  8
0
100
AcDbBlockBegin
  2
block 168
 70
     0
 71
     0
 10
0.0
 20
0.0
 30
0.0
  3
block 168
  1

  0
SPLINE
  5
5B1
330
5AD
100
AcDbEntity
  8
cuerpo
 62
     7
420
 16777215
370
    25
100
AcDbSpline
210
0.0
220
0.0
230
1.0
 70
     8
 71
     3
 72
     8
 73
     4
 74
     0
 42
0.0000000001
 43
0.0000000001
 40
0.0
 40
0.0
 40
0.0
 40
0.0
 40
1.0
 40
1.0
 40
1.0
 40
1.0
 10
18.49602864120933
 20
34.86677787756803
 30
0.0
 10
18.40438910130168
 20
34.93051214404515
 30
0.0
 10
18.29535182919352
 20
34.96530760844617
 30
0.0
 10
18.18338622592291
 20
34.96496309889765
 30
0.0
  0
ENDBLK
  5
5B0
330
5AD
100
AcDbEntity
  8
0
100
AcDbBlockEnd
  0
BLOCK
  5
5B4
330
5B2
100
AcDbEntity
  8
0
100
AcDbBlockBegin
  2
block 169
 70
     0
 71
     0
 10
0.0
 20
0.0
 30
0.0
  3
block 169
  1

  0
POLYLINE
  5
5B6
330
5B2
100
AcDbEntity
  8
cuerpo
 62
     7
420
 16777215
370
    25
100
AcDb2dPolyline
 66
     1
 10
0.0
 20
0.0
 30
0.0
  0
VERTEX
  5
5B7
330
5B6
100
AcDbEntity
  8
cuerpo
 62
     7
420
 16777215
370
    25
100
AcDbVertex
100
AcDb2dVertex
 10
26.18927136932074
 20
37.24113768600222
 30
0.0
  0
VERTEX
  5
5B8
330
5B6
100
AcDbEntity
  8
cuerpo
 62
     7
420
 16777215
370
    25
100
AcDbVertex
100
AcDb2dVertex
 10
26.18927136932074
 20
37.83128254262552
 30
0.0
  0
SEQEND
  5
5B9
330
5B6
100
AcDbEntity
  8
cuerpo
370
    25
  0
ENDBLK
  5
5B5
330
5B2
100
AcDbEntity
  8
0
100
AcDbBlockEnd
  0
BLOCK
  5
5BC
330
5BA
100
AcDbEntity
  8
0
100
AcDbBlockBegin
  2
block 170
 70
     0
 71
     0
 10
0.0
 20
0.0
 30
0.0
  3
block 170
  1

  0
POLYLINE
  5
5BE
330
5BA
100
AcDbEntity
  8
cuerpo
 62
     7
420
 16777215
370
    25
100
AcDb2dPolyline
 66
     1
 10
0.0
 20
0.0
 30
0.0
  0
VERTEX
  5
5BF
330
5BE
100
AcDbEntity
  8
cuerpo
 62
     7
420
 16777215
370
    25
100
AcDbVertex
100
AcDb2dVertex
 10
22.38244085811967
 20
34.96496309889765
 30
0.0
  0
VERTEX
  5
5C0
330
5BE
100
AcDbEntity
  8
cuerpo
 62
     7
420
 16777215
370
    25
100
AcDbVertex
100
AcDb2dVertex
 10
25.34694552317715
 20
34.96496309889765
 30
0.0
  0
SEQEND
  5
5C1
330
5BE
100
AcDbEntity
  8
cuerpo
370
    25
  0
ENDBLK
  5
5BD
330
5BA
100
AcDbEntity
  8
0
100
AcDbBlockEnd
  0
BLOCK
  5
5C4
330
5C2
100
AcDbEntity
  8
0
100
AcDbBlockBegin
  2
block 171
 70
     0
 71
     0
 10
0.0
 20
0.0
 30
0.0
  3
block 171
  1

  0
POLYLINE
  5
5C6
330
5C2
100
AcDbEntity
  8
cuerpo
 62
     7
420
 16777215
370
    25
100
AcDb2dPolyline
 66
     1
 10
0.0
 20
0.0
 30
0.0
  0
VERTEX
  5
5C7
330
5C6
100
AcDbEntity
  8
cuerpo
 62
     7
420
 16777215
370
    25
100
AcDbVertex
100
AcDb2dVertex
 10
16.12924804284269
 20
37.24113768600222
 30
0.0
  0
VERTEX
  5
5C8
330
5C6
100
AcDbEntity
  8
cuerpo
 62
     7
420
 16777215
370
    25
100
AcDbVertex
100
AcDb2dVertex
 10
26.18927136932074
 20
37.24113768600222
 30
0.0
  0
SEQEND
  5
5C9
330
5C6
100
AcDbEntity
  8
cuerpo
370
    25
  0
ENDBLK
  5
5C5
330
5C2
100
AcDbEntity
  8
0
100
AcDbBlockEnd
  0
BLOCK
  5
5CC
330
5CA
100
AcDbEntity
  8
0
100
AcDbBlockBegin
  2
block 172
 70
     0
 71
     0
 10
0.0
 20
0.0
 30
0.0
  3
block 172
  1

  0
SPLINE
  5
5CE
330
5CA
100
AcDbEntity
  8
cuerpo
 62
     7
420
 16777215
370
    25
100
AcDbSpline
210
0.0
220
0.0
230
1.0
 70
     8
 71
     3
 72
     8
 73
     4
 74
     0
 42
0.0000000001
 43
0.0000000001
 40
0.0
 40
0.0
 40
0.0
 40
0.0
 40
1.0
 40
1.0
 40
1.0
 40
1.0
 10
19.7347127229309
 20
34.86987846350475
 30
0.0
 10
19.33146429638241
 20
34.99665797736195
 30
0.0
 10
18.89876030343503
 20
34.99527993916785
 30
0.0
 10
18.49602864120933
 20
34.86677787756803
 30
0.0
  0
ENDBLK
  5
5CD
330
5CA
100
AcDbEntity
  8
0
100
AcDbBlockEnd
  0
BLOCK
  5
5D1
330
5CF
100
AcDbEntity
  8
0
100
AcDbBlockBegin
  2
block 173
 70
     0
 71
     0
 10
0.0
 20
0.0
 30
0.0
  3
block 173
  1

  0
SPLINE
  5
5D3
330
5CF
100
AcDbEntity
  8
cuerpo
 62
     7
420
 16777215
370
    25
100
AcDbSpline
210
0.0
220
0.0
230
1.0
 70
     8
 71
     3
 72
     8
 73
     4
 74
     0
 42
0.0000000001
 43
0.0000000001
 40
0.0
 40
0.0
 40
0.0
 40
0.0
 40
1.0
 40
1.0
 40
1.0
 40
1.0
 10
18.49602864120933
 20
32.11380207530488
 30
0.0
 10
18.90203314414602
 20
31.98357746596244
 30
0.0
 10
19.33869899690144
 20
31.98357746596244
 30
0.0
 10
19.74470349983813
 20
32.11380207530488
 30
0.0
  0
ENDBLK
  5
5D2
330
5CF
100
AcDbEntity
  8
0
100
AcDbBlockEnd
  0
BLOCK
  5
5D6
330
5D4
100
AcDbEntity
  8
0
100
AcDbBlockBegin
  2
block 174
 70
     0
 71
     0
 10
0.0
 20
0.0
 30
0.0
  3
block 174
  1

  0
SPLINE
  5
5D8
330
5D4
100
AcDbEntity
  8
cuerpo
 62
     7
420
 16777215
370
    25
100
AcDbSpline
210
0.0
220
0.0
230
1.0
 70
     8
 71
     3
 72
     8
 73
     4
 74
     0
 42
0.0000000001
 43
0.0000000001
 40
0.0
 40
0.0
 40
0.0
 40
0.0
 40
1.0
 40
1.0
 40
1.0
 40
1.0
 10
19.74470349983813
 20
32.11380207530488
 30
0.0
 10
19.83651529452004
 20
32.04972329927924
 30
0.0
 10
19.9455525666282
 20
32.01561685397527
 30
0.0
 10
20.05734591512455
 20
32.01561685397527
 30
0.0
  0
ENDBLK
  5
5D7
330
5D4
100
AcDbEntity
  8
0
100
AcDbBlockEnd
  0
BLOCK
  5
5DB
330
5D9
100
AcDbEntity
  8
0
100
AcDbBlockBegin
  2
block 175
 70
     0
 71
     0
 10
0.0
 20
0.0
 30
0.0
  3
block 175
  1

  0
POLYLINE
  5
5DD
330
5D9
100
AcDbEntity
  8
cuerpo
 62
     7
420
 16777215
370
    25
100
AcDb2dPolyline
 66
     1
 10
0.0
 20
0.0
 30
0.0
  0
VERTEX
  5
5DE
330
5DD
100
AcDbEntity
  8
cuerpo
 62
     7
420
 16777215
370
    25
100
AcDbVertex
100
AcDb2dVertex
 10
19.74470349983813
 20
34.85575357201523
 30
0.0
  0
VERTEX
  5
5DF
330
5DD
100
AcDbEntity
  8
cuerpo
 62
     7
420
 16777215
370
    25
100
AcDbVertex
100
AcDb2dVertex
 10
19.74470349983813
 20
32.11380207530488
 30
0.0
  0
SEQEND
  5
5E0
330
5DD
100
AcDbEntity
  8
cuerpo
370
    25
  0
ENDBLK
  5
5DC
330
5D9
100
AcDbEntity
  8
0
100
AcDbBlockEnd
  0
BLOCK
  5
5E3
330
5E1
100
AcDbEntity
  8
0
100
AcDbBlockBegin
  2
block 176
 70
     0
 71
     0
 10
0.0
 20
0.0
 30
0.0
  3
block 176
  1

  0
POLYLINE
  5
5E5
330
5E1
100
AcDbEntity
  8
cuerpo
 62
     7
420
 16777215
370
    25
100
AcDb2dPolyline
 66
     1
 10
0.0
 20
0.0
 30
0.0
  0
VERTEX
  5
5E6
330
5E5
100
AcDbEntity
  8
cuerpo
 62
     7
420
 16777215
370
    25
100
AcDbVertex
100
AcDb2dVertex
 10
20.36912705653966
 20
34.86677787756803
 30
0.0
  0
VERTEX
  5
5E7
330
5E5
100
AcDbEntity
  8
cuerpo
 62
     7
420
 16777215
370
    25
100
AcDbVertex
100
AcDb2dVertex
 10
20.19893933956832
 20
34.96496309889765
 30
0.0
  0
SEQEND
  5
5E8
330
5E5
100
AcDbEntity
  8
cuerpo
370
    25
  0
ENDBLK
  5
5E4
330
5E1
100
AcDbEntity
  8
0
100
AcDbBlockEnd
  0
BLOCK
  5
5EB
330
5E9
100
AcDbEntity
  8
0
100
AcDbBlockBegin
  2
block 177
 70
     0
 71
     0
 10
0.0
 20
0.0
 30
0.0
  3
block 177
  1

  0
SPLINE
  5
5ED
330
5E9
100
AcDbEntity
  8
cuerpo
 62
     7
420
 16777215
370
    25
100
AcDbSpline
210
0.0
220
0.0
230
1.0
 70
     8
 71
     3
 72
     8
 73
     4
 74
     0
 42
0.0000000001
 43
0.0000000001
 40
0.0
 40
0.0
 40
0.0
 40
0.0
 40
1.0
 40
1.0
 40
1.0
 40
1.0
 10
20.05734591512455
 20
34.96496309889765
 30
0.0
 10
19.9455525666282
 20
34.96530760844617
 30
0.0
 10
19.83651529452004
 20
34.93051214404515
 30
0.0
 10
19.74470349983813
 20
34.86677787756803
 30
0.0
  0
ENDBLK
  5
5EC
330
5E9
100
AcDbEntity
  8
0
100
AcDbBlockEnd
  0
BLOCK
  5
5F0
330
5EE
100
AcDbEntity
  8
0
100
AcDbBlockBegin
  2
block 178
 70
     0
 71
     0
 10
0.0
 20
0.0
 30
0.0
  3
block 178
  1

  0
POLYLINE
  5
5F2
330
5EE
100
AcDbEntity
  8
cuerpo
 62
     7
420
 16777215
370
    25
100
AcDb2dPolyline
 66
     1
 10
0.0
 20
0.0
 30
0.0
  0
VERTEX
  5
5F3
330
5F2
100
AcDbEntity
  8
cuerpo
 62
     7
420
 16777215
370
    25
100
AcDbVertex
100
AcDb2dVertex
 10
16.12924804284269
 20
37.24113768600222
 30
0.0
  0
VERTEX
  5
5F4
330
5F2
100
AcDbEntity
  8
cuerpo
 62
     7
420
 16777215
370
    25
100
AcDbVertex
100
AcDb2dVertex
 10
16.12924804284269
 20
37.83128254262552
 30
0.0
  0
SEQEND
  5
5F5
330
5F2
100
AcDbEntity
  8
cuerpo
370
    25
  0
ENDBLK
  5
5F1
330
5EE
100
AcDbEntity
  8
0
100
AcDbBlockEnd
  0
BLOCK
  5
5F8
330
5F6
100
AcDbEntity
  8
0
100
AcDbBlockBegin
  2
block 179
 70
     0
 71
     0
 10
0.0
 20
0.0
 30
0.0
  3
block 179
  1

  0
POLYLINE
  5
5FA
330
5F6
100
AcDbEntity
  8
cuerpo
 62
     7
420
 16777215
370
    25
100
AcDb2dPolyline
 66
     1
 10
0.0
 20
0.0
 30
0.0
  0
VERTEX
  5
5FB
330
5FA
100
AcDbEntity
  8
cuerpo
 62
     7
420
 16777215
370
    25
100
AcDbVertex
100
AcDb2dVertex
 10
16.12924804284269
 20
37.83128254262552
 30
0.0
  0
VERTEX
  5
5FC
330
5FA
100
AcDbEntity
  8
cuerpo
 62
     7
420
 16777215
370
    25
100
AcDbVertex
100
AcDb2dVertex
 10
26.18927136932074
 20
37.83128254262552
 30
0.0
  0
SEQEND
  5
5FD
330
5FA
100
AcDbEntity
  8
cuerpo
370
    25
  0
ENDBLK
  5
5F9
330
5F6
100
AcDbEntity
  8
0
100
AcDbBlockEnd
  0
BLOCK
  5
600
330
5FE
100
AcDbEntity
  8
0
100
AcDbBlockBegin
  2
block 180
 70
     0
 71
     0
 10
0.0
 20
0.0
 30
0.0
  3
block 180
  1

  0
POLYLINE
  5
602
330
5FE
100
AcDbEntity
  8
cuerpo
 62
     7
420
 16777215
370
    25
100
AcDb2dPolyline
 66
     1
 10
0.0
 20
0.0
 30
0.0
  0
VERTEX
  5
603
330
602
100
AcDbEntity
  8
cuerpo
 62
     7
420
 16777215
370
    25
100
AcDbVertex
100
AcDb2dVertex
 10
23.276443136542
 20
36.15076496492065
 30
0.0
  0
VERTEX
  5
604
330
602
100
AcDbEntity
  8
cuerpo
 62
     7
420
 16777215
370
    25
100
AcDbVertex
100
AcDb2dVertex
 10
23.276443136542
 20
34.96496309889765
 30
0.0
  0
SEQEND
  5
605
330
602
100
AcDbEntity
  8
cuerpo
370
    25
  0
ENDBLK
  5
601
330
5FE
100
AcDbEntity
  8
0
100
AcDbBlockEnd
  0
BLOCK
  5
608
330
606
100
AcDbEntity
  8
0
100
AcDbBlockBegin
  2
block 181
 70
     0
 71
     0
 10
0.0
 20
0.0
 30
0.0
  3
block 181
  1

  0
POLYLINE
  5
60A
330
606
100
AcDbEntity
  8
cuerpo
 62
     7
420
 16777215
370
    25
100
AcDb2dPolyline
 66
     1
 10
0.0
 20
0.0
 30
0.0
  0
VERTEX
  5
60B
330
60A
100
AcDbEntity
  8
cuerpo
 62
     7
420
 16777215
370
    25
100
AcDbVertex
100
AcDb2dVertex
 10
22.38244085811967
 20
34.96496309889765
 30
0.0
  0
VERTEX
  5
60C
330
60A
100
AcDbEntity
  8
cuerpo
 62
     7
420
 16777215
370
    25
100
AcDbVertex
100
AcDb2dVertex
 10
17.01153699661517
 20
34.96496309889765
 30
0.0
  0
SEQEND
  5
60D
330
60A
100
AcDbEntity
  8
cuerpo
370
    25
  0
ENDBLK
  5
609
330
606
100
AcDbEntity
  8
0
100
AcDbBlockEnd
  0
BLOCK
  5
610
330
60E
100
AcDbEntity
  8
0
100
AcDbBlockBegin
  2
block 182
 70
     0
 71
     0
 10
0.0
 20
0.0
 30
0.0
  3
block 182
  1

  0
POLYLINE
  5
612
330
60E
100
AcDbEntity
  8
cuerpo
 62
     7
420
 16777215
370
    25
100
AcDb2dPolyline
 66
     1
 10
0.0
 20
0.0
 30
0.0
  0
VERTEX
  5
613
330
612
100
AcDbEntity
  8
cuerpo
 62
     7
420
 16777215
370
    25
100
AcDbVertex
100
AcDb2dVertex
 10
16.82309027357201
 20
36.15076496492065
 30
0.0
  0
VERTEX
  5
614
330
612
100
AcDbEntity
  8
cuerpo
 62
     7
420
 16777215
370
    25
100
AcDbVertex
100
AcDb2dVertex
 10
17.01153699661517
 20
34.96496309889765
 30
0.0
  0
SEQEND
  5
615
330
612
100
AcDbEntity
  8
cuerpo
370
    25
  0
ENDBLK
  5
611
330
60E
100
AcDbEntity
  8
0
100
AcDbBlockEnd
  0
BLOCK
  5
618
330
616
100
AcDbEntity
  8
0
100
AcDbBlockBegin
  2
block 183
 70
     0
 71
     0
 10
0.0
 20
0.0
 30
0.0
  3
block 183
  1

  0
POLYLINE
  5
61A
330
616
100
AcDbEntity
  8
cuerpo
 62
     7
420
 16777215
370
    25
100
AcDb2dPolyline
 66
     1
 10
0.0
 20
0.0
 30
0.0
  0
VERTEX
  5
61B
330
61A
100
AcDbEntity
  8
cuerpo
 62
     7
420
 16777215
370
    25
100
AcDbVertex
100
AcDb2dVertex
 10
17.85627440959843
 20
36.15076496492065
 30
0.0
  0
VERTEX
  5
61C
330
61A
100
AcDbEntity
  8
cuerpo
 62
     7
420
 16777215
370
    25
100
AcDbVertex
100
AcDb2dVertex
 10
18.04489338741586
 20
34.96496309889765
 30
0.0
  0
SEQEND
  5
61D
330
61A
100
AcDbEntity
  8
cuerpo
370
    25
  0
ENDBLK
  5
619
330
616
100
AcDbEntity
  8
0
100
AcDbBlockEnd
  0
BLOCK
  5
620
330
61E
100
AcDbEntity
  8
0
100
AcDbBlockBegin
  2
block 184
 70
     0
 71
     0
 10
0.0
 20
0.0
 30
0.0
  3
block 184
  1

  0
POLYLINE
  5
622
330
61E
100
AcDbEntity
  8
cuerpo
 62
     7
420
 16777215
370
    25
100
AcDb2dPolyline
 66
     1
 10
0.0
 20
0.0
 30
0.0
  0
VERTEX
  5
623
330
622
100
AcDbEntity
  8
cuerpo
 62
     7
420
 16777215
370
    25
100
AcDbVertex
100
AcDb2dVertex
 10
19.37366671607672
 20
36.15076496492065
 30
0.0
  0
VERTEX
  5
624
330
622
100
AcDbEntity
  8
cuerpo
 62
     7
420
 16777215
370
    25
100
AcDbVertex
100
AcDb2dVertex
 10
19.56228569389415
 20
34.96496309889765
 30
0.0
  0
SEQEND
  5
625
330
622
100
AcDbEntity
  8
cuerpo
370
    25
  0
ENDBLK
  5
621
330
61E
100
AcDbEntity
  8
0
100
AcDbBlockEnd
  0
BLOCK
  5
628
330
626
100
AcDbEntity
  8
0
100
AcDbBlockBegin
  2
block 185
 70
     0
 71
     0
 10
0.0
 20
0.0
 30
0.0
  3
block 185
  1

  0
POLYLINE
  5
62A
330
626
100
AcDbEntity
  8
cuerpo
 62
     7
420
 16777215
370
    25
100
AcDb2dPolyline
 66
     1
 10
0.0
 20
0.0
 30
0.0
  0
VERTEX
  5
62B
330
62A
100
AcDbEntity
  8
cuerpo
 62
     7
420
 16777215
370
    25
100
AcDbVertex
100
AcDb2dVertex
 10
21.48878308924586
 20
36.15076496492065
 30
0.0
  0
VERTEX
  5
62C
330
62A
100
AcDbEntity
  8
cuerpo
 62
     7
420
 16777215
370
    25
100
AcDbVertex
100
AcDb2dVertex
 10
21.48878308924586
 20
34.96496309889765
 30
0.0
  0
SEQEND
  5
62D
330
62A
100
AcDbEntity
  8
cuerpo
370
    25
  0
ENDBLK
  5
629
330
626
100
AcDbEntity
  8
0
100
AcDbBlockEnd
  0
BLOCK
  5
630
330
62E
100
AcDbEntity
  8
0
100
AcDbBlockBegin
  2
block 186
 70
     0
 71
     0
 10
0.0
 20
0.0
 30
0.0
  3
block 186
  1

  0
POLYLINE
  5
632
330
62E
100
AcDbEntity
  8
cuerpo
 62
     7
420
 16777215
370
    25
100
AcDb2dPolyline
 66
     1
 10
0.0
 20
0.0
 30
0.0
  0
VERTEX
  5
633
330
632
100
AcDbEntity
  8
cuerpo
 62
     7
420
 16777215
370
    25
100
AcDbVertex
100
AcDb2dVertex
 10
16.88889159734028
 20
37.83128254262552
 30
0.0
  0
VERTEX
  5
634
330
632
100
AcDbEntity
  8
cuerpo
 62
     7
420
 16777215
370
    25
100
AcDbVertex
100
AcDb2dVertex
 10
25.42945556004889
 20
37.83128254262552
 30
0.0
  0
SEQEND
  5
635
330
632
100
AcDbEntity
  8
cuerpo
370
    25
  0
ENDBLK
  5
631
330
62E
100
AcDbEntity
  8
0
100
AcDbBlockEnd
  0
BLOCK
  5
638
330
636
100
AcDbEntity
  8
0
100
AcDbBlockBegin
  2
block 187
 70
     0
 71
     0
 10
0.0
 20
0.0
 30
0.0
  3
block 187
  1

  0
POLYLINE
  5
63A
330
636
100
AcDbEntity
  8
cuerpo
 62
     7
420
 16777215
370
    25
100
AcDb2dPolyline
 66
     1
 10
0.0
 20
0.0
 30
0.0
  0
VERTEX
  5
63B
330
63A
100
AcDbEntity
  8
cuerpo
 62
     7
420
 16777215
370
    25
100
AcDbVertex
100
AcDb2dVertex
 10
23.3260525115296
 20
27.93455674214831
 30
0.0
  0
VERTEX
  5
63C
330
63A
100
AcDbEntity
  8
cuerpo
 62
     7
420
 16777215
370
    25
100
AcDbVertex
100
AcDb2dVertex
 10
23.3260525115296
 20
29.98680012271164
 30
0.0
  0
SEQEND
  5
63D
330
63A
100
AcDbEntity
  8
cuerpo
370
    25
  0
ENDBLK
  5
639
330
636
100
AcDbEntity
  8
0
100
AcDbBlockEnd
  0
BLOCK
  5
640
330
63E
100
AcDbEntity
  8
0
100
AcDbBlockBegin
  2
block 188
 70
     0
 71
     0
 10
0.0
 20
0.0
 30
0.0
  3
block 188
  1

  0
POLYLINE
  5
642
330
63E
100
AcDbEntity
  8
cuerpo
 62
     7
420
 16777215
370
    25
100
AcDb2dPolyline
 66
     1
 10
0.0
 20
0.0
 30
0.0
  0
VERTEX
  5
643
330
642
100
AcDbEntity
  8
cuerpo
 62
     7
420
 16777215
370
    25
100
AcDbVertex
100
AcDb2dVertex
 10
23.32036810397894
 20
32.3373887722976
 30
0.0
  0
VERTEX
  5
644
330
642
100
AcDbEntity
  8
cuerpo
 62
     7
420
 16777215
370
    25
100
AcDbVertex
100
AcDb2dVertex
 10
23.32036810397894
 20
34.96496309889765
 30
0.0
  0
SEQEND
  5
645
330
642
100
AcDbEntity
  8
cuerpo
370
    25
  0
ENDBLK
  5
641
330
63E
100
AcDbEntity
  8
0
100
AcDbBlockEnd
  0
BLOCK
  5
648
330
646
100
AcDbEntity
  8
0
100
AcDbBlockBegin
  2
block 189
 70
     0
 71
     0
 10
0.0
 20
0.0
 30
0.0
  3
block 189
  1

  0
POLYLINE
  5
64A
330
646
100
AcDbEntity
  8
cuerpo
 62
     7
420
 16777215
370
    25
100
AcDb2dPolyline
 66
     1
 10
0.0
 20
0.0
 30
0.0
  0
VERTEX
  5
64B
330
64A
100
AcDbEntity
  8
cuerpo
 62
     7
420
 16777215
370
    25
100
AcDbVertex
100
AcDb2dVertex
 10
21.33995496428307
 20
27.93455674214831
 30
0.0
  0
VERTEX
  5
64C
330
64A
100
AcDbEntity
  8
cuerpo
 62
     7
420
 16777215
370
    25
100
AcDbVertex
100
AcDb2dVertex
 10
21.33995496428307
 20
29.45487737978906
 30
0.0
  0
SEQEND
  5
64D
330
64A
100
AcDbEntity
  8
cuerpo
370
    25
  0
ENDBLK
  5
649
330
646
100
AcDbEntity
  8
0
100
AcDbBlockEnd
  0
BLOCK
  5
650
330
64E
100
AcDbEntity
  8
0
100
AcDbBlockBegin
  2
block 190
 70
     0
 71
     0
 10
0.0
 20
0.0
 30
0.0
  3
block 190
  1

  0
POLYLINE
  5
652
330
64E
100
AcDbEntity
  8
cuerpo
 62
     7
420
 16777215
370
    25
100
AcDb2dPolyline
 66
     1
 10
0.0
 20
0.0
 30
0.0
  0
VERTEX
  5
653
330
652
100
AcDbEntity
  8
cuerpo
 62
     7
420
 16777215
370
    25
100
AcDbVertex
100
AcDb2dVertex
 10
21.33427055673241
 20
31.8051215198265
 30
0.0
  0
VERTEX
  5
654
330
652
100
AcDbEntity
  8
cuerpo
 62
     7
420
 16777215
370
    25
100
AcDbVertex
100
AcDb2dVertex
 10
21.33427055673241
 20
34.96496309889765
 30
0.0
  0
SEQEND
  5
655
330
652
100
AcDbEntity
  8
cuerpo
370
    25
  0
ENDBLK
  5
651
330
64E
100
AcDbEntity
  8
0
100
AcDbBlockEnd
  0
BLOCK
  5
658
330
656
100
AcDbEntity
  8
0
100
AcDbBlockBegin
  2
block 191
 70
     0
 71
     0
 10
0.0
 20
0.0
 30
0.0
  3
block 191
  1

  0
POLYLINE
  5
65A
330
656
100
AcDbEntity
  8
cuerpo
 62
     7
420
 16777215
370
    25
100
AcDb2dPolyline
 66
     1
 10
0.0
 20
0.0
 30
0.0
  0
VERTEX
  5
65B
330
65A
100
AcDbEntity
  8
cuerpo
 62
     7
420
 16777215
370
    25
100
AcDbVertex
100
AcDb2dVertex
 10
25.34694552317715
 20
34.96496309889765
 30
0.0
  0
VERTEX
  5
65C
330
65A
100
AcDbEntity
  8
cuerpo
 62
     7
420
 16777215
370
    25
100
AcDbVertex
100
AcDb2dVertex
 10
25.34694552317715
 20
36.15076496492065
 30
0.0
  0
SEQEND
  5
65D
330
65A
100
AcDbEntity
  8
cuerpo
370
    25
  0
ENDBLK
  5
659
330
656
100
AcDbEntity
  8
0
100
AcDbBlockEnd
  0
BLOCK
  5
660
330
65E
100
AcDbEntity
  8
0
100
AcDbBlockBegin
  2
block 192
 70
     0
 71
     0
 10
0.0
 20
0.0
 30
0.0
  3
block 192
  1

  0
POLYLINE
  5
662
330
65E
100
AcDbEntity
  8
cuerpo
 62
     7
420
 16777215
370
    25
100
AcDb2dPolyline
 66
     1
 10
0.0
 20
0.0
 30
0.0
  0
VERTEX
  5
663
330
662
100
AcDbEntity
  8
cuerpo
 62
     7
420
 16777215
370
    25
100
AcDbVertex
100
AcDb2dVertex
 10
21.43366156148186
 20
24.65758191657866
 30
0.0
  0
VERTEX
  5
664
330
662
100
AcDbEntity
  8
cuerpo
 62
     7
420
 16777215
370
    25
100
AcDbVertex
100
AcDb2dVertex
 10
23.22132160877801
 20
24.65758191657866
 30
0.0
  0
SEQEND
  5
665
330
662
100
AcDbEntity
  8
cuerpo
370
    25
  0
ENDBLK
  5
661
330
65E
100
AcDbEntity
  8
0
100
AcDbBlockEnd
  0
BLOCK
  5
668
330
666
100
AcDbEntity
  8
0
100
AcDbBlockBegin
  2
block 193
 70
     0
 71
     0
 10
0.0
 20
0.0
 30
0.0
  3
block 193
  1

  0
POLYLINE
  5
66A
330
666
100
AcDbEntity
  8
cuerpo
 62
     7
420
 16777215
370
    25
100
AcDb2dPolyline
 66
     1
 10
0.0
 20
0.0
 30
0.0
  0
VERTEX
  5
66B
330
66A
100
AcDbEntity
  8
cuerpo
 62
     7
420
 16777215
370
    25
100
AcDbVertex
100
AcDb2dVertex
 10
21.34426133363963
 20
24.36233723349275
 30
0.0
  0
VERTEX
  5
66C
330
66A
100
AcDbEntity
  8
cuerpo
 62
     7
420
 16777215
370
    25
100
AcDbVertex
100
AcDb2dVertex
 10
21.34426133363963
 20
24.55939669524904
 30
0.0
  0
SEQEND
  5
66D
330
66A
100
AcDbEntity
  8
cuerpo
370
    25
  0
ENDBLK
  5
669
330
666
100
AcDbEntity
  8
0
100
AcDbBlockEnd
  0
BLOCK
  5
670
330
66E
100
AcDbEntity
  8
0
100
AcDbBlockBegin
  2
block 194
 70
     0
 71
     0
 10
0.0
 20
0.0
 30
0.0
  3
block 194
  1

  0
POLYLINE
  5
672
330
66E
100
AcDbEntity
  8
cuerpo
 62
     7
420
 16777215
370
    25
100
AcDb2dPolyline
 66
     1
 10
0.0
 20
0.0
 30
0.0
  0
VERTEX
  5
673
330
672
100
AcDbEntity
  8
cuerpo
 62
     7
420
 16777215
370
    25
100
AcDbVertex
100
AcDb2dVertex
 10
20.85264620789448
 20
24.36233723349275
 30
0.0
  0
VERTEX
  5
674
330
672
100
AcDbEntity
  8
cuerpo
 62
     7
420
 16777215
370
    25
100
AcDbVertex
100
AcDb2dVertex
 10
23.80216470759113
 20
24.36233723349275
 30
0.0
  0
SEQEND
  5
675
330
672
100
AcDbEntity
  8
cuerpo
370
    25
  0
ENDBLK
  5
671
330
66E
100
AcDbEntity
  8
0
100
AcDbBlockEnd
  0
BLOCK
  5
678
330
676
100
AcDbEntity
  8
0
100
AcDbBlockBegin
  2
block 195
 70
     0
 71
     0
 10
0.0
 20
0.0
 30
0.0
  3
block 195
  1

  0
POLYLINE
  5
67A
330
676
100
AcDbEntity
  8
cuerpo
 62
     7
420
 16777215
370
    25
100
AcDb2dPolyline
 66
     1
 10
0.0
 20
0.0
 30
0.0
  0
VERTEX
  5
67B
330
67A
100
AcDbEntity
  8
cuerpo
 62
     7
420
 16777215
370
    25
100
AcDbVertex
100
AcDb2dVertex
 10
23.31054958184598
 20
24.36233723349275
 30
0.0
  0
VERTEX
  5
67C
330
67A
100
AcDbEntity
  8
cuerpo
 62
     7
420
 16777215
370
    25
100
AcDbVertex
100
AcDb2dVertex
 10
23.31054958184598
 20
24.55939669524904
 30
0.0
  0
SEQEND
  5
67D
330
67A
100
AcDbEntity
  8
cuerpo
370
    25
  0
ENDBLK
  5
679
330
676
100
AcDbEntity
  8
0
100
AcDbBlockEnd
  0
BLOCK
  5
680
330
67E
100
AcDbEntity
  8
0
100
AcDbBlockBegin
  2
block 196
 70
     0
 71
     0
 10
0.0
 20
0.0
 30
0.0
  3
block 196
  1

  0
SPLINE
  5
682
330
67E
100
AcDbEntity
  8
cuerpo
 62
     7
420
 16777215
370
    25
100
AcDbSpline
210
0.0
220
0.0
230
1.0
 70
     8
 71
     3
 72
     8
 73
     4
 74
     0
 42
0.0000000001
 43
0.0000000001
 40
0.0
 40
0.0
 40
0.0
 40
0.0
 40
1.0
 40
1.0
 40
1.0
 40
1.0
 10
23.31054958184598
 20
24.55939669524904
 30
0.0
 10
23.31054958184598
 20
24.61348469436746
 30
0.0
 10
23.26662461440904
 20
24.65758191657866
 30
0.0
 10
23.21236436051635
 20
24.65758191657866
 30
0.0
  0
ENDBLK
  5
681
330
67E
100
AcDbEntity
  8
0
100
AcDbBlockEnd
  0
BLOCK
  5
685
330
683
100
AcDbEntity
  8
0
100
AcDbBlockBegin
  2
block 197
 70
     0
 71
     0
 10
0.0
 20
0.0
 30
0.0
  3
block 197
  1

  0
POLYLINE
  5
687
330
683
100
AcDbEntity
  8
cuerpo
 62
     7
420
 16777215
370
    25
100
AcDb2dPolyline
 66
     1
 10
0.0
 20
0.0
 30
0.0
  0
VERTEX
  5
688
330
687
100
AcDbEntity
  8
cuerpo
 62
     7
420
 16777215
370
    25
100
AcDbVertex
100
AcDb2dVertex
 10
24.09706488112851
 20
24.19214951652141
 30
0.0
  0
VERTEX
  5
689
330
687
100
AcDbEntity
  8
cuerpo
 62
     7
420
 16777215
370
    25
100
AcDbVertex
100
AcDb2dVertex
 10
24.09706488112851
 20
22.56640895703201
 30
0.0
  0
SEQEND
  5
68A
330
687
100
AcDbEntity
  8
cuerpo
370
    25
  0
ENDBLK
  5
686
330
683
100
AcDbEntity
  8
0
100
AcDbBlockEnd
  0
BLOCK
  5
68D
330
68B
100
AcDbEntity
  8
0
100
AcDbBlockBegin
  2
block 198
 70
     0
 71
     0
 10
0.0
 20
0.0
 30
0.0
  3
block 198
  1

  0
POLYLINE
  5
68F
330
68B
100
AcDbEntity
  8
cuerpo
 62
     7
420
 16777215
370
    25
100
AcDb2dPolyline
 66
     1
 10
0.0
 20
0.0
 30
0.0
  0
VERTEX
  5
690
330
68F
100
AcDbEntity
  8
cuerpo
 62
     7
420
 16777215
370
    25
100
AcDbVertex
100
AcDb2dVertex
 10
23.80216470759113
 20
22.39656574960919
 30
0.0
  0
VERTEX
  5
691
330
68F
100
AcDbEntity
  8
cuerpo
 62
     7
420
 16777215
370
    25
100
AcDbVertex
100
AcDb2dVertex
 10
20.85264620789448
 20
22.39656574960919
 30
0.0
  0
SEQEND
  5
692
330
68F
100
AcDbEntity
  8
cuerpo
370
    25
  0
ENDBLK
  5
68E
330
68B
100
AcDbEntity
  8
0
100
AcDbBlockEnd
  0
BLOCK
  5
695
330
693
100
AcDbEntity
  8
0
100
AcDbBlockBegin
  2
block 199
 70
     0
 71
     0
 10
0.0
 20
0.0
 30
0.0
  3
block 199
  1

  0
SPLINE
  5
697
330
693
100
AcDbEntity
  8
cuerpo
 62
     7
420
 16777215
370
    25
100
AcDbSpline
210
0.0
220
0.0
230
1.0
 70
     8
 71
     3
 72
     8
 73
     4
 74
     0
 42
0.0000000001
 43
0.0000000001
 40
0.0
 40
0.0
 40
0.0
 40
0.0
 40
1.0
 40
1.0
 40
1.0
 40
1.0
 10
21.44261880974351
 20
24.65758191657866
 30
0.0
 10
21.38818630107657
 20
24.65758191657866
 30
0.0
 10
21.34426133363963
 20
24.61348469436746
 30
0.0
 10
21.34426133363963
 20
24.55939669524904
 30
0.0
  0
ENDBLK
  5
696
330
693
100
AcDbEntity
  8
0
100
AcDbBlockEnd
  0
BLOCK
  5
69A
330
698
100
AcDbEntity
  8
0
100
AcDbBlockBegin
  2
block 200
 70
     0
 71
     0
 10
0.0
 20
0.0
 30
0.0
  3
block 200
  1

  0
POLYLINE
  5
69C
330
698
100
AcDbEntity
  8
cuerpo
 62
     7
420
 16777215
370
    25
100
AcDb2dPolyline
 66
     1
 10
0.0
 20
0.0
 30
0.0
  0
VERTEX
  5
69D
330
69C
100
AcDbEntity
  8
cuerpo
 62
     7
420
 16777215
370
    25
100
AcDbVertex
100
AcDb2dVertex
 10
23.80216470759113
 20
24.36233723349275
 30
0.0
  0
VERTEX
  5
69E
330
69C
100
AcDbEntity
  8
cuerpo
 62
     7
420
 16777215
370
    25
100
AcDbVertex
100
AcDb2dVertex
 10
24.09706488112851
 20
24.19214951652141
 30
0.0
  0
SEQEND
  5
69F
330
69C
100
AcDbEntity
  8
cuerpo
370
    25
  0
ENDBLK
  5
69B
330
698
100
AcDbEntity
  8
0
100
AcDbBlockEnd
  0
BLOCK
  5
6A2
330
6A0
100
AcDbEntity
  8
0
100
AcDbBlockBegin
  2
block 201
 70
     0
 71
     0
 10
0.0
 20
0.0
 30
0.0
  3
block 201
  1

  0
POLYLINE
  5
6A4
330
6A0
100
AcDbEntity
  8
cuerpo
 62
     7
420
 16777215
370
    25
100
AcDb2dPolyline
 66
     1
 10
0.0
 20
0.0
 30
0.0
  0
VERTEX
  5
6A5
330
6A4
100
AcDbEntity
  8
cuerpo
 62
     7
420
 16777215
370
    25
100
AcDbVertex
100
AcDb2dVertex
 10
23.80216470759113
 20
22.39656574960919
 30
0.0
  0
VERTEX
  5
6A6
330
6A4
100
AcDbEntity
  8
cuerpo
 62
     7
420
 16777215
370
    25
100
AcDbVertex
100
AcDb2dVertex
 10
24.09706488112851
 20
22.56640895703201
 30
0.0
  0
SEQEND
  5
6A7
330
6A4
100
AcDbEntity
  8
cuerpo
370
    25
  0
ENDBLK
  5
6A3
330
6A0
100
AcDbEntity
  8
0
100
AcDbBlockEnd
  0
BLOCK
  5
6AA
330
6A8
100
AcDbEntity
  8
0
100
AcDbBlockBegin
  2
block 202
 70
     0
 71
     0
 10
0.0
 20
0.0
 30
0.0
  3
block 202
  1

  0
POLYLINE
  5
6AC
330
6A8
100
AcDbEntity
  8
cuerpo
 62
     7
420
 16777215
370
    25
100
AcDb2dPolyline
 66
     1
 10
0.0
 20
0.0
 30
0.0
  0
VERTEX
  5
6AD
330
6AC
100
AcDbEntity
  8
cuerpo
 62
     7
420
 16777215
370
    25
100
AcDbVertex
100
AcDb2dVertex
 10
21.34426133363963
 20
24.19214951652141
 30
0.0
  0
VERTEX
  5
6AE
330
6AC
100
AcDbEntity
  8
cuerpo
 62
     7
420
 16777215
370
    25
100
AcDbVertex
100
AcDb2dVertex
 10
21.34426133363963
 20
22.56640895703201
 30
0.0
  0
SEQEND
  5
6AF
330
6AC
100
AcDbEntity
  8
cuerpo
370
    25
  0
ENDBLK
  5
6AB
330
6A8
100
AcDbEntity
  8
0
100
AcDbBlockEnd
  0
BLOCK
  5
6B2
330
6B0
100
AcDbEntity
  8
0
100
AcDbBlockBegin
  2
block 203
 70
     0
 71
     0
 10
0.0
 20
0.0
 30
0.0
  3
block 203
  1

  0
POLYLINE
  5
6B4
330
6B0
100
AcDbEntity
  8
cuerpo
 62
     7
420
 16777215
370
    25
100
AcDb2dPolyline
 66
     1
 10
0.0
 20
0.0
 30
0.0
  0
VERTEX
  5
6B5
330
6B4
100
AcDbEntity
  8
cuerpo
 62
     7
420
 16777215
370
    25
100
AcDbVertex
100
AcDb2dVertex
 10
23.31054958184598
 20
24.19214951652141
 30
0.0
  0
VERTEX
  5
6B6
330
6B4
100
AcDbEntity
  8
cuerpo
 62
     7
420
 16777215
370
    25
100
AcDbVertex
100
AcDb2dVertex
 10
23.31054958184598
 20
22.56640895703201
 30
0.0
  0
SEQEND
  5
6B7
330
6B4
100
AcDbEntity
  8
cuerpo
370
    25
  0
ENDBLK
  5
6B3
330
6B0
100
AcDbEntity
  8
0
100
AcDbBlockEnd
  0
BLOCK
  5
6BA
330
6B8
100
AcDbEntity
  8
0
100
AcDbBlockBegin
  2
block 204
 70
     0
 71
     0
 10
0.0
 20
0.0
 30
0.0
  3
block 204
  1

  0
SPLINE
  5
6BC
330
6B8
100
AcDbEntity
  8
cuerpo
 62
     7
420
 16777215
370
    25
100
AcDbSpline
210
0.0
220
0.0
230
1.0
 70
     8
 71
     3
 72
     8
 73
     4
 74
     0
 42
0.0000000001
 43
0.0000000001
 40
0.0
 40
0.0
 40
0.0
 40
0.0
 40
1.0
 40
1.0
 40
1.0
 40
1.0
 10
23.31054958184598
 20
24.19214951652141
 30
0.0
 10
22.67475721004312
 20
24.41918130899937
 30
0.0
 10
21.97988145066822
 20
24.41918130899937
 30
0.0
 10
21.34426133363963
 20
24.19214951652141
 30
0.0
  0
ENDBLK
  5
6BB
330
6B8
100
AcDbEntity
  8
0
100
AcDbBlockEnd
  0
BLOCK
  5
6BF
330
6BD
100
AcDbEntity
  8
0
100
AcDbBlockBegin
  2
block 205
 70
     0
 71
     0
 10
0.0
 20
0.0
 30
0.0
  3
block 205
  1

  0
SPLINE
  5
6C1
330
6BD
100
AcDbEntity
  8
cuerpo
 62
     7
420
 16777215
370
    25
100
AcDbSpline
210
0.0
220
0.0
230
1.0
 70
     8
 71
     3
 72
     8
 73
     4
 74
     0
 42
0.0000000001
 43
0.0000000001
 40
0.0
 40
0.0
 40
0.0
 40
0.0
 40
1.0
 40
1.0
 40
1.0
 40
1.0
 10
21.34426133363963
 20
22.56640895703201
 30
0.0
 10
21.97988145066822
 20
22.33937716455404
 30
0.0
 10
22.67475721004312
 20
22.33937716455404
 30
0.0
 10
23.31054958184598
 20
22.56640895703201
 30
0.0
  0
ENDBLK
  5
6C0
330
6BD
100
AcDbEntity
  8
0
100
AcDbBlockEnd
  0
BLOCK
  5
6C4
330
6C2
100
AcDbEntity
  8
0
100
AcDbBlockBegin
  2
block 206
 70
     0
 71
     0
 10
0.0
 20
0.0
 30
0.0
  3
block 206
  1

  0
SPLINE
  5
6C6
330
6C2
100
AcDbEntity
  8
cuerpo
 62
     7
420
 16777215
370
    25
100
AcDbSpline
210
0.0
220
0.0
230
1.0
 70
     8
 71
     3
 72
     8
 73
     4
 74
     0
 42
0.0000000001
 43
0.0000000001
 40
0.0
 40
0.0
 40
0.0
 40
0.0
 40
1.0
 40
1.0
 40
1.0
 40
1.0
 10
20.85264620789448
 20
22.39656574960919
 30
0.0
 10
21.032135682676
 20
22.38898653954164
 30
0.0
 10
21.20766329764947
 20
22.45030923917909
 30
0.0
 10
21.34426133363963
 20
22.56640895703201
 30
0.0
  0
ENDBLK
  5
6C5
330
6C2
100
AcDbEntity
  8
0
100
AcDbBlockEnd
  0
BLOCK
  5
6C9
330
6C7
100
AcDbEntity
  8
0
100
AcDbBlockBegin
  2
block 207
 70
     0
 71
     0
 10
0.0
 20
0.0
 30
0.0
  3
block 207
  1

  0
SPLINE
  5
6CB
330
6C7
100
AcDbEntity
  8
cuerpo
 62
     7
420
 16777215
370
    25
100
AcDbSpline
210
0.0
220
0.0
230
1.0
 70
     8
 71
     3
 72
     8
 73
     4
 74
     0
 42
0.0000000001
 43
0.0000000001
 40
0.0
 40
0.0
 40
0.0
 40
0.0
 40
1.0
 40
1.0
 40
1.0
 40
1.0
 10
21.34426133363963
 20
24.19214951652141
 30
0.0
 10
21.20766329764947
 20
24.30859374392285
 30
0.0
 10
21.032135682676
 20
24.3699164435603
 30
0.0
 10
20.85264620789448
 20
24.36233723349275
 30
0.0
  0
ENDBLK
  5
6CA
330
6C7
100
AcDbEntity
  8
0
100
AcDbBlockEnd
  0
BLOCK
  5
6CE
330
6CC
100
AcDbEntity
  8
0
100
AcDbBlockBegin
  2
block 208
 70
     0
 71
     0
 10
0.0
 20
0.0
 30
0.0
  3
block 208
  1

  0
SPLINE
  5
6D0
330
6CC
100
AcDbEntity
  8
cuerpo
 62
     7
420
 16777215
370
    25
100
AcDbSpline
210
0.0
220
0.0
230
1.0
 70
     8
 71
     3
 72
     8
 73
     4
 74
     0
 42
0.0000000001
 43
0.0000000001
 40
0.0
 40
0.0
 40
0.0
 40
0.0
 40
1.0
 40
1.0
 40
1.0
 40
1.0
 10
23.80216470759113
 20
24.36233723349275
 30
0.0
 10
23.62250297803535
 20
24.3699164435603
 30
0.0
 10
23.44714761783613
 20
24.30859374392285
 30
0.0
 10
23.31054958184598
 20
24.19214951652141
 30
0.0
  0
ENDBLK
  5
6CF
330
6CC
100
AcDbEntity
  8
0
100
AcDbBlockEnd
  0
BLOCK
  5
6D3
330
6D1
100
AcDbEntity
  8
0
100
AcDbBlockBegin
  2
block 209
 70
     0
 71
     0
 10
0.0
 20
0.0
 30
0.0
  3
block 209
  1

  0
SPLINE
  5
6D5
330
6D1
100
AcDbEntity
  8
cuerpo
 62
     7
420
 16777215
370
    25
100
AcDbSpline
210
0.0
220
0.0
230
1.0
 70
     8
 71
     3
 72
     8
 73
     4
 74
     0
 42
0.0000000001
 43
0.0000000001
 40
0.0
 40
0.0
 40
0.0
 40
0.0
 40
1.0
 40
1.0
 40
1.0
 40
1.0
 10
23.31054958184598
 20
22.56640895703201
 30
0.0
 10
23.44714761783613
 20
22.45030923917909
 30
0.0
 10
23.62250297803535
 20
22.38898653954164
 30
0.0
 10
23.80216470759113
 20
22.39656574960919
 30
0.0
  0
ENDBLK
  5
6D4
330
6D1
100
AcDbEntity
  8
0
100
AcDbBlockEnd
  0
BLOCK
  5
6D8
330
6D6
100
AcDbEntity
  8
0
100
AcDbBlockBegin
  2
block 210
 70
     0
 71
     0
 10
0.0
 20
0.0
 30
0.0
  3
block 210
  1

  0
POLYLINE
  5
6DA
330
6D6
100
AcDbEntity
  8
cuerpo
 62
     7
420
 16777215
370
    25
100
AcDb2dPolyline
 66
     1
 10
0.0
 20
0.0
 30
0.0
  0
VERTEX
  5
6DB
330
6DA
100
AcDbEntity
  8
cuerpo
 62
     7
420
 16777215
370
    25
100
AcDbVertex
100
AcDb2dVertex
 10
20.55774603435709
 20
24.19214951652141
 30
0.0
  0
VERTEX
  5
6DC
330
6DA
100
AcDbEntity
  8
cuerpo
 62
     7
420
 16777215
370
    25
100
AcDbVertex
100
AcDb2dVertex
 10
20.55774603435709
 20
22.56640895703201
 30
0.0
  0
SEQEND
  5
6DD
330
6DA
100
AcDbEntity
  8
cuerpo
370
    25
  0
ENDBLK
  5
6D9
330
6D6
100
AcDbEntity
  8
0
100
AcDbBlockEnd
  0
BLOCK
  5
6E0
330
6DE
100
AcDbEntity
  8
0
100
AcDbBlockBegin
  2
block 211
 70
     0
 71
     0
 10
0.0
 20
0.0
 30
0.0
  3
block 211
  1

  0
POLYLINE
  5
6E2
330
6DE
100
AcDbEntity
  8
cuerpo
 62
     7
420
 16777215
370
    25
100
AcDb2dPolyline
 66
     1
 10
0.0
 20
0.0
 30
0.0
  0
VERTEX
  5
6E3
330
6E2
100
AcDbEntity
  8
cuerpo
 62
     7
420
 16777215
370
    25
100
AcDbVertex
100
AcDb2dVertex
 10
20.85264620789448
 20
24.36233723349275
 30
0.0
  0
VERTEX
  5
6E4
330
6E2
100
AcDbEntity
  8
cuerpo
 62
     7
420
 16777215
370
    25
100
AcDbVertex
100
AcDb2dVertex
 10
20.55774603435709
 20
24.19214951652141
 30
0.0
  0
SEQEND
  5
6E5
330
6E2
100
AcDbEntity
  8
cuerpo
370
    25
  0
ENDBLK
  5
6E1
330
6DE
100
AcDbEntity
  8
0
100
AcDbBlockEnd
  0
BLOCK
  5
6E8
330
6E6
100
AcDbEntity
  8
0
100
AcDbBlockBegin
  2
block 212
 70
     0
 71
     0
 10
0.0
 20
0.0
 30
0.0
  3
block 212
  1

  0
POLYLINE
  5
6EA
330
6E6
100
AcDbEntity
  8
cuerpo
 62
     7
420
 16777215
370
    25
100
AcDb2dPolyline
 66
     1
 10
0.0
 20
0.0
 30
0.0
  0
VERTEX
  5
6EB
330
6EA
100
AcDbEntity
  8
cuerpo
 62
     7
420
 16777215
370
    25
100
AcDbVertex
100
AcDb2dVertex
 10
20.85264620789448
 20
22.39656574960919
 30
0.0
  0
VERTEX
  5
6EC
330
6EA
100
AcDbEntity
  8
cuerpo
 62
     7
420
 16777215
370
    25
100
AcDbVertex
100
AcDb2dVertex
 10
20.55774603435709
 20
22.56640895703201
 30
0.0
  0
SEQEND
  5
6ED
330
6EA
100
AcDbEntity
  8
cuerpo
370
    25
  0
ENDBLK
  5
6E9
330
6E6
100
AcDbEntity
  8
0
100
AcDbBlockEnd
  0
BLOCK
  5
6F0
330
6EE
100
AcDbEntity
  8
0
100
AcDbBlockBegin
  2
block 213
 70
     0
 71
     0
 10
0.0
 20
0.0
 30
0.0
  3
block 213
  1

  0
POLYLINE
  5
6F2
330
6EE
100
AcDbEntity
  8
cuerpo
 62
     7
420
 16777215
370
    25
100
AcDb2dPolyline
 66
     1
 10
0.0
 20
0.0
 30
0.0
  0
VERTEX
  5
6F3
330
6F2
100
AcDbEntity
  8
cuerpo
 62
     7
420
 16777215
370
    25
100
AcDbVertex
100
AcDb2dVertex
 10
18.33393689862832
 20
29.73082952815757
 30
0.0
  0
VERTEX
  5
6F4
330
6F2
100
AcDbEntity
  8
cuerpo
 62
     7
420
 16777215
370
    25
100
AcDbVertex
100
AcDb2dVertex
 10
19.90679524241914
 20
29.73082952815757
 30
0.0
  0
SEQEND
  5
6F5
330
6F2
100
AcDbEntity
  8
cuerpo
370
    25
  0
ENDBLK
  5
6F1
330
6EE
100
AcDbEntity
  8
0
100
AcDbBlockEnd
  0
BLOCK
  5
6F8
330
6F6
100
AcDbEntity
  8
0
100
AcDbBlockBegin
  2
block 214
 70
     0
 71
     0
 10
0.0
 20
0.0
 30
0.0
  3
block 214
  1

  0
POLYLINE
  5
6FA
330
6F6
100
AcDbEntity
  8
cuerpo
 62
     7
420
 16777215
370
    25
100
AcDb2dPolyline
 66
     1
 10
0.0
 20
0.0
 30
0.0
  0
VERTEX
  5
6FB
330
6FA
100
AcDbEntity
  8
cuerpo
 62
     7
420
 16777215
370
    25
100
AcDbVertex
100
AcDb2dVertex
 10
19.89353162480093
 20
29.5726996453846
 30
0.0
  0
VERTEX
  5
6FC
330
6FA
100
AcDbEntity
  8
cuerpo
 62
     7
420
 16777215
370
    25
100
AcDbVertex
100
AcDb2dVertex
 10
19.89353162480093
 20
32.01561685397527
 30
0.0
  0
SEQEND
  5
6FD
330
6FA
100
AcDbEntity
  8
cuerpo
370
    25
  0
ENDBLK
  5
6F9
330
6F6
100
AcDbEntity
  8
0
100
AcDbBlockEnd
  0
BLOCK
  5
700
330
6FE
100
AcDbEntity
  8
0
100
AcDbBlockBegin
  2
block 215
 70
     0
 71
     0
 10
0.0
 20
0.0
 30
0.0
  3
block 215
  1

  0
POLYLINE
  5
702
330
6FE
100
AcDbEntity
  8
cuerpo
 62
     7
420
 16777215
370
    25
100
AcDb2dPolyline
 66
     1
 10
0.0
 20
0.0
 30
0.0
  0
VERTEX
  5
703
330
702
100
AcDbEntity
  8
cuerpo
 62
     7
420
 16777215
370
    25
100
AcDbVertex
100
AcDb2dVertex
 10
18.33393689862832
 20
29.5726996453846
 30
0.0
  0
VERTEX
  5
704
330
702
100
AcDbEntity
  8
cuerpo
 62
     7
420
 16777215
370
    25
100
AcDbVertex
100
AcDb2dVertex
 10
18.33393689862832
 20
32.01561685397527
 30
0.0
  0
SEQEND
  5
705
330
702
100
AcDbEntity
  8
cuerpo
370
    25
  0
ENDBLK
  5
701
330
6FE
100
AcDbEntity
  8
0
100
AcDbBlockEnd
  0
BLOCK
  5
708
330
706
100
AcDbEntity
  8
0
100
AcDbBlockBegin
  2
block 216
 70
     0
 71
     0
 10
0.0
 20
0.0
 30
0.0
  3
block 216
  1

  0
POLYLINE
  5
70A
330
706
100
AcDbEntity
  8
cuerpo
 62
     7
420
 16777215
370
    25
100
AcDb2dPolyline
 66
     1
 10
0.0
 20
0.0
 30
0.0
  0
VERTEX
  5
70B
330
70A
100
AcDbEntity
  8
cuerpo
 62
     7
420
 16777215
370
    25
100
AcDbVertex
100
AcDb2dVertex
 10
16.82309027357201
 20
36.15076496492065
 30
0.0
  0
VERTEX
  5
70C
330
70A
100
AcDbEntity
  8
cuerpo
 62
     7
420
 16777215
370
    25
100
AcDbVertex
100
AcDb2dVertex
 10
25.34694552317715
 20
36.15076496492065
 30
0.0
  0
SEQEND
  5
70D
330
70A
100
AcDbEntity
  8
cuerpo
370
    25
  0
ENDBLK
  5
709
330
706
100
AcDbEntity
  8
0
100
AcDbBlockEnd
  0
BLOCK
  5
710
330
70E
100
AcDbEntity
  8
0
100
AcDbBlockBegin
  2
block 217
 70
     0
 71
     0
 10
0.0
 20
0.0
 30
0.0
  3
block 217
  1

  0
POLYLINE
  5
712
330
70E
100
AcDbEntity
  8
cuerpo
 62
     7
420
 16777215
370
    25
100
AcDb2dPolyline
 66
     1
 10
0.0
 20
0.0
 30
0.0
  0
VERTEX
  5
713
330
712
100
AcDbEntity
  8
cuerpo
 62
     7
420
 16777215
370
    25
100
AcDbVertex
100
AcDb2dVertex
 10
23.32036810397894
 20
36.15076496492065
 30
0.0
  0
VERTEX
  5
714
330
712
100
AcDbEntity
  8
cuerpo
 62
     7
420
 16777215
370
    25
100
AcDbVertex
100
AcDb2dVertex
 10
23.32036810397894
 20
37.24113768600222
 30
0.0
  0
SEQEND
  5
715
330
712
100
AcDbEntity
  8
cuerpo
370
    25
  0
ENDBLK
  5
711
330
70E
100
AcDbEntity
  8
0
100
AcDbBlockEnd
  0
BLOCK
  5
718
330
716
100
AcDbEntity
  8
0
100
AcDbBlockBegin
  2
block 218
 70
     0
 71
     0
 10
0.0
 20
0.0
 30
0.0
  3
block 218
  1

  0
POLYLINE
  5
71A
330
716
100
AcDbEntity
  8
cuerpo
 62
     7
420
 16777215
370
    25
100
AcDb2dPolyline
 66
     1
 10
0.0
 20
0.0
 30
0.0
  0
VERTEX
  5
71B
330
71A
100
AcDbEntity
  8
cuerpo
 62
     7
420
 16777215
370
    25
100
AcDbVertex
100
AcDb2dVertex
 10
23.32036810397894
 20
37.83128254262552
 30
0.0
  0
VERTEX
  5
71C
330
71A
100
AcDbEntity
  8
cuerpo
 62
     7
420
 16777215
370
    25
100
AcDbVertex
100
AcDb2dVertex
 10
23.32036810397894
 20
40.59218206450473
 30
0.0
  0
SEQEND
  5
71D
330
71A
100
AcDbEntity
  8
cuerpo
370
    25
  0
ENDBLK
  5
719
330
716
100
AcDbEntity
  8
0
100
AcDbBlockEnd
  0
BLOCK
  5
720
330
71E
100
AcDbEntity
  8
0
100
AcDbBlockBegin
  2
block 219
 70
     0
 71
     0
 10
0.0
 20
0.0
 30
0.0
  3
block 219
  1

  0
POLYLINE
  5
722
330
71E
100
AcDbEntity
  8
cuerpo
 62
     7
420
 16777215
370
    25
100
AcDb2dPolyline
 66
     1
 10
0.0
 20
0.0
 30
0.0
  0
VERTEX
  5
723
330
722
100
AcDbEntity
  8
cuerpo
 62
     7
420
 16777215
370
    25
100
AcDbVertex
100
AcDb2dVertex
 10
21.33427055673241
 20
36.15076496492065
 30
0.0
  0
VERTEX
  5
724
330
722
100
AcDbEntity
  8
cuerpo
 62
     7
420
 16777215
370
    25
100
AcDbVertex
100
AcDb2dVertex
 10
21.33427055673241
 20
37.24113768600222
 30
0.0
  0
SEQEND
  5
725
330
722
100
AcDbEntity
  8
cuerpo
370
    25
  0
ENDBLK
  5
721
330
71E
100
AcDbEntity
  8
0
100
AcDbBlockEnd
  0
BLOCK
  5
728
330
726
100
AcDbEntity
  8
0
100
AcDbBlockBegin
  2
block 220
 70
     0
 71
     0
 10
0.0
 20
0.0
 30
0.0
  3
block 220
  1

  0
POLYLINE
  5
72A
330
726
100
AcDbEntity
  8
cuerpo
 62
     7
420
 16777215
370
    25
100
AcDb2dPolyline
 66
     1
 10
0.0
 20
0.0
 30
0.0
  0
VERTEX
  5
72B
330
72A
100
AcDbEntity
  8
cuerpo
 62
     7
420
 16777215
370
    25
100
AcDbVertex
100
AcDb2dVertex
 10
21.33427055673241
 20
37.83128254262552
 30
0.0
  0
VERTEX
  5
72C
330
72A
100
AcDbEntity
  8
cuerpo
 62
     7
420
 16777215
370
    25
100
AcDbVertex
100
AcDb2dVertex
 10
21.33427055673241
 20
40.59218206450473
 30
0.0
  0
SEQEND
  5
72D
330
72A
100
AcDbEntity
  8
cuerpo
370
    25
  0
ENDBLK
  5
729
330
726
100
AcDbEntity
  8
0
100
AcDbBlockEnd
  0
BLOCK
  5
730
330
72E
100
AcDbEntity
  8
0
100
AcDbBlockBegin
  2
block 221
 70
     0
 71
     0
 10
0.0
 20
0.0
 30
0.0
  3
block 221
  1

  0
POLYLINE
  5
732
330
72E
100
AcDbEntity
  8
cuerpo
 62
     7
420
 16777215
370
    25
100
AcDb2dPolyline
 66
     1
 10
0.0
 20
0.0
 30
0.0
  0
VERTEX
  5
733
330
732
100
AcDbEntity
  8
cuerpo
 62
     7
420
 16777215
370
    25
100
AcDbVertex
100
AcDb2dVertex
 10
18.33393689862832
 20
36.15076496492065
 30
0.0
  0
VERTEX
  5
734
330
732
100
AcDbEntity
  8
cuerpo
 62
     7
420
 16777215
370
    25
100
AcDbVertex
100
AcDb2dVertex
 10
18.33393689862832
 20
37.24113768600222
 30
0.0
  0
SEQEND
  5
735
330
732
100
AcDbEntity
  8
cuerpo
370
    25
  0
ENDBLK
  5
731
330
72E
100
AcDbEntity
  8
0
100
AcDbBlockEnd
  0
BLOCK
  5
738
330
736
100
AcDbEntity
  8
0
100
AcDbBlockBegin
  2
block 222
 70
     0
 71
     0
 10
0.0
 20
0.0
 30
0.0
  3
block 222
  1

  0
POLYLINE
  5
73A
330
736
100
AcDbEntity
  8
cuerpo
 62
     7
420
 16777215
370
    25
100
AcDb2dPolyline
 66
     1
 10
0.0
 20
0.0
 30
0.0
  0
VERTEX
  5
73B
330
73A
100
AcDbEntity
  8
cuerpo
 62
     7
420
 16777215
370
    25
100
AcDbVertex
100
AcDb2dVertex
 10
18.33393689862832
 20
37.83128254262552
 30
0.0
  0
VERTEX
  5
73C
330
73A
100
AcDbEntity
  8
cuerpo
 62
     7
420
 16777215
370
    25
100
AcDbVertex
100
AcDb2dVertex
 10
18.33393689862832
 20
40.59218206450473
 30
0.0
  0
SEQEND
  5
73D
330
73A
100
AcDbEntity
  8
cuerpo
370
    25
  0
ENDBLK
  5
739
330
736
100
AcDbEntity
  8
0
100
AcDbBlockEnd
  0
BLOCK
  5
740
330
73E
100
AcDbEntity
  8
0
100
AcDbBlockBegin
  2
block 223
 70
     0
 71
     0
 10
0.0
 20
0.0
 30
0.0
  3
block 223
  1

  0
POLYLINE
  5
742
330
73E
100
AcDbEntity
  8
cuerpo
 62
     7
420
 16777215
370
    25
100
AcDb2dPolyline
 66
     1
 10
0.0
 20
0.0
 30
0.0
  0
VERTEX
  5
743
330
742
100
AcDbEntity
  8
cuerpo
 62
     7
420
 16777215
370
    25
100
AcDbVertex
100
AcDb2dVertex
 10
19.89353162480093
 20
36.15076496492065
 30
0.0
  0
VERTEX
  5
744
330
742
100
AcDbEntity
  8
cuerpo
 62
     7
420
 16777215
370
    25
100
AcDbVertex
100
AcDb2dVertex
 10
19.89353162480093
 20
37.24113768600222
 30
0.0
  0
SEQEND
  5
745
330
742
100
AcDbEntity
  8
cuerpo
370
    25
  0
ENDBLK
  5
741
330
73E
100
AcDbEntity
  8
0
100
AcDbBlockEnd
  0
BLOCK
  5
748
330
746
100
AcDbEntity
  8
0
100
AcDbBlockBegin
  2
block 224
 70
     0
 71
     0
 10
0.0
 20
0.0
 30
0.0
  3
block 224
  1

  0
POLYLINE
  5
74A
330
746
100
AcDbEntity
  8
cuerpo
 62
     7
420
 16777215
370
    25
100
AcDb2dPolyline
 66
     1
 10
0.0
 20
0.0
 30
0.0
  0
VERTEX
  5
74B
330
74A
100
AcDbEntity
  8
cuerpo
 62
     7
420
 16777215
370
    25
100
AcDbVertex
100
AcDb2dVertex
 10
19.89353162480093
 20
37.83128254262552
 30
0.0
  0
VERTEX
  5
74C
330
74A
100
AcDbEntity
  8
cuerpo
 62
     7
420
 16777215
370
    25
100
AcDbVertex
100
AcDb2dVertex
 10
19.89353162480093
 20
40.59218206450473
 30
0.0
  0
SEQEND
  5
74D
330
74A
100
AcDbEntity
  8
cuerpo
370
    25
  0
ENDBLK
  5
749
330
746
100
AcDbEntity
  8
0
100
AcDbBlockEnd
  0
BLOCK
  5
750
330
74E
100
AcDbEntity
  8
0
100
AcDbBlockBegin
  2
block 225
 70
     0
 71
     0
 10
0.0
 20
0.0
 30
0.0
  3
block 225
  1

  0
SPLINE
  5
752
330
74E
100
AcDbEntity
  8
cuerpo
 62
     7
420
 16777215
370
    25
100
AcDbSpline
210
0.0
220
0.0
230
1.0
 70
     8
 71
     3
 72
    11
 73
     7
 74
     0
 42
0.0000000001
 43
0.0000000001
 40
0.0
 40
0.0
 40
0.0
 40
0.0
 40
1.0
 40
1.0
 40
1.0
 40
2.0
 40
2.0
 40
2.0
 40
2.0
 10
22.74934352729878
 20
25.45202093547728
 30
0.0
 10
22.74934352729878
 20
25.31490613516433
 30
0.0
 10
22.86062011147235
 20
25.20362955099076
 30
0.0
 10
22.99773491178529
 20
25.20362955099076
 30
0.0
 10
23.13484971209823
 20
25.20362955099076
 30
0.0
 10
23.24595404149754
 20
25.31490613516433
 30
0.0
 10
23.24595404149754
 20
25.45202093547728
 30
0.0
  0
ENDBLK
  5
751
330
74E
100
AcDbEntity
  8
0
100
AcDbBlockEnd
  0
BLOCK
  5
755
330
753
100
AcDbEntity
  8
0
100
AcDbBlockBegin
  2
block 226
 70
     0
 71
     0
 10
0.0
 20
0.0
 30
0.0
  3
block 226
  1

  0
SPLINE
  5
757
330
753
100
AcDbEntity
  8
cuerpo
 62
     7
420
 16777215
370
    25
100
AcDbSpline
210
0.0
220
0.0
230
1.0
 70
     8
 71
     3
 72
    11
 73
     7
 74
     0
 42
0.0000000001
 43
0.0000000001
 40
0.0
 40
0.0
 40
0.0
 40
0.0
 40
1.0
 40
1.0
 40
1.0
 40
2.0
 40
2.0
 40
2.0
 40
2.0
 10
23.24595404149754
 20
26.84211696377558
 30
0.0
 10
23.24595404149754
 20
26.97923176408853
 30
0.0
 10
23.13484971209823
 20
27.0905083482621
 30
0.0
 10
22.99773491178529
 20
27.0905083482621
 30
0.0
 10
22.86062011147235
 20
27.0905083482621
 30
0.0
 10
22.74934352729878
 20
26.97923176408853
 30
0.0
 10
22.74934352729878
 20
26.84211696377558
 30
0.0
  0
ENDBLK
  5
756
330
753
100
AcDbEntity
  8
0
100
AcDbBlockEnd
  0
BLOCK
  5
75A
330
758
100
AcDbEntity
  8
0
100
AcDbBlockBegin
  2
block 227
 70
     0
 71
     0
 10
0.0
 20
0.0
 30
0.0
  3
block 227
  1

  0
SPLINE
  5
75C
330
758
100
AcDbEntity
  8
cuerpo
 62
     7
420
 16777215
370
    25
100
AcDbSpline
210
0.0
220
0.0
230
1.0
 70
     8
 71
     3
 72
    11
 73
     7
 74
     0
 42
0.0000000001
 43
0.0000000001
 40
0.0
 40
0.0
 40
0.0
 40
0.0
 40
1.0
 40
1.0
 40
1.0
 40
2.0
 40
2.0
 40
2.0
 40
2.0
 10
21.4086846192138
 20
25.45202093547728
 30
0.0
 10
21.4086846192138
 20
25.31490613516433
 30
0.0
 10
21.51996120338737
 20
25.20362955099076
 30
0.0
 10
21.65707600370031
 20
25.20362955099076
 30
0.0
 10
21.79419080401326
 20
25.20362955099076
 30
0.0
 10
21.90546738818683
 20
25.31490613516433
 30
0.0
 10
21.90546738818683
 20
25.45202093547728
 30
0.0
  0
ENDBLK
  5
75B
330
758
100
AcDbEntity
  8
0
100
AcDbBlockEnd
  0
BLOCK
  5
75F
330
75D
100
AcDbEntity
  8
0
100
AcDbBlockBegin
  2
block 228
 70
     0
 71
     0
 10
0.0
 20
0.0
 30
0.0
  3
block 228
  1

  0
SPLINE
  5
761
330
75D
100
AcDbEntity
  8
cuerpo
 62
     7
420
 16777215
370
    25
100
AcDbSpline
210
0.0
220
0.0
230
1.0
 70
     8
 71
     3
 72
    11
 73
     7
 74
     0
 42
0.0000000001
 43
0.0000000001
 40
0.0
 40
0.0
 40
0.0
 40
0.0
 40
1.0
 40
1.0
 40
1.0
 40
2.0
 40
2.0
 40
2.0
 40
2.0
 10
21.90546738818683
 20
26.84211696377558
 30
0.0
 10
21.90546738818683
 20
26.97923176408853
 30
0.0
 10
21.79419080401326
 20
27.0905083482621
 30
0.0
 10
21.65707600370031
 20
27.0905083482621
 30
0.0
 10
21.51996120338737
 20
27.0905083482621
 30
0.0
 10
21.4086846192138
 20
26.97923176408853
 30
0.0
 10
21.4086846192138
 20
26.84211696377558
 30
0.0
  0
ENDBLK
  5
760
330
75D
100
AcDbEntity
  8
0
100
AcDbBlockEnd
  0
ENDSEC
  0
SECTION
  2
ENTITIES
  0
INSERT
  5
3D
330
1F
100
AcDbEntity
  8
cotas
100
AcDbBlockReference
  2
block 2
 10
0.0
 20
0.0
 30
0.0
  0
INSERT
  5
94
330
1F
100
AcDbEntity
  8
cotas
100
AcDbBlockReference
  2
block 13
 10
0.0
 20
0.0
 30
0.0
  0
INSERT
  5
EB
330
1F
100
AcDbEntity
  8
cotas
100
AcDbBlockReference
  2
block 24
 10
0.0
 20
0.0
 30
0.0
  0
INSERT
  5
142
330
1F
100
AcDbEntity
  8
cotas
100
AcDbBlockReference
  2
block 35
 10
0.0
 20
0.0
 30
0.0
  0
INSERT
  5
199
330
1F
100
AcDbEntity
  8
cotas
100
AcDbBlockReference
  2
block 46
 10
0.0
 20
0.0
 30
0.0
  0
INSERT
  5
1F8
330
1F
100
AcDbEntity
  8
cotas
100
AcDbBlockReference
  2
block 58
 10
0.0
 20
0.0
 30
0.0
  0
INSERT
  5
24F
330
1F
100
AcDbEntity
  8
cotas
100
AcDbBlockReference
  2
block 69
 10
0.0
 20
0.0
 30
0.0
  0
INSERT
  5
2A6
330
1F
100
AcDbEntity
  8
cotas
100
AcDbBlockReference
  2
block 80
 10
0.0
 20
0.0
 30
0.0
  0
INSERT
  5
31A
330
1F
100
AcDbEntity
  8
cotas
100
AcDbBlockReference
  2
block 81
 10
0.0
 20
0.0
 30
0.0
  0
INSERT
  5
37A
330
1F
100
AcDbEntity
  8
cuerpo
100
AcDbBlockReference
  2
block 93
 10
0.0
 20
0.0
 30
0.0
  0
INSERT
  5
382
330
1F
100
AcDbEntity
  8
cuerpo
100
AcDbBlockReference
  2
block 94
 10
0.0
 20
0.0
 30
0.0
  0
INSERT
  5
38A
330
1F
100
AcDbEntity
  8
cuerpo
100
AcDbBlockReference
  2
block 95
 10
0.0
 20
0.0
 30
0.0
  0
INSERT
  5
392
330
1F
100
AcDbEntity
  8
cuerpo
100
AcDbBlockReference
  2
block 96
 10
0.0
 20
0.0
 30
0.0
  0
INSERT
  5
39A
330
1F
100
AcDbEntity
  8
cuerpo
100
AcDbBlockReference
  2
block 97
 10
0.0
 20
0.0
 30
0.0
  0
INSERT
  5
3A2
330
1F
100
AcDbEntity
  8
cuerpo
100
AcDbBlockReference
  2
block 98
 10
0.0
 20
0.0
 30
0.0
  0
INSERT
  5
3AA
330
1F
100
AcDbEntity
  8
cuerpo
100
AcDbBlockReference
  2
block 99
 10
0.0
 20
0.0
 30
0.0
  0
INSERT
  5
3B2
330
1F
100
AcDbEntity
  8
cuerpo
100
AcDbBlockReference
  2
block 100
 10
0.0
 20
0.0
 30
0.0
  0
INSERT
  5
3BA
330
1F
100
AcDbEntity
  8
cuerpo
100
AcDbBlockReference
  2
block 101
 10
0.0
 20
0.0
 30
0.0
  0
INSERT
  5
3C2
330
1F
100
AcDbEntity
  8
cuerpo
100
AcDbBlockReference
  2
block 102
 10
0.0
 20
0.0
 30
0.0
  0
INSERT
  5
3CA
330
1F
100
AcDbEntity
  8
cuerpo
100
AcDbBlockReference
  2
block 103
 10
0.0
 20
0.0
 30
0.0
  0
INSERT
  5
3D2
330
1F
100
AcDbEntity
  8
cuerpo
100
AcDbBlockReference
  2
block 104
 10
0.0
 20
0.0
 30
0.0
  0
INSERT
  5
3DA
330
1F
100
AcDbEntity
  8
cuerpo
100
AcDbBlockReference
  2
block 105
 10
0.0
 20
0.0
 30
0.0
  0
INSERT
  5
3E2
330
1F
100
AcDbEntity
  8
cuerpo
100
AcDbBlockReference
  2
block 106
 10
0.0
 20
0.0
 30
0.0
  0
INSERT
  5
3EA
330
1F
100
AcDbEntity
  8
cuerpo
100
AcDbBlockReference
  2
block 107
 10
0.0
 20
0.0
 30
0.0
  0
INSERT
  5
3F2
330
1F
100
AcDbEntity
  8
cuerpo
100
AcDbBlockReference
  2
block 108
 10
0.0
 20
0.0
 30
0.0
  0
INSERT
  5
3FA
330
1F
100
AcDbEntity
  8
cuerpo
100
AcDbBlockReference
  2
block 109
 10
0.0
 20
0.0
 30
0.0
  0
INSERT
  5
3FF
330
1F
100
AcDbEntity
  8
cuerpo
100
AcDbBlockReference
  2
block 110
 10
0.0
 20
0.0
 30
0.0
  0
INSERT
  5
407
330
1F
100
AcDbEntity
  8
cuerpo
100
AcDbBlockReference
  2
block 111
 10
0.0
 20
0.0
 30
0.0
  0
INSERT
  5
40F
330
1F
100
AcDbEntity
  8
cuerpo
100
AcDbBlockReference
  2
block 112
 10
0.0
 20
0.0
 30
0.0
  0
INSERT
  5
417
330
1F
100
AcDbEntity
  8
cuerpo
100
AcDbBlockReference
  2
block 113
 10
0.0
 20
0.0
 30
0.0
  0
INSERT
  5
41F
330
1F
100
AcDbEntity
  8
cuerpo
100
AcDbBlockReference
  2
block 114
 10
0.0
 20
0.0
 30
0.0
  0
INSERT
  5
427
330
1F
100
AcDbEntity
  8
cuerpo
100
AcDbBlockReference
  2
block 115
 10
0.0
 20
0.0
 30
0.0
  0
INSERT
  5
42F
330
1F
100
AcDbEntity
  8
cuerpo
100
AcDbBlockReference
  2
block 116
 10
0.0
 20
0.0
 30
0.0
  0
INSERT
  5
437
330
1F
100
AcDbEntity
  8
cuerpo
100
AcDbBlockReference
  2
block 117
 10
0.0
 20
0.0
 30
0.0
  0
INSERT
  5
43F
330
1F
100
AcDbEntity
  8
cuerpo
100
AcDbBlockReference
  2
block 118
 10
0.0
 20
0.0
 30
0.0
  0
INSERT
  5
447
330
1F
100
AcDbEntity
  8
cuerpo
100
AcDbBlockReference
  2
block 119
 10
0.0
 20
0.0
 30
0.0
  0
INSERT
  5
44F
330
1F
100
AcDbEntity
  8
cuerpo
100
AcDbBlockReference
  2
block 120
 10
0.0
 20
0.0
 30
0.0
  0
INSERT
  5
457
330
1F
100
AcDbEntity
  8
cuerpo
100
AcDbBlockReference
  2
block 121
 10
0.0
 20
0.0
 30
0.0
  0
INSERT
  5
45F
330
1F
100
AcDbEntity
  8
cuerpo
100
AcDbBlockReference
  2
block 122
 10
0.0
 20
0.0
 30
0.0
  0
INSERT
  5
467
330
1F
100
AcDbEntity
  8
cuerpo
100
AcDbBlockReference
  2
block 123
 10
0.0
 20
0.0
 30
0.0
  0
INSERT
  5
46F
330
1F
100
AcDbEntity
  8
cuerpo
100
AcDbBlockReference
  2
block 124
 10
0.0
 20
0.0
 30
0.0
  0
INSERT
  5
474
330
1F
100
AcDbEntity
  8
cuerpo
100
AcDbBlockReference
  2
block 125
 10
0.0
 20
0.0
 30
0.0
  0
INSERT
  5
479
330
1F
100
AcDbEntity
  8
cuerpo
100
AcDbBlockReference
  2
block 126
 10
0.0
 20
0.0
 30
0.0
  0
INSERT
  5
481
330
1F
100
AcDbEntity
  8
cuerpo
100
AcDbBlockReference
  2
block 127
 10
0.0
 20
0.0
 30
0.0
  0
INSERT
  5
489
330
1F
100
AcDbEntity
  8
cuerpo
100
AcDbBlockReference
  2
block 128
 10
0.0
 20
0.0
 30
0.0
  0
INSERT
  5
491
330
1F
100
AcDbEntity
  8
cuerpo
100
AcDbBlockReference
  2
block 129
 10
0.0
 20
0.0
 30
0.0
  0
INSERT
  5
499
330
1F
100
AcDbEntity
  8
cuerpo
100
AcDbBlockReference
  2
block 130
 10
0.0
 20
0.0
 30
0.0
  0
INSERT
  5
4A1
330
1F
100
AcDbEntity
  8
cuerpo
100
AcDbBlockReference
  2
block 131
 10
0.0
 20
0.0
 30
0.0
  0
INSERT
  5
4A9
330
1F
100
AcDbEntity
  8
cuerpo
100
AcDbBlockReference
  2
block 132
 10
0.0
 20
0.0
 30
0.0
  0
INSERT
  5
4B1
330
1F
100
AcDbEntity
  8
cuerpo
100
AcDbBlockReference
  2
block 133
 10
0.0
 20
0.0
 30
0.0
  0
INSERT
  5
4B9
330
1F
100
AcDbEntity
  8
cuerpo
100
AcDbBlockReference
  2
block 134
 10
0.0
 20
0.0
 30
0.0
  0
INSERT
  5
4BE
330
1F
100
AcDbEntity
  8
cuerpo
100
AcDbBlockReference
  2
block 135
 10
0.0
 20
0.0
 30
0.0
  0
INSERT
  5
4C3
330
1F
100
AcDbEntity
  8
cuerpo
100
AcDbBlockReference
  2
block 136
 10
0.0
 20
0.0
 30
0.0
  0
INSERT
  5
4CB
330
1F
100
AcDbEntity
  8
cuerpo
100
AcDbBlockReference
  2
block 137
 10
0.0
 20
0.0
 30
0.0
  0
INSERT
  5
4D3
330
1F
100
AcDbEntity
  8
cuerpo
100
AcDbBlockReference
  2
block 138
 10
0.0
 20
0.0
 30
0.0
  0
INSERT
  5
4D8
330
1F
100
AcDbEntity
  8
cuerpo
100
AcDbBlockReference
  2
block 139
 10
0.0
 20
0.0
 30
0.0
  0
INSERT
  5
4E0
330
1F
100
AcDbEntity
  8
cuerpo
100
AcDbBlockReference
  2
block 140
 10
0.0
 20
0.0
 30
0.0
  0
INSERT
  5
4E8
330
1F
100
AcDbEntity
  8
cuerpo
100
AcDbBlockReference
  2
block 141
 10
0.0
 20
0.0
 30
0.0
  0
INSERT
  5
4F0
330
1F
100
AcDbEntity
  8
cuerpo
100
AcDbBlockReference
  2
block 142
 10
0.0
 20
0.0
 30
0.0
  0
INSERT
  5
4F8
330
1F
100
AcDbEntity
  8
cuerpo
100
AcDbBlockReference
  2
block 143
 10
0.0
 20
0.0
 30
0.0
  0
INSERT
  5
500
330
1F
100
AcDbEntity
  8
cuerpo
100
AcDbBlockReference
  2
block 144
 10
0.0
 20
0.0
 30
0.0
  0
INSERT
  5
505
330
1F
100
AcDbEntity
  8
cuerpo
100
AcDbBlockReference
  2
block 145
 10
0.0
 20
0.0
 30
0.0
  0
INSERT
  5
50A
330
1F
100
AcDbEntity
  8
cuerpo
100
AcDbBlockReference
  2
block 146
 10
0.0
 20
0.0
 30
0.0
  0
INSERT
  5
512
330
1F
100
AcDbEntity
  8
cuerpo
100
AcDbBlockReference
  2
block 147
 10
0.0
 20
0.0
 30
0.0
  0
INSERT
  5
517
330
1F
100
AcDbEntity
  8
cuerpo
100
AcDbBlockReference
  2
block 148
 10
0.0
 20
0.0
 30
0.0
  0
INSERT
  5
51F
330
1F
100
AcDbEntity
  8
cuerpo
100
AcDbBlockReference
  2
block 149
 10
0.0
 20
0.0
 30
0.0
  0
INSERT
  5
527
330
1F
100
AcDbEntity
  8
cuerpo
100
AcDbBlockReference
  2
block 150
 10
0.0
 20
0.0
 30
0.0
  0
INSERT
  5
52F
330
1F
100
AcDbEntity
  8
cuerpo
100
AcDbBlockReference
  2
block 151
 10
0.0
 20
0.0
 30
0.0
  0
INSERT
  5
537
330
1F
100
AcDbEntity
  8
cuerpo
100
AcDbBlockReference
  2
block 152
 10
0.0
 20
0.0
 30
0.0
  0
INSERT
  5
53F
330
1F
100
AcDbEntity
  8
cuerpo
100
AcDbBlockReference
  2
block 153
 10
0.0
 20
0.0
 30
0.0
  0
INSERT
  5
547
330
1F
100
AcDbEntity
  8
cuerpo
100
AcDbBlockReference
  2
block 154
 10
0.0
 20
0.0
 30
0.0
  0
INSERT
  5
54C
330
1F
100
AcDbEntity
  8
cuerpo
100
AcDbBlockReference
  2
block 155
 10
0.0
 20
0.0
 30
0.0
  0
INSERT
  5
554
330
1F
100
AcDbEntity
  8
cuerpo
100
AcDbBlockReference
  2
block 156
 10
0.0
 20
0.0
 30
0.0
  0
INSERT
  5
55C
330
1F
100
AcDbEntity
  8
cuerpo
100
AcDbBlockReference
  2
block 157
 10
0.0
 20
0.0
 30
0.0
  0
INSERT
  5
564
330
1F
100
AcDbEntity
  8
cuerpo
100
AcDbBlockReference
  2
block 158
 10
0.0
 20
0.0
 30
0.0
  0
INSERT
  5
56C
330
1F
100
AcDbEntity
  8
cuerpo
100
AcDbBlockReference
  2
block 159
 10
0.0
 20
0.0
 30
0.0
  0
INSERT
  5
571
330
1F
100
AcDbEntity
  8
cuerpo
100
AcDbBlockReference
  2
block 160
 10
0.0
 20
0.0
 30
0.0
  0
INSERT
  5
579
330
1F
100
AcDbEntity
  8
cuerpo
100
AcDbBlockReference
  2
block 161
 10
0.0
 20
0.0
 30
0.0
  0
INSERT
  5
581
330
1F
100
AcDbEntity
  8
cuerpo
100
AcDbBlockReference
  2
block 162
 10
0.0
 20
0.0
 30
0.0
  0
INSERT
  5
589
330
1F
100
AcDbEntity
  8
cuerpo
100
AcDbBlockReference
  2
block 163
 10
0.0
 20
0.0
 30
0.0
  0
INSERT
  5
591
330
1F
100
AcDbEntity
  8
cuerpo
100
AcDbBlockReference
  2
block 164
 10
0.0
 20
0.0
 30
0.0
  0
INSERT
  5
596
330
1F
100
AcDbEntity
  8
cuerpo
100
AcDbBlockReference
  2
block 165
 10
0.0
 20
0.0
 30
0.0
  0
INSERT
  5
59E
330
1F
100
AcDbEntity
  8
cuerpo
100
AcDbBlockReference
  2
block 166
 10
0.0
 20
0.0
 30
0.0
  0
INSERT
  5
5A6
330
1F
100
AcDbEntity
  8
cuerpo
100
AcDbBlockReference
  2
block 167
 10
0.0
 20
0.0
 30
0.0
  0
INSERT
  5
5AE
330
1F
100
AcDbEntity
  8
cuerpo
100
AcDbBlockReference
  2
block 168
 10
0.0
 20
0.0
 30
0.0
  0
INSERT
  5
5B3
330
1F
100
AcDbEntity
  8
cuerpo
100
AcDbBlockReference
  2
block 169
 10
0.0
 20
0.0
 30
0.0
  0
INSERT
  5
5BB
330
1F
100
AcDbEntity
  8
cuerpo
100
AcDbBlockReference
  2
block 170
 10
0.0
 20
0.0
 30
0.0
  0
INSERT
  5
5C3
330
1F
100
AcDbEntity
  8
cuerpo
100
AcDbBlockReference
  2
block 171
 10
0.0
 20
0.0
 30
0.0
  0
INSERT
  5
5CB
330
1F
100
AcDbEntity
  8
cuerpo
100
AcDbBlockReference
  2
block 172
 10
0.0
 20
0.0
 30
0.0
  0
INSERT
  5
5D0
330
1F
100
AcDbEntity
  8
cuerpo
100
AcDbBlockReference
  2
block 173
 10
0.0
 20
0.0
 30
0.0
  0
INSERT
  5
5D5
330
1F
100
AcDbEntity
  8
cuerpo
100
AcDbBlockReference
  2
block 174
 10
0.0
 20
0.0
 30
0.0
  0
INSERT
  5
5DA
330
1F
100
AcDbEntity
  8
cuerpo
100
AcDbBlockReference
  2
block 175
 10
0.0
 20
0.0
 30
0.0
  0
INSERT
  5
5E2
330
1F
100
AcDbEntity
  8
cuerpo
100
AcDbBlockReference
  2
block 176
 10
0.0
 20
0.0
 30
0.0
  0
INSERT
  5
5EA
330
1F
100
AcDbEntity
  8
cuerpo
100
AcDbBlockReference
  2
block 177
 10
0.0
 20
0.0
 30
0.0
  0
INSERT
  5
5EF
330
1F
100
AcDbEntity
  8
cuerpo
100
AcDbBlockReference
  2
block 178
 10
0.0
 20
0.0
 30
0.0
  0
INSERT
  5
5F7
330
1F
100
AcDbEntity
  8
cuerpo
100
AcDbBlockReference
  2
block 179
 10
0.0
 20
0.0
 30
0.0
  0
INSERT
  5
5FF
330
1F
100
AcDbEntity
  8
cuerpo
100
AcDbBlockReference
  2
block 180
 10
0.0
 20
0.0
 30
0.0
  0
INSERT
  5
607
330
1F
100
AcDbEntity
  8
cuerpo
100
AcDbBlockReference
  2
block 181
 10
0.0
 20
0.0
 30
0.0
  0
INSERT
  5
60F
330
1F
100
AcDbEntity
  8
cuerpo
100
AcDbBlockReference
  2
block 182
 10
0.0
 20
0.0
 30
0.0
  0
INSERT
  5
617
330
1F
100
AcDbEntity
  8
cuerpo
100
AcDbBlockReference
  2
block 183
 10
0.0
 20
0.0
 30
0.0
  0
INSERT
  5
61F
330
1F
100
AcDbEntity
  8
cuerpo
100
AcDbBlockReference
  2
block 184
 10
0.0
 20
0.0
 30
0.0
  0
INSERT
  5
627
330
1F
100
AcDbEntity
  8
cuerpo
100
AcDbBlockReference
  2
block 185
 10
0.0
 20
0.0
 30
0.0
  0
INSERT
  5
62F
330
1F
100
AcDbEntity
  8
cuerpo
100
AcDbBlockReference
  2
block 186
 10
0.0
 20
0.0
 30
0.0
  0
INSERT
  5
637
330
1F
100
AcDbEntity
  8
cuerpo
100
AcDbBlockReference
  2
block 187
 10
0.0
 20
0.0
 30
0.0
  0
INSERT
  5
63F
330
1F
100
AcDbEntity
  8
cuerpo
100
AcDbBlockReference
  2
block 188
 10
0.0
 20
0.0
 30
0.0
  0
INSERT
  5
647
330
1F
100
AcDbEntity
  8
cuerpo
100
AcDbBlockReference
  2
block 189
 10
0.0
 20
0.0
 30
0.0
  0
INSERT
  5
64F
330
1F
100
AcDbEntity
  8
cuerpo
100
AcDbBlockReference
  2
block 190
 10
0.0
 20
0.0
 30
0.0
  0
INSERT
  5
657
330
1F
100
AcDbEntity
  8
cuerpo
100
AcDbBlockReference
  2
block 191
 10
0.0
 20
0.0
 30
0.0
  0
INSERT
  5
65F
330
1F
100
AcDbEntity
  8
cuerpo
100
AcDbBlockReference
  2
block 192
 10
0.0
 20
0.0
 30
0.0
  0
INSERT
  5
667
330
1F
100
AcDbEntity
  8
cuerpo
100
AcDbBlockReference
  2
block 193
 10
0.0
 20
0.0
 30
0.0
  0
INSERT
  5
66F
330
1F
100
AcDbEntity
  8
cuerpo
100
AcDbBlockReference
  2
block 194
 10
0.0
 20
0.0
 30
0.0
  0
INSERT
  5
677
330
1F
100
AcDbEntity
  8
cuerpo
100
AcDbBlockReference
  2
block 195
 10
0.0
 20
0.0
 30
0.0
  0
INSERT
  5
67F
330
1F
100
AcDbEntity
  8
cuerpo
100
AcDbBlockReference
  2
block 196
 10
0.0
 20
0.0
 30
0.0
  0
INSERT
  5
684
330
1F
100
AcDbEntity
  8
cuerpo
100
AcDbBlockReference
  2
block 197
 10
0.0
 20
0.0
 30
0.0
  0
INSERT
  5
68C
330
1F
100
AcDbEntity
  8
cuerpo
100
AcDbBlockReference
  2
block 198
 10
0.0
 20
0.0
 30
0.0
  0
INSERT
  5
694
330
1F
100
AcDbEntity
  8
cuerpo
100
AcDbBlockReference
  2
block 199
 10
0.0
 20
0.0
 30
0.0
  0
INSERT
  5
699
330
1F
100
AcDbEntity
  8
cuerpo
100
AcDbBlockReference
  2
block 200
 10
0.0
 20
0.0
 30
0.0
  0
INSERT
  5
6A1
330
1F
100
AcDbEntity
  8
cuerpo
100
AcDbBlockReference
  2
block 201
 10
0.0
 20
0.0
 30
0.0
  0
INSERT
  5
6A9
330
1F
100
AcDbEntity
  8
cuerpo
100
AcDbBlockReference
  2
block 202
 10
0.0
 20
0.0
 30
0.0
  0
INSERT
  5
6B1
330
1F
100
AcDbEntity
  8
cuerpo
100
AcDbBlockReference
  2
block 203
 10
0.0
 20
0.0
 30
0.0
  0
INSERT
  5
6B9
330
1F
100
AcDbEntity
  8
cuerpo
100
AcDbBlockReference
  2
block 204
 10
0.0
 20
0.0
 30
0.0
  0
INSERT
  5
6BE
330
1F
100
AcDbEntity
  8
cuerpo
100
AcDbBlockReference
  2
block 205
 10
0.0
 20
0.0
 30
0.0
  0
INSERT
  5
6C3
330
1F
100
AcDbEntity
  8
cuerpo
100
AcDbBlockReference
  2
block 206
 10
0.0
 20
0.0
 30
0.0
  0
INSERT
  5
6C8
330
1F
100
AcDbEntity
  8
cuerpo
100
AcDbBlockReference
  2
block 207
 10
0.0
 20
0.0
 30
0.0
  0
INSERT
  5
6CD
330
1F
100
AcDbEntity
  8
cuerpo
100
AcDbBlockReference
  2
block 208
 10
0.0
 20
0.0
 30
0.0
  0
INSERT
  5
6D2
330
1F
100
AcDbEntity
  8
cuerpo
100
AcDbBlockReference
  2
block 209
 10
0.0
 20
0.0
 30
0.0
  0
INSERT
  5
6D7
330
1F
100
AcDbEntity
  8
cuerpo
100
AcDbBlockReference
  2
block 210
 10
0.0
 20
0.0
 30
0.0
  0
INSERT
  5
6DF
330
1F
100
AcDbEntity
  8
cuerpo
100
AcDbBlockReference
  2
block 211
 10
0.0
 20
0.0
 30
0.0
  0
INSERT
  5
6E7
330
1F
100
AcDbEntity
  8
cuerpo
100
AcDbBlockReference
  2
block 212
 10
0.0
 20
0.0
 30
0.0
  0
INSERT
  5
6EF
330
1F
100
AcDbEntity
  8
cuerpo
100
AcDbBlockReference
  2
block 213
 10
0.0
 20
0.0
 30
0.0
  0
INSERT
  5
6F7
330
1F
100
AcDbEntity
  8
cuerpo
100
AcDbBlockReference
  2
block 214
 10
0.0
 20
0.0
 30
0.0
  0
INSERT
  5
6FF
330
1F
100
AcDbEntity
  8
cuerpo
100
AcDbBlockReference
  2
block 215
 10
0.0
 20
0.0
 30
0.0
  0
INSERT
  5
707
330
1F
100
AcDbEntity
  8
cuerpo
100
AcDbBlockReference
  2
block 216
 10
0.0
 20
0.0
 30
0.0
  0
INSERT
  5
70F
330
1F
100
AcDbEntity
  8
cuerpo
100
AcDbBlockReference
  2
block 217
 10
0.0
 20
0.0
 30
0.0
  0
INSERT
  5
717
330
1F
100
AcDbEntity
  8
cuerpo
100
AcDbBlockReference
  2
block 218
 10
0.0
 20
0.0
 30
0.0
  0
INSERT
  5
71F
330
1F
100
AcDbEntity
  8
cuerpo
100
AcDbBlockReference
  2
block 219
 10
0.0
 20
0.0
 30
0.0
  0
INSERT
  5
727
330
1F
100
AcDbEntity
  8
cuerpo
100
AcDbBlockReference
  2
block 220
 10
0.0
 20
0.0
 30
0.0
  0
INSERT
  5
72F
330
1F
100
AcDbEntity
  8
cuerpo
100
AcDbBlockReference
  2
block 221
 10
0.0
 20
0.0
 30
0.0
  0
INSERT
  5
737
330
1F
100
AcDbEntity
  8
cuerpo
100
AcDbBlockReference
  2
block 222
 10
0.0
 20
0.0
 30
0.0
  0
INSERT
  5
73F
330
1F
100
AcDbEntity
  8
cuerpo
100
AcDbBlockReference
  2
block 223
 10
0.0
 20
0.0
 30
0.0
  0
INSERT
  5
747
330
1F
100
AcDbEntity
  8
cuerpo
100
AcDbBlockReference
  2
block 224
 10
0.0
 20
0.0
 30
0.0
  0
INSERT
  5
74F
330
1F
100
AcDbEntity
  8
cuerpo
100
AcDbBlockReference
  2
block 225
 10
0.0
 20
0.0
 30
0.0
  0
INSERT
  5
754
330
1F
100
AcDbEntity
  8
cuerpo
100
AcDbBlockReference
  2
block 226
 10
0.0
 20
0.0
 30
0.0
  0
INSERT
  5
759
330
1F
100
AcDbEntity
  8
cuerpo
100
AcDbBlockReference
  2
block 227
 10
0.0
 20
0.0
 30
0.0
  0
INSERT
  5
75E
330
1F
100
AcDbEntity
  8
cuerpo
100
AcDbBlockReference
  2
block 228
 10
0.0
 20
0.0
 30
0.0
  0
ENDSEC
  0
SECTION
  2
OBJECTS
  0
DICTIONARY
  5
C
330
0
100
AcDbDictionary
281
     1
  3
ACAD_GROUP
350
D
  3
ACAD_LAYOUT
350
1A
  3
ACAD_MLINESTYLE
350
17
  3
ACAD_PLOTSETTINGS
350
19
  3
ACAD_PLOTSTYLENAME
350
E
  3
ACAD_TABLESTYLE
350
762
  3
ACAD_VISUALSTYLE
350
2A
  0
DICTIONARY
  5
D
102
{ACAD_REACTORS
330
C
102
}
330
C
100
AcDbDictionary
281
     1
  0
DICTIONARY
  5
1A
102
{ACAD_REACTORS
330
C
102
}
330
C
100
AcDbDictionary
281
     1
  3
Layout1
350
1E
  3
Layout2
350
26
  3
Model
350
22
  0
DICTIONARY
  5
17
102
{ACAD_REACTORS
330
C
102
}
330
C
100
AcDbDictionary
281
     1
  3
Standard
350
18
  0
DICTIONARY
  5
19
102
{ACAD_REACTORS
330
C
102
}
330
C
100
AcDbDictionary
281
     1
  0
ACDBDICTIONARYWDFLT
  5
E
102
{ACAD_REACTORS
330
C
102
}
330
C
100
AcDbDictionary
281
     1
  3
Normal
350
F
100
AcDbDictionaryWithDefault
340
F
  0
DICTIONARY
  5
762
102
{ACAD_REACTORS
330
C
102
}
330
C
100
AcDbDictionary
281
     1
  0
DICTIONARY
  5
2A
102
{ACAD_REACTORS
330
C
102
}
330
C
100
AcDbDictionary
281
     1
  3
2dWireframe
350
2F
  3
3D Hidden
350
31
  3
3dWireframe
350
30
  3
Basic
350
32
  3
Brighten
350
36
  3
ColorChange
350
3A
  3
Conceptual
350
34
  3
Dim
350
35
  3
Facepattern
350
39
  3
Flat
350
2B
  3
FlatWithEdges
350
2C
  3
Gouraud
350
2D
  3
GouraudWithEdges
350
2E
  3
Linepattern
350
38
  3
Realistic
350
33
  3
Thicken
350
37
  0
LAYOUT
  5
1E
102
{ACAD_REACTORS
330
1A
102
}
330
1A
100
AcDbPlotSettings
  1

  2
none_device
  4

  6

 40
0.0
 41
0.0
 42
0.0
 43
0.0
 44
0.0
 45
0.0
 46
0.0
 47
0.0
 48
0.0
 49
0.0
140
0.0
141
0.0
142
1.0
143
1.0
 70
   688
 72
     0
 73
     0
 74
     5
  7

 75
    16
 76
     0
 77
     2
 78
   300
147
1.0
148
0.0
149
0.0
100
AcDbLayout
  1
Layout1
 70
     1
 71
     1
 10
0.0
 20
0.0
 11
12.0
 21
9.0
 12
0.0
 22
0.0
 32
0.0
 14
1.000000000000000E+20
 24
1.000000000000000E+20
 34
1.000000000000000E+20
 15
-1.000000000000000E+20
 25
-1.000000000000000E+20
 35
-1.000000000000000E+20
146
0.0
 13
0.0
 23
0.0
 33
0.0
 16
1.0
 26
0.0
 36
0.0
 17
0.0
 27
1.0
 37
0.0
 76
     0
330
1B
  0
LAYOUT
  5
26
102
{ACAD_REACTORS
330
1A
102
}
330
1A
100
AcDbPlotSettings
  1

  2
none_device
  4

  6

 40
0.0
 41
0.0
 42
0.0
 43
0.0
 44
0.0
 45
0.0
 46
0.0
 47
0.0
 48
0.0
 49
0.0
140
0.0
141
0.0
142
1.0
143
1.0
 70
   688
 72
     0
 73
     0
 74
     5
  7

 75
    16
 76
     0
 77
     2
 78
   300
147
1.0
148
0.0
149
0.0
100
AcDbLayout
  1
Layout2
 70
     1
 71
     2
 10
0.0
 20
0.0
 11
0.0
 21
0.0
 12
0.0
 22
0.0
 32
0.0
 14
0.0
 24
0.0
 34
0.0
 15
0.0
 25
0.0
 35
0.0
146
0.0
 13
0.0
 23
0.0
 33
0.0
 16
1.0
 26
0.0
 36
0.0
 17
0.0
 27
1.0
 37
0.0
 76
     0
330
23
  0
LAYOUT
  5
22
102
{ACAD_REACTORS
330
1A
102
}
330
1A
100
AcDbPlotSettings
  1

  2
none_device
  4

  6

 40
0.0
 41
0.0
 42
0.0
 43
0.0
 44
0.0
 45
0.0
 46
0.0
 47
0.0
 48
0.0
 49
0.0
140
0.0
141
0.0
142
1.0
143
1.0
 70
  1712
 72
     0
 73
     0
 74
     0
  7

 75
     0
 76
     0
 77
     2
 78
   300
147
1.0
148
0.0
149
0.0
100
AcDbLayout
  1
Model
 70
     1
 71
     0
 10
0.0
 20
0.0
 11
12.0
 21
9.0
 12
0.0
 22
0.0
 32
0.0
 14
1.000000000000000E+20
 24
1.000000000000000E+20
 34
1.000000000000000E+20
 15
-1.000000000000000E+20
 25
-1.000000000000000E+20
 35
-1.000000000000000E+20
146
0.0
 13
0.0
 23
0.0
 33
0.0
 16
1.0
 26
0.0
 36
0.0
 17
0.0
 27
1.0
 37
0.0
 76
     0
330
1F
331
29
  0
MLINESTYLE
  5
18
102
{ACAD_REACTORS
330
17
102
}
330
17
100
AcDbMlineStyle
  2
Standard
 70
     0
  3

 62
   256
 51
90.0
 52
90.0
 71
     2
 49
0.5
 62
   256
  6
BYLAYER
 49
-0.5
 62
   256
  6
BYLAYER
  0
ACDBPLACEHOLDER
  5
F
102
{ACAD_REACTORS
330
E
102
}
330
E
  0
VISUALSTYLE
  5
2F
102
{ACAD_REACTORS
330
2A
102
}
330
2A
100
AcDbVisualStyle
  2
2dWireframe
 70
     4
 71
     0
 72
     2
 73
     0
 90
        0
 40
-0.6
 41
-30.0
 62
     5
 63
     7
421
 16777215
 74
     1
 91
        4
 64
     7
 65
   257
 75
     1
175
     1
 42
1.0
 92
        0
 66
   257
 43
1.0
 76
     1
 77
     6
 78
     2
 67
     7
 79
     5
170
     0
171
     0
290
     0
174
     0
 93
        1
 44
0.0
173
     0
291
     0
 45
0.0
1001
ACAD
1000
AcDbSavedByObjectVersion
1070
     0
  0
VISUALSTYLE
  5
31
102
{ACAD_REACTORS
330
2A
102
}
330
2A
100
AcDbVisualStyle
  2
3D Hidden
 70
     6
 71
     1
 72
     2
 73
     2
 90
        0
 40
-0.6
 41
-30.0
 62
     5
 63
     7
421
 16777215
 74
     2
 91
        2
 64
     7
 65
   257
 75
     2
175
     1
 42
40.0
 92
        0
 66
   257
 43
1.0
 76
     1
 77
     6
 78
     2
 67
     7
 79
     3
170
     0
171
     0
290
     0
174
     0
 93
        1
 44
0.0
173
     0
291
     0
 45
0.0
1001
ACAD
1000
AcDbSavedByObjectVersion
1070
     0
  0
VISUALSTYLE
  5
30
102
{ACAD_REACTORS
330
2A
102
}
330
2A
100
AcDbVisualStyle
  2
3dWireframe
 70
     5
 71
     0
 72
     2
 73
     0
 90
        0
 40
-0.6
 41
-30.0
 62
     5
 63
     7
421
 16777215
 74
     1
 91
        4
 64
     7
 65
   257
 75
     1
175
     1
 42
1.0
 92
        0
 66
   257
 43
1.0
 76
     1
 77
     6
 78
     2
 67
     7
 79
     5
170
     0
171
     0
290
     0
174
     0
 93
        1
 44
0.0
173
     0
291
     0
 45
0.0
1001
ACAD
1000
AcDbSavedByObjectVersion
1070
     0
  0
VISUALSTYLE
  5
32
102
{ACAD_REACTORS
330
2A
102
}
330
2A
100
AcDbVisualStyle
  2
Basic
 70
     7
 71
     1
 72
     0
 73
     1
 90
        0
 40
-0.6
 41
-30.0
 62
     5
 63
     7
421
 16777215
 74
     0
 91
        4
 64
     7
 65
   257
 75
     1
175
     1
 42
1.0
 92
        8
 66
     7
 43
1.0
 76
     1
 77
     6
 78
     2
 67
     7
 79
     5
170
     0
171
     0
290
     0
174
     0
 93
        1
 44
0.0
173
     0
291
     1
 45
0.0
1001
ACAD
1000
AcDbSavedByObjectVersion
1070
     0
  0
VISUALSTYLE
  5
36
102
{ACAD_REACTORS
330
2A
102
}
330
2A
100
AcDbVisualStyle
  2
Brighten
 70
    12
 71
     2
 72
     2
 73
     0
 90
        0
 40
-0.6
 41
-30.0
 62
     5
 63
     7
421
 16777215
 74
     1
 91
        4
 64
     7
 65
   257
 75
     1
175
     1
 42
1.0
 92
        8
 66
     7
 43
1.0
 76
     1
 77
     6
 78
     2
 67
     7
 79
     5
170
     0
171
     0
290
     0
174
     0
 93
        1
 44
50.0
173
     0
291
     1
 45
0.0
1001
ACAD
1000
AcDbSavedByObjectVersion
1070
     0
  0
VISUALSTYLE
  5
3A
102
{ACAD_REACTORS
330
2A
102
}
330
2A
100
AcDbVisualStyle
  2
ColorChange
 70
    16
 71
     2
 72
     2
 73
     3
 90
        0
 40
-0.6
 41
-30.0
 62
     5
 63
     8
421
  8421504
 74
     1
 91
        4
 64
     7
 65
   257
 75
     1
175
     1
 42
1.0
 92
        8
 66
     8
424
  8421504
 43
1.0
 76
     1
 77
     6
 78
     2
 67
     7
 79
     5
170
     0
171
     0
290
     0
174
     0
 93
        1
 44
0.0
173
     0
291
     1
 45
0.0
1001
ACAD
1000
AcDbSavedByObjectVersion
1070
     0
  0
VISUALSTYLE
  5
34
102
{ACAD_REACTORS
330
2A
102
}
330
2A
100
AcDbVisualStyle
  2
Conceptual
 70
     9
 71
     3
 72
     2
 73
     0
 90
        0
 40
-0.6
 41
-30.0
 62
     5
 63
     7
421
 16777215
 74
     2
 91
        2
 64
     7
 65
   257
 75
     1
175
     1
 42
40.0
 92
        8
 66
     7
 43
1.0
 76
     1
 77
     6
 78
     2
 67
     7
 79
     3
170
     0
171
     0
290
     0
174
     0
 93
        1
 44
0.0
173
     0
291
     0
 45
0.0
1001
ACAD
1000
AcDbSavedByObjectVersion
1070
     0
  0
VISUALSTYLE
  5
35
102
{ACAD_REACTORS
330
2A
102
}
330
2A
100
AcDbVisualStyle
  2
Dim
 70
    11
 71
     2
 72
     2
 73
     0
 90
        0
 40
-0.6
 41
-30.0
 62
     5
 63
     7
421
 16777215
 74
     1
 91
        4
 64
     7
 65
   257
 75
     1
175
     1
 42
1.0
 92
        8
 66
     7
 43
1.0
 76
     1
 77
     6
 78
     2
 67
     7
 79
     5
170
     0
171
     0
290
     0
174
     0
 93
        1
 44
-50.0
173
     0
291
     1
 45
0.0
1001
ACAD
1000
AcDbSavedByObjectVersion
1070
     0
  0
VISUALSTYLE
  5
39
102
{ACAD_REACTORS
330
2A
102
}
330
2A
100
AcDbVisualStyle
  2
Facepattern
 70
    15
 71
     2
 72
     2
 73
     0
 90
        0
 40
-0.6
 41
-30.0
 62
     5
 63
     7
421
 16777215
 74
     1
 91
        4
 64
     7
 65
   257
 75
     1
175
     1
 42
1.0
 92
        8
 66
     7
 43
1.0
 76
     1
 77
     6
 78
     2
 67
     7
 79
     5
170
     0
171
     0
290
     0
174
     0
 93
        1
 44
0.0
173
     0
291
     1
 45
0.0
1001
ACAD
1000
AcDbSavedByObjectVersion
1070
     0
  0
VISUALSTYLE
  5
2B
102
{ACAD_REACTORS
330
2A
102
}
330
2A
100
AcDbVisualStyle
  2
Flat
 70
     0
 71
     2
 72
     1
 73
     1
 90
        2
 40
-0.6
 41
30.0
 62
     5
 63
     7
421
 16777215
 74
     0
 91
        4
 64
     7
 65
   257
 75
     1
175
     1
 42
1.0
 92
        8
 66
     7
 43
1.0
 76
     1
 77
     6
 78
     2
 67
     7
 79
     5
170
     0
171
     0
290
     0
174
     0
 93
       13
 44
0.0
173
     0
291
     1
 45
0.0
1001
ACAD
1000
AcDbSavedByObjectVersion
1070
     0
  0
VISUALSTYLE
  5
2C
102
{ACAD_REACTORS
330
2A
102
}
330
2A
100
AcDbVisualStyle
  2
FlatWithEdges
 70
     1
 71
     2
 72
     1
 73
     1
 90
        2
 40
-0.6
 41
30.0
 62
     5
 63
     7
421
 16777215
 74
     1
 91
        4
 64
     7
 65
   257
 75
     1
175
     1
 42
1.0
 92
        0
 66
   257
 43
1.0
 76
     1
 77
     6
 78
     2
 67
     7
 79
     5
170
     0
171
     0
290
     0
174
     0
 93
       13
 44
0.0
173
     0
291
     1
 45
0.0
1001
ACAD
1000
AcDbSavedByObjectVersion
1070
     0
  0
VISUALSTYLE
  5
2D
102
{ACAD_REACTORS
330
2A
102
}
330
2A
100
AcDbVisualStyle
  2
Gouraud
 70
     2
 71
     2
 72
     2
 73
     1
 90
        2
 40
-0.6
 41
30.0
 62
     5
 63
     7
421
 16777215
 74
     0
 91
        4
 64
     7
 65
   257
 75
     1
175
     1
 42
1.0
 92
        0
 66
     7
 43
1.0
 76
     1
 77
     6
 78
     2
 67
     7
 79
     5
170
     0
171
     0
290
     0
174
     0
 93
       13
 44
0.0
173
     0
291
     1
 45
0.0
1001
ACAD
1000
AcDbSavedByObjectVersion
1070
     0
  0
VISUALSTYLE
  5
2E
102
{ACAD_REACTORS
330
2A
102
}
330
2A
100
AcDbVisualStyle
  2
GouraudWithEdges
 70
     3
 71
     2
 72
     2
 73
     1
 90
        2
 40
-0.6
 41
30.0
 62
     5
 63
     7
421
 16777215
 74
     1
 91
        4
 64
     7
 65
   257
 75
     1
175
     1
 42
1.0
 92
        0
 66
   257
 43
1.0
 76
     1
 77
     6
 78
     2
 67
     7
 79
     5
170
     0
171
     0
290
     0
174
     0
 93
       13
 44
0.0
173
     0
291
     1
 45
0.0
1001
ACAD
1000
AcDbSavedByObjectVersion
1070
     0
  0
VISUALSTYLE
  5
38
102
{ACAD_REACTORS
330
2A
102
}
330
2A
100
AcDbVisualStyle
  2
Linepattern
 70
    14
 71
     2
 72
     2
 73
     0
 90
        0
 40
-0.6
 41
-30.0
 62
     5
 63
     7
421
 16777215
 74
     1
 91
        4
 64
     7
 65
   257
 75
     7
175
     7
 42
1.0
 92
        8
 66
     7
 43
1.0
 76
     1
 77
     6
 78
     2
 67
     7
 79
     5
170
     0
171
     0
290
     0
174
     0
 93
        1
 44
0.0
173
     0
291
     1
 45
0.0
1001
ACAD
1000
AcDbSavedByObjectVersion
1070
     0
  0
VISUALSTYLE
  5
33
102
{ACAD_REACTORS
330
2A
102
}
330
2A
100
AcDbVisualStyle
  2
Realistic
 70
     8
 71
     2
 72
     2
 73
     0
 90
        0
 40
-0.6
 41
-30.0
 62
     5
 63
     7
421
 16777215
 74
     1
 91
        0
 64
     7
 65
   257
 75
     1
175
     1
 42
1.0
 92
        8
 66
     8
424
  7895160
 43
1.0
 76
     1
 77
     6
 78
     2
 67
     7
 79
     5
170
     0
171
     0
290
     0
174
     0
 93
       13
 44
0.0
173
     0
291
     0
 45
0.0
1001
ACAD
1000
AcDbSavedByObjectVersion
1070
     0
  0
VISUALSTYLE
  5
37
102
{ACAD_REACTORS
330
2A
102
}
330
2A
100
AcDbVisualStyle
  2
Thicken
 70
    13
 71
     2
 72
     2
 73
     0
 90
        0
 40
-0.6
 41
-30.0
 62
     5
 63
     7
421
 16777215
 74
     1
 91
        4
 64
     7
 65
   257
 75
     1
175
     1
 42
1.0
 92
       12
 66
     7
 43
1.0
 76
     1
 77
     6
 78
     2
 67
     7
 79
     5
170
     0
171
     0
290
     0
174
     0
 93
        1
 44
0.0
173
     0
291
     1
 45
0.0
1001
ACAD
1000
AcDbSavedByObjectVersion
1070
     0
  0
ENDSEC
  0
EOF
