  0
SECTION
  2
HEADER
  9
$ACADVER
  1
AC1018
  9
$ACADMAINTVER
 70
     0
  9
$DWGCODEPAGE
  3
ANSI_1252
  9
$INSBASE
 10
0.0
 20
0.0
 30
0.0
  9
$EXTMIN
 10
1.000000000000000E+20
 20
1.000000000000000E+20
 30
1.000000000000000E+20
  9
$EXTMAX
 10
-1.000000000000000E+20
 20
-1.000000000000000E+20
 30
-1.000000000000000E+20
  9
$LIMMIN
 10
0.0
 20
0.0
  9
$LIMMAX
 10
12.0
 20
9.0
  9
$ORTHOMODE
 70
     0
  9
$REGENMODE
 70
     1
  9
$FILLMODE
 70
     1
  9
$QTEXTMODE
 70
     0
  9
$MIRRTEXT
 70
     1
  9
$LTSCALE
 40
1.0
  9
$ATTMODE
 70
     1
  9
$TEXTSIZE
 40
0.2
  9
$TRACEWID
 40
0.05
  9
$TEXTSTYLE
  7
Standard
  9
$CLAYER
  8
0
  9
$CELTYPE
  6
ByLayer
  9
$CECOLOR
 62
   256
  9
$CELTSCALE
 40
1.0
  9
$DISPSILH
 70
     0
  9
$DIMSCALE
 40
1.0
  9
$DIMASZ
 40
0.18
  9
$DIMEXO
 40
0.0625
  9
$DIMDLI
 40
0.38
  9
$DIMRND
 40
0.0
  9
$DIMDLE
 40
0.0
  9
$DIMEXE
 40
0.18
  9
$DIMTP
 40
0.0
  9
$DIMTM
 40
0.0
  9
$DIMTXT
 40
0.18
  9
$DIMCEN
 40
0.09
  9
$DIMTSZ
 40
0.0
  9
$DIMTOL
 70
     0
  9
$DIMLIM
 70
     0
  9
$DIMTIH
 70
     1
  9
$DIMTOH
 70
     1
  9
$DIMSE1
 70
     0
  9
$DIMSE2
 70
     0
  9
$DIMTAD
 70
     0
  9
$DIMZIN
 70
     0
  9
$DIMBLK
  1

  9
$DIMASO
 70
     1
  9
$DIMSHO
 70
     1
  9
$DIMPOST
  1

  9
$DIMAPOST
  1

  9
$DIMALT
 70
     0
  9
$DIMALTD
 70
     2
  9
$DIMALTF
 40
25.4
  9
$DIMLFAC
 40
1.0
  9
$DIMTOFL
 70
     0
  9
$DIMTVP
 40
0.0
  9
$DIMTIX
 70
     0
  9
$DIMSOXD
 70
     0
  9
$DIMSAH
 70
     0
  9
$DIMBLK1
  1

  9
$DIMBLK2
  1

  9
$DIMSTYLE
  2
Standard
  9
$DIMCLRD
 70
     0
  9
$DIMCLRE
 70
     0
  9
$DIMCLRT
 70
     0
  9
$DIMTFAC
 40
1.0
  9
$DIMGAP
 40
0.09
  9
$DIMJUST
 70
     0
  9
$DIMSD1
 70
     0
  9
$DIMSD2
 70
     0
  9
$DIMTOLJ
 70
     1
  9
$DIMTZIN
 70
     0
  9
$DIMALTZ
 70
     0
  9
$DIMALTTZ
 70
     0
  9
$DIMUPT
 70
     0
  9
$DIMDEC
 70
     4
  9
$DIMTDEC
 70
     4
  9
$DIMALTU
 70
     2
  9
$DIMALTTD
 70
     2
  9
$DIMTXSTY
  7
Standard
  9
$DIMAUNIT
 70
     0
  9
$DIMADEC
 70
     0
  9
$DIMALTRND
 40
0.0
  9
$DIMAZIN
 70
     0
  9
$DIMDSEP
 70
    46
  9
$DIMATFIT
 70
     3
  9
$DIMFRAC
 70
     0
  9
$DIMLDRBLK
  1

  9
$DIMLUNIT
 70
     2
  9
$DIMLWD
 70
    -2
  9
$DIMLWE
 70
    -2
  9
$DIMTMOVE
 70
     0
  9
$LUNITS
 70
     2
  9
$LUPREC
 70
     4
  9
$SKETCHINC
 40
0.1
  9
$FILLETRAD
 40
0.5
  9
$AUNITS
 70
     0
  9
$AUPREC
 70
     0
  9
$MENU
  1
.
  9
$ELEVATION
 40
0.0
  9
$PELEVATION
 40
0.0
  9
$THICKNESS
 40
0.0
  9
$LIMCHECK
 70
     0
  9
$CHAMFERA
 40
0.5
  9
$CHAMFERB
 40
0.5
  9
$CHAMFERC
 40
1.0
  9
$CHAMFERD
 40
0.0
  9
$SKPOLY
 70
     0
  9
$TDCREATE
 40
2457547.414494445
  9
$TDUCREATE
 40
2457547.331161111
  9
$TDUPDATE
 40
2457547.414494456
  9
$TDUUPDATE
 40
2457547.331161123
  9
$TDINDWG
 40
0.0000000116
  9
$TDUSRTIMER
 40
0.0000000116
  9
$USRTIMER
 70
     1
  9
$ANGBASE
 50
0.0
  9
$ANGDIR
 70
     0
  9
$PDMODE
 70
     0
  9
$PDSIZE
 40
0.0
  9
$PLINEWID
 40
0.0
  9
$SPLFRAME
 70
     0
  9
$SPLINETYPE
 70
     6
  9
$SPLINESEGS
 70
     8
  9
$HANDSEED
  5
77C
  9
$SURFTAB1
 70
     6
  9
$SURFTAB2
 70
     6
  9
$SURFTYPE
 70
     6
  9
$SURFU
 70
     6
  9
$SURFV
 70
     6
  9
$UCSBASE
  2

  9
$UCSNAME
  2

  9
$UCSORG
 10
0.0
 20
0.0
 30
0.0
  9
$UCSXDIR
 10
1.0
 20
0.0
 30
0.0
  9
$UCSYDIR
 10
0.0
 20
1.0
 30
0.0
  9
$UCSORTHOREF
  2

  9
$UCSORTHOVIEW
 70
     0
  9
$UCSORGTOP
 10
0.0
 20
0.0
 30
0.0
  9
$UCSORGBOTTOM
 10
0.0
 20
0.0
 30
0.0
  9
$UCSORGLEFT
 10
0.0
 20
0.0
 30
0.0
  9
$UCSORGRIGHT
 10
0.0
 20
0.0
 30
0.0
  9
$UCSORGFRONT
 10
0.0
 20
0.0
 30
0.0
  9
$UCSORGBACK
 10
0.0
 20
0.0
 30
0.0
  9
$PUCSBASE
  2

  9
$PUCSNAME
  2

  9
$PUCSORG
 10
0.0
 20
0.0
 30
0.0
  9
$PUCSXDIR
 10
1.0
 20
0.0
 30
0.0
  9
$PUCSYDIR
 10
0.0
 20
1.0
 30
0.0
  9
$PUCSORTHOREF
  2

  9
$PUCSORTHOVIEW
 70
     0
  9
$PUCSORGTOP
 10
0.0
 20
0.0
 30
0.0
  9
$PUCSORGBOTTOM
 10
0.0
 20
0.0
 30
0.0
  9
$PUCSORGLEFT
 10
0.0
 20
0.0
 30
0.0
  9
$PUCSORGRIGHT
 10
0.0
 20
0.0
 30
0.0
  9
$PUCSORGFRONT
 10
0.0
 20
0.0
 30
0.0
  9
$PUCSORGBACK
 10
0.0
 20
0.0
 30
0.0
  9
$USERI1
 70
     0
  9
$USERI2
 70
     0
  9
$USERI3
 70
     0
  9
$USERI4
 70
     0
  9
$USERI5
 70
     0
  9
$USERR1
 40
0.0
  9
$USERR2
 40
0.0
  9
$USERR3
 40
0.0
  9
$USERR4
 40
0.0
  9
$USERR5
 40
0.0
  9
$WORLDVIEW
 70
     1
  9
$SHADEDGE
 70
     3
  9
$SHADEDIF
 70
    70
  9
$TILEMODE
 70
     1
  9
$MAXACTVP
 70
    64
  9
$PINSBASE
 10
0.0
 20
0.0
 30
0.0
  9
$PLIMCHECK
 70
     0
  9
$PEXTMIN
 10
1.000000000000000E+20
 20
1.000000000000000E+20
 30
1.000000000000000E+20
  9
$PEXTMAX
 10
-1.000000000000000E+20
 20
-1.000000000000000E+20
 30
-1.000000000000000E+20
  9
$PLIMMIN
 10
0.0
 20
0.0
  9
$PLIMMAX
 10
12.0
 20
9.0
  9
$UNITMODE
 70
     0
  9
$VISRETAIN
 70
     1
  9
$PLINEGEN
 70
     0
  9
$PSLTSCALE
 70
     1
  9
$TREEDEPTH
 70
  3020
  9
$CMLSTYLE
  2
Standard
  9
$CMLJUST
 70
     0
  9
$CMLSCALE
 40
1.0
  9
$PROXYGRAPHICS
 70
     1
  9
$MEASUREMENT
 70
     0
  9
$CELWEIGHT
370
    -1
  9
$ENDCAPS
280
     0
  9
$JOINSTYLE
280
     0
  9
$LWDISPLAY
290
     1
  9
$INSUNITS
 70
     1
  9
$HYPERLINKBASE
  1

  9
$STYLESHEET
  1

  9
$XEDIT
290
     1
  9
$CEPSNTYPE
380
     0
  9
$PSTYLEMODE
290
     1
  9
$FINGERPRINTGUID
  2
{2D1F622D-F99A-4A05-BD3C-2ABA4BB919DA}
  9
$VERSIONGUID
  2
{FAEB1C32-E019-11D5-929B-00C0DF256EC4}
  9
$EXTNAMES
290
     1
  9
$PSVPSCALE
 40
0.0
  9
$OLESTARTUP
290
     0
  9
$SORTENTS
280
   127
  9
$INDEXCTL
280
     0
  9
$HIDETEXT
280
     1
  9
$XCLIPFRAME
290
     0
  9
$HALOGAP
280
     0
  9
$OBSCOLOR
 70
   257
  9
$OBSLTYPE
280
     0
  9
$INTERSECTIONDISPLAY
280
     0
  9
$INTERSECTIONCOLOR
 70
   257
  9
$DIMASSOC
280
     2
  9
$PROJECTNAME
  1

  0
ENDSEC
  0
SECTION
  2
CLASSES
  0
CLASS
  1
ACDBDICTIONARYWDFLT
  2
AcDbDictionaryWithDefault
  3
ObjectDBX Classes
 90
        0
 91
        3
280
     0
281
     0
  0
CLASS
  1
VISUALSTYLE
  2
AcDbVisualStyle
  3
ObjectDBX Classes
 90
     4095
 91
        3
280
     0
281
     0
  0
ENDSEC
  0
SECTION
  2
TABLES
  0
TABLE
  2
VPORT
  5
8
330
0
100
AcDbSymbolTable
 70
     1
  0
VPORT
  5
29
330
8
100
AcDbSymbolTableRecord
100
AcDbViewportTableRecord
  2
*Active
 70
     0
 10
0.0
 20
0.0
 11
1.0
 21
1.0
 12
0.0
 22
0.0
 13
0.0
 23
0.0
 14
0.5
 24
0.5
 15
0.5
 25
0.5
 16
0.0
 26
0.0
 36
1.0
 17
17.46249999563437
 27
13.93472221873854
 37
0.0
 40
27.86944443747709
 41
1.253164556962025
 42
50.0
 43
0.0
 44
0.0
 50
0.0
 51
0.0
 71
     0
 72
   100
 73
     1
 74
     3
 75
     0
 76
     0
 77
     0
 78
     0
281
     0
 65
     1
110
0.0
120
0.0
130
0.0
111
1.0
121
0.0
131
0.0
112
0.0
122
1.0
132
0.0
 79
     0
146
0.0
  0
ENDTAB
  0
TABLE
  2
LTYPE
  5
5
330
0
100
AcDbSymbolTable
 70
     9
  0
LTYPE
  5
14
330
5
100
AcDbSymbolTableRecord
100
AcDbLinetypeTableRecord
  2
ByBlock
 70
     0
  3

 72
    65
 73
     0
 40
0.0
  0
LTYPE
  5
15
330
5
100
AcDbSymbolTableRecord
100
AcDbLinetypeTableRecord
  2
ByLayer
 70
     0
  3

 72
    65
 73
     0
 40
0.0
  0
LTYPE
  5
16
330
5
100
AcDbSymbolTableRecord
100
AcDbLinetypeTableRecord
  2
Continuous
 70
     0
  3
Solid line
 72
    65
 73
     0
 40
0.0
  0
LTYPE
  5
3A2
330
5
100
AcDbSymbolTableRecord
100
AcDbLinetypeTableRecord
  2
AI-Linetype-1
 70
     0
  3
Adobe Illustrator Linetype No. 1
 72
    65
 73
     4
 40
3.003525168913699
 49
0.7499984646617606
 74
     0
 49
-1.500000461892134
 74
     0
 49
0.7499984646617606
 74
     0
 49
-0.0035277776980439
 74
     0
  0
LTYPE
  5
3A7
330
5
100
AcDbSymbolTableRecord
100
AcDbLinetypeTableRecord
  2
AI-Linetype-2
 70
     0
  3
Adobe Illustrator Linetype No. 2
 72
    65
 73
     4
 40
3.003525168913699
 49
0.7499984646617606
 74
     0
 49
-1.500000461892134
 74
     0
 49
0.7499984646617606
 74
     0
 49
-0.0035277776980439
 74
     0
  0
LTYPE
  5
3AC
330
5
100
AcDbSymbolTableRecord
100
AcDbLinetypeTableRecord
  2
AI-Linetype-3
 70
     0
  3
Adobe Illustrator Linetype No. 3
 72
    65
 73
     4
 40
3.003525168913699
 49
0.7499984646617606
 74
     0
 49
-1.500000461892134
 74
     0
 49
0.7499984646617606
 74
     0
 49
-0.0035277776980439
 74
     0
  0
LTYPE
  5
3B1
330
5
100
AcDbSymbolTableRecord
100
AcDbLinetypeTableRecord
  2
AI-Linetype-4
 70
     0
  3
Adobe Illustrator Linetype No. 4
 72
    65
 73
     4
 40
3.003525168913699
 49
0.7499984646617606
 74
     0
 49
-1.500000461892134
 74
     0
 49
0.7499984646617606
 74
     0
 49
-0.0035277776980439
 74
     0
  0
LTYPE
  5
3FC
330
5
100
AcDbSymbolTableRecord
100
AcDbLinetypeTableRecord
  2
AI-Linetype-5
 70
     0
  3
Adobe Illustrator Linetype No. 5
 72
    65
 73
     4
 40
3.003525168913699
 49
0.7499984646617606
 74
     0
 49
-1.500000461892134
 74
     0
 49
0.7499984646617606
 74
     0
 49
-0.0035277776980439
 74
     0
  0
LTYPE
  5
401
330
5
100
AcDbSymbolTableRecord
100
AcDbLinetypeTableRecord
  2
AI-Linetype-6
 70
     0
  3
Adobe Illustrator Linetype No. 6
 72
    65
 73
     4
 40
3.003525168913699
 49
0.7499984646617606
 74
     0
 49
-1.500000461892134
 74
     0
 49
0.7499984646617606
 74
     0
 49
-0.0035277776980439
 74
     0
  0
LTYPE
  5
406
330
5
100
AcDbSymbolTableRecord
100
AcDbLinetypeTableRecord
  2
AI-Linetype-7
 70
     0
  3
Adobe Illustrator Linetype No. 7
 72
    65
 73
     4
 40
3.003525168913699
 49
0.7499984646617606
 74
     0
 49
-1.500000461892134
 74
     0
 49
0.7499984646617606
 74
     0
 49
-0.0035277776980439
 74
     0
  0
LTYPE
  5
40B
330
5
100
AcDbSymbolTableRecord
100
AcDbLinetypeTableRecord
  2
AI-Linetype-8
 70
     0
  3
Adobe Illustrator Linetype No. 8
 72
    65
 73
     4
 40
3.003525168913699
 49
0.7499984646617606
 74
     0
 49
-1.500000461892134
 74
     0
 49
0.7499984646617606
 74
     0
 49
-0.0035277776980439
 74
     0
  0
ENDTAB
  0
TABLE
  2
LAYER
  5
2
330
0
100
AcDbSymbolTable
 70
     4
  0
LAYER
  5
10
330
2
100
AcDbSymbolTableRecord
100
AcDbLayerTableRecord
  2
0
 70
     0
 62
     7
  6
Continuous
370
    -3
390
F
  0
LAYER
  5
3B
330
2
100
AcDbSymbolTableRecord
100
AcDbLayerTableRecord
  2
cuerpo
 70
     0
 62
     7
  6
Continuous
370
    -3
390
F
  0
LAYER
  5
355
330
2
100
AcDbSymbolTableRecord
100
AcDbLayerTableRecord
  2
OCULTAS
 70
     0
 62
     7
  6
Continuous
370
    -3
390
F
  0
LAYER
  5
40C
330
2
100
AcDbSymbolTableRecord
100
AcDbLayerTableRecord
  2
cotas
 70
     1
 62
     7
  6
Continuous
370
    -3
390
F
  0
ENDTAB
  0
TABLE
  2
STYLE
  5
3
330
0
100
AcDbSymbolTable
 70
     1
  0
STYLE
  5
11
330
3
100
AcDbSymbolTableRecord
100
AcDbTextStyleTableRecord
  2
Standard
 70
     0
 40
0.0
 41
1.0
 50
0.0
 71
     0
 42
0.2
  3
txt
  4

  0
ENDTAB
  0
TABLE
  2
VIEW
  5
6
330
0
100
AcDbSymbolTable
 70
     0
  0
ENDTAB
  0
TABLE
  2
UCS
  5
7
330
0
100
AcDbSymbolTable
 70
     0
  0
ENDTAB
  0
TABLE
  2
APPID
  5
9
330
0
100
AcDbSymbolTable
 70
     1
  0
APPID
  5
12
330
9
100
AcDbSymbolTableRecord
100
AcDbRegAppTableRecord
  2
ACAD
 70
     0
  0
ENDTAB
  0
TABLE
  2
DIMSTYLE
  5
A
330
0
100
AcDbSymbolTable
 70
     1
100
AcDbDimStyleTable
  0
DIMSTYLE
105
27
330
A
100
AcDbSymbolTableRecord
100
AcDbDimStyleTableRecord
  2
Standard
 70
     0
340
11
  0
ENDTAB
  0
TABLE
  2
BLOCK_RECORD
  5
1
330
0
100
AcDbSymbolTable
 70
   107
  0
BLOCK_RECORD
  5
1F
330
1
100
AcDbSymbolTableRecord
100
AcDbBlockTableRecord
  2
*Model_Space
340
22
  0
BLOCK_RECORD
  5
1B
330
1
100
AcDbSymbolTableRecord
100
AcDbBlockTableRecord
  2
*Paper_Space
340
1E
  0
BLOCK_RECORD
  5
23
330
1
100
AcDbSymbolTableRecord
100
AcDbBlockTableRecord
  2
*Paper_Space0
340
26
  0
BLOCK_RECORD
  5
40D
330
1
100
AcDbSymbolTableRecord
100
AcDbBlockTableRecord
  2
block 2
340
0
102
{BLKREFS
331
40E
102
}
  0
BLOCK_RECORD
  5
415
330
1
100
AcDbSymbolTableRecord
100
AcDbBlockTableRecord
  2
block 3
340
0
102
{BLKREFS
331
416
102
}
  0
BLOCK_RECORD
  5
41D
330
1
100
AcDbSymbolTableRecord
100
AcDbBlockTableRecord
  2
block 4
340
0
102
{BLKREFS
331
41E
102
}
  0
BLOCK_RECORD
  5
425
330
1
100
AcDbSymbolTableRecord
100
AcDbBlockTableRecord
  2
block 5
340
0
102
{BLKREFS
331
426
102
}
  0
BLOCK_RECORD
  5
42D
330
1
100
AcDbSymbolTableRecord
100
AcDbBlockTableRecord
  2
block 6
340
0
102
{BLKREFS
331
42E
102
}
  0
BLOCK_RECORD
  5
438
330
1
100
AcDbSymbolTableRecord
100
AcDbBlockTableRecord
  2
block 7
340
0
102
{BLKREFS
331
439
102
}
  0
BLOCK_RECORD
  5
443
330
1
100
AcDbSymbolTableRecord
100
AcDbBlockTableRecord
  2
block 8
340
0
102
{BLKREFS
331
444
102
}
  0
BLOCK_RECORD
  5
448
330
1
100
AcDbSymbolTableRecord
100
AcDbBlockTableRecord
  2
block 9
340
0
102
{BLKREFS
331
449
102
}
  0
BLOCK_RECORD
  5
450
330
1
100
AcDbSymbolTableRecord
100
AcDbBlockTableRecord
  2
block 10
340
0
102
{BLKREFS
331
451
102
}
  0
BLOCK_RECORD
  5
458
330
1
100
AcDbSymbolTableRecord
100
AcDbBlockTableRecord
  2
block 11
340
0
102
{BLKREFS
331
459
102
}
  0
BLOCK_RECORD
  5
460
330
1
100
AcDbSymbolTableRecord
100
AcDbBlockTableRecord
  2
block 12
340
0
102
{BLKREFS
331
461
102
}
  0
BLOCK_RECORD
  5
468
330
1
100
AcDbSymbolTableRecord
100
AcDbBlockTableRecord
  2
block 13
340
0
102
{BLKREFS
331
469
102
}
  0
BLOCK_RECORD
  5
470
330
1
100
AcDbSymbolTableRecord
100
AcDbBlockTableRecord
  2
block 14
340
0
102
{BLKREFS
331
471
102
}
  0
BLOCK_RECORD
  5
478
330
1
100
AcDbSymbolTableRecord
100
AcDbBlockTableRecord
  2
block 15
340
0
102
{BLKREFS
331
479
102
}
  0
BLOCK_RECORD
  5
480
330
1
100
AcDbSymbolTableRecord
100
AcDbBlockTableRecord
  2
block 16
340
0
102
{BLKREFS
331
481
102
}
  0
BLOCK_RECORD
  5
48B
330
1
100
AcDbSymbolTableRecord
100
AcDbBlockTableRecord
  2
block 17
340
0
102
{BLKREFS
331
48C
102
}
  0
BLOCK_RECORD
  5
496
330
1
100
AcDbSymbolTableRecord
100
AcDbBlockTableRecord
  2
block 18
340
0
102
{BLKREFS
331
497
102
}
  0
BLOCK_RECORD
  5
49B
330
1
100
AcDbSymbolTableRecord
100
AcDbBlockTableRecord
  2
block 19
340
0
102
{BLKREFS
331
49C
102
}
  0
BLOCK_RECORD
  5
4A3
330
1
100
AcDbSymbolTableRecord
100
AcDbBlockTableRecord
  2
block 20
340
0
102
{BLKREFS
331
4A4
102
}
  0
BLOCK_RECORD
  5
4AB
330
1
100
AcDbSymbolTableRecord
100
AcDbBlockTableRecord
  2
block 21
340
0
102
{BLKREFS
331
4AC
102
}
  0
BLOCK_RECORD
  5
4B3
330
1
100
AcDbSymbolTableRecord
100
AcDbBlockTableRecord
  2
block 22
340
0
102
{BLKREFS
331
4B4
102
}
  0
BLOCK_RECORD
  5
4BB
330
1
100
AcDbSymbolTableRecord
100
AcDbBlockTableRecord
  2
block 23
340
0
102
{BLKREFS
331
4BC
102
}
  0
BLOCK_RECORD
  5
4C3
330
1
100
AcDbSymbolTableRecord
100
AcDbBlockTableRecord
  2
block 24
340
0
102
{BLKREFS
331
4C4
102
}
  0
BLOCK_RECORD
  5
4CB
330
1
100
AcDbSymbolTableRecord
100
AcDbBlockTableRecord
  2
block 25
340
0
102
{BLKREFS
331
4CC
102
}
  0
BLOCK_RECORD
  5
4D3
330
1
100
AcDbSymbolTableRecord
100
AcDbBlockTableRecord
  2
block 26
340
0
102
{BLKREFS
331
4D4
102
}
  0
BLOCK_RECORD
  5
4DB
330
1
100
AcDbSymbolTableRecord
100
AcDbBlockTableRecord
  2
block 27
340
0
102
{BLKREFS
331
4DC
102
}
  0
BLOCK_RECORD
  5
4E6
330
1
100
AcDbSymbolTableRecord
100
AcDbBlockTableRecord
  2
block 28
340
0
102
{BLKREFS
331
4E7
102
}
  0
BLOCK_RECORD
  5
4F1
330
1
100
AcDbSymbolTableRecord
100
AcDbBlockTableRecord
  2
block 29
340
0
102
{BLKREFS
331
4F2
102
}
  0
BLOCK_RECORD
  5
4F6
330
1
100
AcDbSymbolTableRecord
100
AcDbBlockTableRecord
  2
block 30
340
0
102
{BLKREFS
331
4F7
102
}
  0
BLOCK_RECORD
  5
4FE
330
1
100
AcDbSymbolTableRecord
100
AcDbBlockTableRecord
  2
block 31
340
0
102
{BLKREFS
331
4FF
102
}
  0
BLOCK_RECORD
  5
506
330
1
100
AcDbSymbolTableRecord
100
AcDbBlockTableRecord
  2
block 32
340
0
102
{BLKREFS
331
507
102
}
  0
BLOCK_RECORD
  5
50E
330
1
100
AcDbSymbolTableRecord
100
AcDbBlockTableRecord
  2
block 33
340
0
102
{BLKREFS
331
50F
102
}
  0
BLOCK_RECORD
  5
516
330
1
100
AcDbSymbolTableRecord
100
AcDbBlockTableRecord
  2
block 34
340
0
102
{BLKREFS
331
517
102
}
  0
BLOCK_RECORD
  5
51E
330
1
100
AcDbSymbolTableRecord
100
AcDbBlockTableRecord
  2
block 35
340
0
102
{BLKREFS
331
51F
102
}
  0
BLOCK_RECORD
  5
526
330
1
100
AcDbSymbolTableRecord
100
AcDbBlockTableRecord
  2
block 36
340
0
102
{BLKREFS
331
527
102
}
  0
BLOCK_RECORD
  5
52E
330
1
100
AcDbSymbolTableRecord
100
AcDbBlockTableRecord
  2
block 37
340
0
102
{BLKREFS
331
52F
102
}
  0
BLOCK_RECORD
  5
539
330
1
100
AcDbSymbolTableRecord
100
AcDbBlockTableRecord
  2
block 38
340
0
102
{BLKREFS
331
53A
102
}
  0
BLOCK_RECORD
  5
544
330
1
100
AcDbSymbolTableRecord
100
AcDbBlockTableRecord
  2
block 39
340
0
102
{BLKREFS
331
545
102
}
  0
BLOCK_RECORD
  5
549
330
1
100
AcDbSymbolTableRecord
100
AcDbBlockTableRecord
  2
block 40
340
0
102
{BLKREFS
331
54A
102
}
  0
BLOCK_RECORD
  5
551
330
1
100
AcDbSymbolTableRecord
100
AcDbBlockTableRecord
  2
block 41
340
0
102
{BLKREFS
331
552
102
}
  0
BLOCK_RECORD
  5
559
330
1
100
AcDbSymbolTableRecord
100
AcDbBlockTableRecord
  2
block 42
340
0
102
{BLKREFS
331
55A
102
}
  0
BLOCK_RECORD
  5
561
330
1
100
AcDbSymbolTableRecord
100
AcDbBlockTableRecord
  2
block 43
340
0
102
{BLKREFS
331
562
102
}
  0
BLOCK_RECORD
  5
569
330
1
100
AcDbSymbolTableRecord
100
AcDbBlockTableRecord
  2
block 44
340
0
102
{BLKREFS
331
56A
102
}
  0
BLOCK_RECORD
  5
571
330
1
100
AcDbSymbolTableRecord
100
AcDbBlockTableRecord
  2
block 45
340
0
102
{BLKREFS
331
572
102
}
  0
BLOCK_RECORD
  5
579
330
1
100
AcDbSymbolTableRecord
100
AcDbBlockTableRecord
  2
block 46
340
0
102
{BLKREFS
331
57A
102
}
  0
BLOCK_RECORD
  5
581
330
1
100
AcDbSymbolTableRecord
100
AcDbBlockTableRecord
  2
block 47
340
0
102
{BLKREFS
331
582
102
}
  0
BLOCK_RECORD
  5
589
330
1
100
AcDbSymbolTableRecord
100
AcDbBlockTableRecord
  2
block 48
340
0
102
{BLKREFS
331
58A
102
}
  0
BLOCK_RECORD
  5
594
330
1
100
AcDbSymbolTableRecord
100
AcDbBlockTableRecord
  2
block 49
340
0
102
{BLKREFS
331
595
102
}
  0
BLOCK_RECORD
  5
59F
330
1
100
AcDbSymbolTableRecord
100
AcDbBlockTableRecord
  2
block 50
340
0
102
{BLKREFS
331
5A0
102
}
  0
BLOCK_RECORD
  5
5A4
330
1
100
AcDbSymbolTableRecord
100
AcDbBlockTableRecord
  2
block 51
340
0
102
{BLKREFS
331
5A5
102
}
  0
BLOCK_RECORD
  5
5AC
330
1
100
AcDbSymbolTableRecord
100
AcDbBlockTableRecord
  2
block 52
340
0
102
{BLKREFS
331
5AD
102
}
  0
BLOCK_RECORD
  5
5B4
330
1
100
AcDbSymbolTableRecord
100
AcDbBlockTableRecord
  2
block 53
340
0
102
{BLKREFS
331
5B5
102
}
  0
BLOCK_RECORD
  5
5BC
330
1
100
AcDbSymbolTableRecord
100
AcDbBlockTableRecord
  2
block 54
340
0
102
{BLKREFS
331
5BD
102
}
  0
BLOCK_RECORD
  5
5C4
330
1
100
AcDbSymbolTableRecord
100
AcDbBlockTableRecord
  2
block 55
340
0
102
{BLKREFS
331
5C5
102
}
  0
BLOCK_RECORD
  5
5CC
330
1
100
AcDbSymbolTableRecord
100
AcDbBlockTableRecord
  2
block 56
340
0
102
{BLKREFS
331
5CD
102
}
  0
BLOCK_RECORD
  5
5D4
330
1
100
AcDbSymbolTableRecord
100
AcDbBlockTableRecord
  2
block 57
340
0
102
{BLKREFS
331
5D5
102
}
  0
BLOCK_RECORD
  5
5DC
330
1
100
AcDbSymbolTableRecord
100
AcDbBlockTableRecord
  2
block 58
340
0
102
{BLKREFS
331
5DD
102
}
  0
BLOCK_RECORD
  5
5E4
330
1
100
AcDbSymbolTableRecord
100
AcDbBlockTableRecord
  2
block 59
340
0
102
{BLKREFS
331
5E5
102
}
  0
BLOCK_RECORD
  5
5EC
330
1
100
AcDbSymbolTableRecord
100
AcDbBlockTableRecord
  2
block 60
340
0
102
{BLKREFS
331
5ED
102
}
  0
BLOCK_RECORD
  5
5F7
330
1
100
AcDbSymbolTableRecord
100
AcDbBlockTableRecord
  2
block 61
340
0
102
{BLKREFS
331
5F8
102
}
  0
BLOCK_RECORD
  5
602
330
1
100
AcDbSymbolTableRecord
100
AcDbBlockTableRecord
  2
block 62
340
0
102
{BLKREFS
331
603
102
}
  0
BLOCK_RECORD
  5
607
330
1
100
AcDbSymbolTableRecord
100
AcDbBlockTableRecord
  2
block 63
340
0
102
{BLKREFS
331
608
102
}
  0
BLOCK_RECORD
  5
60F
330
1
100
AcDbSymbolTableRecord
100
AcDbBlockTableRecord
  2
block 64
340
0
102
{BLKREFS
331
610
102
}
  0
BLOCK_RECORD
  5
617
330
1
100
AcDbSymbolTableRecord
100
AcDbBlockTableRecord
  2
block 65
340
0
102
{BLKREFS
331
618
102
}
  0
BLOCK_RECORD
  5
61F
330
1
100
AcDbSymbolTableRecord
100
AcDbBlockTableRecord
  2
block 66
340
0
102
{BLKREFS
331
620
102
}
  0
BLOCK_RECORD
  5
627
330
1
100
AcDbSymbolTableRecord
100
AcDbBlockTableRecord
  2
block 67
340
0
102
{BLKREFS
331
628
102
}
  0
BLOCK_RECORD
  5
62F
330
1
100
AcDbSymbolTableRecord
100
AcDbBlockTableRecord
  2
block 68
340
0
102
{BLKREFS
331
630
102
}
  0
BLOCK_RECORD
  5
637
330
1
100
AcDbSymbolTableRecord
100
AcDbBlockTableRecord
  2
block 69
340
0
102
{BLKREFS
331
638
102
}
  0
BLOCK_RECORD
  5
63F
330
1
100
AcDbSymbolTableRecord
100
AcDbBlockTableRecord
  2
block 70
340
0
102
{BLKREFS
331
640
102
}
  0
BLOCK_RECORD
  5
64A
330
1
100
AcDbSymbolTableRecord
100
AcDbBlockTableRecord
  2
block 71
340
0
102
{BLKREFS
331
64B
102
}
  0
BLOCK_RECORD
  5
655
330
1
100
AcDbSymbolTableRecord
100
AcDbBlockTableRecord
  2
block 72
340
0
102
{BLKREFS
331
656
102
}
  0
BLOCK_RECORD
  5
65A
330
1
100
AcDbSymbolTableRecord
100
AcDbBlockTableRecord
  2
block 73
340
0
102
{BLKREFS
331
65B
102
}
  0
BLOCK_RECORD
  5
662
330
1
100
AcDbSymbolTableRecord
100
AcDbBlockTableRecord
  2
block 74
340
0
102
{BLKREFS
331
663
102
}
  0
BLOCK_RECORD
  5
66A
330
1
100
AcDbSymbolTableRecord
100
AcDbBlockTableRecord
  2
block 75
340
0
102
{BLKREFS
331
66B
102
}
  0
BLOCK_RECORD
  5
672
330
1
100
AcDbSymbolTableRecord
100
AcDbBlockTableRecord
  2
block 76
340
0
102
{BLKREFS
331
673
102
}
  0
BLOCK_RECORD
  5
67A
330
1
100
AcDbSymbolTableRecord
100
AcDbBlockTableRecord
  2
block 77
340
0
102
{BLKREFS
331
67B
102
}
  0
BLOCK_RECORD
  5
682
330
1
100
AcDbSymbolTableRecord
100
AcDbBlockTableRecord
  2
block 78
340
0
102
{BLKREFS
331
683
102
}
  0
BLOCK_RECORD
  5
68A
330
1
100
AcDbSymbolTableRecord
100
AcDbBlockTableRecord
  2
block 79
340
0
102
{BLKREFS
331
68B
102
}
  0
BLOCK_RECORD
  5
692
330
1
100
AcDbSymbolTableRecord
100
AcDbBlockTableRecord
  2
block 80
340
0
102
{BLKREFS
331
693
102
}
  0
BLOCK_RECORD
  5
69A
330
1
100
AcDbSymbolTableRecord
100
AcDbBlockTableRecord
  2
block 81
340
0
102
{BLKREFS
331
69B
102
}
  0
BLOCK_RECORD
  5
6A5
330
1
100
AcDbSymbolTableRecord
100
AcDbBlockTableRecord
  2
block 82
340
0
102
{BLKREFS
331
6A6
102
}
  0
BLOCK_RECORD
  5
6B0
330
1
100
AcDbSymbolTableRecord
100
AcDbBlockTableRecord
  2
block 83
340
0
102
{BLKREFS
331
6B1
102
}
  0
BLOCK_RECORD
  5
6B5
330
1
100
AcDbSymbolTableRecord
100
AcDbBlockTableRecord
  2
block 84
340
0
102
{BLKREFS
331
6B6
102
}
  0
BLOCK_RECORD
  5
6BD
330
1
100
AcDbSymbolTableRecord
100
AcDbBlockTableRecord
  2
block 85
340
0
102
{BLKREFS
331
6BE
102
}
  0
BLOCK_RECORD
  5
6C5
330
1
100
AcDbSymbolTableRecord
100
AcDbBlockTableRecord
  2
block 86
340
0
102
{BLKREFS
331
6C6
102
}
  0
BLOCK_RECORD
  5
6CD
330
1
100
AcDbSymbolTableRecord
100
AcDbBlockTableRecord
  2
block 87
340
0
102
{BLKREFS
331
6CE
102
}
  0
BLOCK_RECORD
  5
6D5
330
1
100
AcDbSymbolTableRecord
100
AcDbBlockTableRecord
  2
block 88
340
0
102
{BLKREFS
331
6D6
102
}
  0
BLOCK_RECORD
  5
6DD
330
1
100
AcDbSymbolTableRecord
100
AcDbBlockTableRecord
  2
block 89
340
0
102
{BLKREFS
331
6DE
102
}
  0
BLOCK_RECORD
  5
6E5
330
1
100
AcDbSymbolTableRecord
100
AcDbBlockTableRecord
  2
block 90
340
0
102
{BLKREFS
331
6E6
102
}
  0
BLOCK_RECORD
  5
6ED
330
1
100
AcDbSymbolTableRecord
100
AcDbBlockTableRecord
  2
block 91
340
0
102
{BLKREFS
331
6EE
102
}
  0
BLOCK_RECORD
  5
6F8
330
1
100
AcDbSymbolTableRecord
100
AcDbBlockTableRecord
  2
block 92
340
0
102
{BLKREFS
331
6F9
102
}
  0
BLOCK_RECORD
  5
703
330
1
100
AcDbSymbolTableRecord
100
AcDbBlockTableRecord
  2
block 93
340
0
102
{BLKREFS
331
704
102
}
  0
BLOCK_RECORD
  5
708
330
1
100
AcDbSymbolTableRecord
100
AcDbBlockTableRecord
  2
block 94
340
0
102
{BLKREFS
331
709
102
}
  0
BLOCK_RECORD
  5
710
330
1
100
AcDbSymbolTableRecord
100
AcDbBlockTableRecord
  2
block 95
340
0
102
{BLKREFS
331
711
102
}
  0
BLOCK_RECORD
  5
718
330
1
100
AcDbSymbolTableRecord
100
AcDbBlockTableRecord
  2
block 96
340
0
102
{BLKREFS
331
719
102
}
  0
BLOCK_RECORD
  5
720
330
1
100
AcDbSymbolTableRecord
100
AcDbBlockTableRecord
  2
block 97
340
0
102
{BLKREFS
331
721
102
}
  0
BLOCK_RECORD
  5
728
330
1
100
AcDbSymbolTableRecord
100
AcDbBlockTableRecord
  2
block 98
340
0
102
{BLKREFS
331
729
102
}
  0
BLOCK_RECORD
  5
730
330
1
100
AcDbSymbolTableRecord
100
AcDbBlockTableRecord
  2
block 99
340
0
102
{BLKREFS
331
731
102
}
  0
BLOCK_RECORD
  5
738
330
1
100
AcDbSymbolTableRecord
100
AcDbBlockTableRecord
  2
block 100
340
0
102
{BLKREFS
331
739
102
}
  0
BLOCK_RECORD
  5
740
330
1
100
AcDbSymbolTableRecord
100
AcDbBlockTableRecord
  2
block 101
340
0
102
{BLKREFS
331
741
102
}
  0
BLOCK_RECORD
  5
748
330
1
100
AcDbSymbolTableRecord
100
AcDbBlockTableRecord
  2
block 102
340
0
102
{BLKREFS
331
749
102
}
  0
BLOCK_RECORD
  5
753
330
1
100
AcDbSymbolTableRecord
100
AcDbBlockTableRecord
  2
block 103
340
0
102
{BLKREFS
331
754
102
}
  0
BLOCK_RECORD
  5
75E
330
1
100
AcDbSymbolTableRecord
100
AcDbBlockTableRecord
  2
block 104
340
0
102
{BLKREFS
331
75F
102
}
  0
BLOCK_RECORD
  5
763
330
1
100
AcDbSymbolTableRecord
100
AcDbBlockTableRecord
  2
block 105
340
0
102
{BLKREFS
331
764
102
}
  0
BLOCK_RECORD
  5
76B
330
1
100
AcDbSymbolTableRecord
100
AcDbBlockTableRecord
  2
block 106
340
0
102
{BLKREFS
331
76C
102
}
  0
BLOCK_RECORD
  5
773
330
1
100
AcDbSymbolTableRecord
100
AcDbBlockTableRecord
  2
block 107
340
0
102
{BLKREFS
331
774
102
}
  0
ENDTAB
  0
ENDSEC
  0
SECTION
  2
BLOCKS
  0
BLOCK
  5
20
330
1F
100
AcDbEntity
  8
0
100
AcDbBlockBegin
  2
*Model_Space
 70
     0
 71
     0
 10
0.0
 20
0.0
 30
0.0
  3
*Model_Space
  1

  0
ENDBLK
  5
21
330
1F
100
AcDbEntity
  8
0
100
AcDbBlockEnd
  0
BLOCK
  5
1C
330
1B
100
AcDbEntity
 67
     1
  8
0
100
AcDbBlockBegin
  2
*Paper_Space
 70
     0
 71
     0
 10
0.0
 20
0.0
 30
0.0
  3
*Paper_Space
  1

  0
ENDBLK
  5
1D
330
1B
100
AcDbEntity
 67
     1
  8
0
100
AcDbBlockEnd
  0
BLOCK
  5
24
330
23
100
AcDbEntity
  8
0
100
AcDbBlockBegin
  2
*Paper_Space0
 70
     0
 71
     0
 10
0.0
 20
0.0
 30
0.0
  3
*Paper_Space0
  1

  0
ENDBLK
  5
25
330
23
100
AcDbEntity
  8
0
100
AcDbBlockEnd
  0
BLOCK
  5
40F
330
40D
100
AcDbEntity
  8
0
100
AcDbBlockBegin
  2
block 2
 70
     0
 71
     0
 10
0.0
 20
0.0
 30
0.0
  3
block 2
  1

  0
POLYLINE
  5
411
330
40D
100
AcDbEntity
  8
cotas
 62
   253
420
 11711154
370
     9
100
AcDb2dPolyline
 66
     1
 10
0.0
 20
0.0
 30
0.0
  0
VERTEX
  5
412
330
411
100
AcDbEntity
  8
cotas
 62
   253
420
 11711154
370
     9
100
AcDbVertex
100
AcDb2dVertex
 10
13.84928385070435
 20
20.32089571974617
 30
0.0
  0
VERTEX
  5
413
330
411
100
AcDbEntity
  8
cotas
 62
   253
420
 11711154
370
     9
100
AcDbVertex
100
AcDb2dVertex
 10
12.52378336275447
 20
20.32089571974617
 30
0.0
  0
SEQEND
  5
414
330
411
100
AcDbEntity
  8
cotas
370
     9
  0
ENDBLK
  5
410
330
40D
100
AcDbEntity
  8
0
100
AcDbBlockEnd
  0
BLOCK
  5
417
330
415
100
AcDbEntity
  8
0
100
AcDbBlockBegin
  2
block 3
 70
     0
 71
     0
 10
0.0
 20
0.0
 30
0.0
  3
block 3
  1

  0
POLYLINE
  5
419
330
415
100
AcDbEntity
  8
cotas
 62
   253
420
 11711154
370
     9
100
AcDb2dPolyline
 66
     1
 10
0.0
 20
0.0
 30
0.0
  0
VERTEX
  5
41A
330
419
100
AcDbEntity
  8
cotas
 62
   253
420
 11711154
370
     9
100
AcDbVertex
100
AcDb2dVertex
 10
13.84928385070435
 20
15.06402451880344
 30
0.0
  0
VERTEX
  5
41B
330
419
100
AcDbEntity
  8
cotas
 62
   253
420
 11711154
370
     9
100
AcDbVertex
100
AcDb2dVertex
 10
12.52378336275447
 20
15.06402451880344
 30
0.0
  0
SEQEND
  5
41C
330
419
100
AcDbEntity
  8
cotas
370
     9
  0
ENDBLK
  5
418
330
415
100
AcDbEntity
  8
0
100
AcDbBlockEnd
  0
BLOCK
  5
41F
330
41D
100
AcDbEntity
  8
0
100
AcDbBlockBegin
  2
block 4
 70
     0
 71
     0
 10
0.0
 20
0.0
 30
0.0
  3
block 4
  1

  0
POLYLINE
  5
421
330
41D
100
AcDbEntity
  8
cotas
 62
   253
420
 11711154
370
     9
100
AcDb2dPolyline
 66
     1
 10
0.0
 20
0.0
 30
0.0
  0
VERTEX
  5
422
330
421
100
AcDbEntity
  8
cotas
 62
   253
420
 11711154
370
     9
100
AcDbVertex
100
AcDb2dVertex
 10
12.7606336773654
 20
19.84719509052431
 30
0.0
  0
VERTEX
  5
423
330
421
100
AcDbEntity
  8
cotas
 62
   253
420
 11711154
370
     9
100
AcDbVertex
100
AcDb2dVertex
 10
12.7606336773654
 20
18.16598849372239
 30
0.0
  0
SEQEND
  5
424
330
421
100
AcDbEntity
  8
cotas
370
     9
  0
ENDBLK
  5
420
330
41D
100
AcDbEntity
  8
0
100
AcDbBlockEnd
  0
BLOCK
  5
427
330
425
100
AcDbEntity
  8
0
100
AcDbBlockBegin
  2
block 5
 70
     0
 71
     0
 10
0.0
 20
0.0
 30
0.0
  3
block 5
  1

  0
POLYLINE
  5
429
330
425
100
AcDbEntity
  8
cotas
 62
   253
420
 11711154
370
     9
100
AcDb2dPolyline
 66
     1
 10
0.0
 20
0.0
 30
0.0
  0
VERTEX
  5
42A
330
429
100
AcDbEntity
  8
cotas
 62
   253
420
 11711154
370
     9
100
AcDbVertex
100
AcDb2dVertex
 10
12.7606336773654
 20
15.53772514802529
 30
0.0
  0
VERTEX
  5
42B
330
429
100
AcDbEntity
  8
cotas
 62
   253
420
 11711154
370
     9
100
AcDbVertex
100
AcDb2dVertex
 10
12.7606336773654
 20
17.21893174482721
 30
0.0
  0
SEQEND
  5
42C
330
429
100
AcDbEntity
  8
cotas
370
     9
  0
ENDBLK
  5
428
330
425
100
AcDbEntity
  8
0
100
AcDbBlockEnd
  0
BLOCK
  5
42F
330
42D
100
AcDbEntity
  8
0
100
AcDbBlockBegin
  2
block 6
 70
     0
 71
     0
 10
0.0
 20
0.0
 30
0.0
  3
block 6
  1

  0
POLYLINE
  5
431
330
42D
100
AcDbEntity
  8
cotas
370
     0
100
AcDb2dPolyline
 66
     1
 10
0.0
 20
0.0
 30
0.0
  0
VERTEX
  5
432
330
431
100
AcDbEntity
  8
cotas
370
     0
100
AcDbVertex
100
AcDb2dVertex
 10
12.83952636397762
 20
19.84719509052431
 30
0.0
  0
VERTEX
  5
433
330
431
100
AcDbEntity
  8
cotas
370
     0
100
AcDbVertex
100
AcDb2dVertex
 10
12.68156873597891
 20
19.84719509052431
 30
0.0
  0
VERTEX
  5
434
330
431
100
AcDbEntity
  8
cotas
370
     0
100
AcDbVertex
100
AcDb2dVertex
 10
12.7606336773654
 20
20.32089571974617
 30
0.0
  0
VERTEX
  5
435
330
431
100
AcDbEntity
  8
cotas
370
     0
100
AcDbVertex
100
AcDb2dVertex
 10
12.83952636397762
 20
19.84719509052431
 30
0.0
  0
SEQEND
  5
436
330
431
100
AcDbEntity
  8
cotas
370
     0
  0
HATCH
  5
437
330
42D
100
AcDbEntity
  8
cotas
 62
   253
420
 11711154
100
AcDbHatch
 10
0.0
 20
0.0
 30
0.0
210
0.0
220
0.0
230
1.0
  2
SOLID
 70
     1
 71
     0
 91
        1
 92
        1
 93
        3
 72
     1
 10
12.83952636397762
 20
19.84719509052431
 11
12.68156873597891
 21
19.84719509052431
 72
     1
 10
12.68156873597891
 20
19.84719509052431
 11
12.7606336773654
 21
20.32089571974617
 72
     1
 10
12.7606336773654
 20
20.32089571974617
 11
12.83952636397762
 21
19.84719509052431
 97
        0
 75
     2
 76
     1
 98
        0
  0
ENDBLK
  5
430
330
42D
100
AcDbEntity
  8
0
100
AcDbBlockEnd
  0
BLOCK
  5
43A
330
438
100
AcDbEntity
  8
0
100
AcDbBlockBegin
  2
block 7
 70
     0
 71
     0
 10
0.0
 20
0.0
 30
0.0
  3
block 7
  1

  0
POLYLINE
  5
43C
330
438
100
AcDbEntity
  8
cotas
370
     0
100
AcDb2dPolyline
 66
     1
 10
0.0
 20
0.0
 30
0.0
  0
VERTEX
  5
43D
330
43C
100
AcDbEntity
  8
cotas
370
     0
100
AcDbVertex
100
AcDb2dVertex
 10
12.68156873597891
 20
15.53772514802529
 30
0.0
  0
VERTEX
  5
43E
330
43C
100
AcDbEntity
  8
cotas
370
     0
100
AcDbVertex
100
AcDb2dVertex
 10
12.83952636397762
 20
15.53772514802529
 30
0.0
  0
VERTEX
  5
43F
330
43C
100
AcDbEntity
  8
cotas
370
     0
100
AcDbVertex
100
AcDb2dVertex
 10
12.7606336773654
 20
15.06402451880344
 30
0.0
  0
VERTEX
  5
440
330
43C
100
AcDbEntity
  8
cotas
370
     0
100
AcDbVertex
100
AcDb2dVertex
 10
12.68156873597891
 20
15.53772514802529
 30
0.0
  0
SEQEND
  5
441
330
43C
100
AcDbEntity
  8
cotas
370
     0
  0
HATCH
  5
442
330
438
100
AcDbEntity
  8
cotas
 62
   253
420
 11711154
100
AcDbHatch
 10
0.0
 20
0.0
 30
0.0
210
0.0
220
0.0
230
1.0
  2
SOLID
 70
     1
 71
     0
 91
        1
 92
        1
 93
        3
 72
     1
 10
12.68156873597891
 20
15.53772514802529
 11
12.83952636397762
 21
15.53772514802529
 72
     1
 10
12.83952636397762
 20
15.53772514802529
 11
12.7606336773654
 21
15.06402451880344
 72
     1
 10
12.7606336773654
 20
15.06402451880344
 11
12.68156873597891
 21
15.53772514802529
 97
        0
 75
     2
 76
     1
 98
        0
  0
ENDBLK
  5
43B
330
438
100
AcDbEntity
  8
0
100
AcDbBlockEnd
  0
BLOCK
  5
445
330
443
100
AcDbEntity
  8
0
100
AcDbBlockBegin
  2
block 8
 70
     0
 71
     0
 10
0.0
 20
0.0
 30
0.0
  3
block 8
  1

  0
MTEXT
  5
447
330
443
100
AcDbEntity
  8
cotas
 62
   253
420
 11711154
100
AcDbMText
 10
12.05008273353262
 20
17.45560980466388
 30
0.0
 40
0.4735742339168865
 41
0.0
 71
     7
 72
     1
  1
\fMyriad Pro|b0|i0|c0|p34;\W1;110
 73
     1
 44
1.0
  0
ENDBLK
  5
446
330
443
100
AcDbEntity
  8
0
100
AcDbBlockEnd
  0
BLOCK
  5
44A
330
448
100
AcDbEntity
  8
0
100
AcDbBlockBegin
  2
block 9
 70
     0
 71
     0
 10
0.0
 20
0.0
 30
0.0
  3
block 9
  1

  0
POLYLINE
  5
44C
330
448
100
AcDbEntity
  8
cotas
 62
   253
420
 11711154
370
     9
100
AcDb2dPolyline
 66
     1
 10
0.0
 20
0.0
 30
0.0
  0
VERTEX
  5
44D
330
44C
100
AcDbEntity
  8
cotas
 62
   253
420
 11711154
370
     9
100
AcDbVertex
100
AcDb2dVertex
 10
14.22807209930757
 20
20.32089571974617
 30
0.0
  0
VERTEX
  5
44E
330
44C
100
AcDbEntity
  8
cotas
 62
   253
420
 11711154
370
     9
100
AcDbVertex
100
AcDb2dVertex
 10
14.22807209930757
 20
20.32089571974617
 30
0.0
  0
SEQEND
  5
44F
330
44C
100
AcDbEntity
  8
cotas
370
     9
  0
ENDBLK
  5
44B
330
448
100
AcDbEntity
  8
0
100
AcDbBlockEnd
  0
BLOCK
  5
452
330
450
100
AcDbEntity
  8
0
100
AcDbBlockBegin
  2
block 10
 70
     0
 71
     0
 10
0.0
 20
0.0
 30
0.0
  3
block 10
  1

  0
POLYLINE
  5
454
330
450
100
AcDbEntity
  8
cotas
 62
   253
420
 11711154
370
     9
100
AcDb2dPolyline
 66
     1
 10
0.0
 20
0.0
 30
0.0
  0
VERTEX
  5
455
330
454
100
AcDbEntity
  8
cotas
 62
   253
420
 11711154
370
     9
100
AcDbVertex
100
AcDb2dVertex
 10
14.22807209930757
 20
15.06402451880344
 30
0.0
  0
VERTEX
  5
456
330
454
100
AcDbEntity
  8
cotas
 62
   253
420
 11711154
370
     9
100
AcDbVertex
100
AcDb2dVertex
 10
14.22807209930757
 20
15.06402451880344
 30
0.0
  0
SEQEND
  5
457
330
454
100
AcDbEntity
  8
cotas
370
     9
  0
ENDBLK
  5
453
330
450
100
AcDbEntity
  8
0
100
AcDbBlockEnd
  0
BLOCK
  5
45A
330
458
100
AcDbEntity
  8
0
100
AcDbBlockBegin
  2
block 11
 70
     0
 71
     0
 10
0.0
 20
0.0
 30
0.0
  3
block 11
  1

  0
POLYLINE
  5
45C
330
458
100
AcDbEntity
  8
cotas
 62
   253
420
 11711154
370
     9
100
AcDb2dPolyline
 66
     1
 10
0.0
 20
0.0
 30
0.0
  0
VERTEX
  5
45D
330
45C
100
AcDbEntity
  8
cotas
 62
   253
420
 11711154
370
     9
100
AcDbVertex
100
AcDb2dVertex
 10
12.7606336773654
 20
15.06402451880344
 30
0.0
  0
VERTEX
  5
45E
330
45C
100
AcDbEntity
  8
cotas
 62
   253
420
 11711154
370
     9
100
AcDbVertex
100
AcDb2dVertex
 10
12.7606336773654
 20
15.06402451880344
 30
0.0
  0
SEQEND
  5
45F
330
45C
100
AcDbEntity
  8
cotas
370
     9
  0
ENDBLK
  5
45B
330
458
100
AcDbEntity
  8
0
100
AcDbBlockEnd
  0
BLOCK
  5
462
330
460
100
AcDbEntity
  8
0
100
AcDbBlockBegin
  2
block 12
 70
     0
 71
     0
 10
0.0
 20
0.0
 30
0.0
  3
block 12
  1

  0
POLYLINE
  5
464
330
460
100
AcDbEntity
  8
cotas
 62
   253
420
 11711154
370
     9
100
AcDb2dPolyline
 66
     1
 10
0.0
 20
0.0
 30
0.0
  0
VERTEX
  5
465
330
464
100
AcDbEntity
  8
cotas
 62
   253
420
 11711154
370
     9
100
AcDbVertex
100
AcDb2dVertex
 10
13.75454372485998
 20
15.06402451880344
 30
0.0
  0
VERTEX
  5
466
330
464
100
AcDbEntity
  8
cotas
 62
   253
420
 11711154
370
     9
100
AcDbVertex
100
AcDb2dVertex
 10
12.52378336275447
 20
15.06402451880344
 30
0.0
  0
SEQEND
  5
467
330
464
100
AcDbEntity
  8
cotas
370
     9
  0
ENDBLK
  5
463
330
460
100
AcDbEntity
  8
0
100
AcDbBlockEnd
  0
BLOCK
  5
46A
330
468
100
AcDbEntity
  8
0
100
AcDbBlockBegin
  2
block 13
 70
     0
 71
     0
 10
0.0
 20
0.0
 30
0.0
  3
block 13
  1

  0
POLYLINE
  5
46C
330
468
100
AcDbEntity
  8
cotas
 62
   253
420
 11711154
370
     9
100
AcDb2dPolyline
 66
     1
 10
0.0
 20
0.0
 30
0.0
  0
VERTEX
  5
46D
330
46C
100
AcDbEntity
  8
cotas
 62
   253
420
 11711154
370
     9
100
AcDbVertex
100
AcDb2dVertex
 10
14.3601915111669
 20
8.268918183696659
 30
0.0
  0
VERTEX
  5
46E
330
46C
100
AcDbEntity
  8
cotas
 62
   253
420
 11711154
370
     9
100
AcDbVertex
100
AcDb2dVertex
 10
12.52378336275447
 20
8.268918183696659
 30
0.0
  0
SEQEND
  5
46F
330
46C
100
AcDbEntity
  8
cotas
370
     9
  0
ENDBLK
  5
46B
330
468
100
AcDbEntity
  8
0
100
AcDbBlockEnd
  0
BLOCK
  5
472
330
470
100
AcDbEntity
  8
0
100
AcDbBlockBegin
  2
block 14
 70
     0
 71
     0
 10
0.0
 20
0.0
 30
0.0
  3
block 14
  1

  0
POLYLINE
  5
474
330
470
100
AcDbEntity
  8
cotas
 62
   253
420
 11711154
370
     9
100
AcDb2dPolyline
 66
     1
 10
0.0
 20
0.0
 30
0.0
  0
VERTEX
  5
475
330
474
100
AcDbEntity
  8
cotas
 62
   253
420
 11711154
370
     9
100
AcDbVertex
100
AcDb2dVertex
 10
12.7606336773654
 20
14.59066839913011
 30
0.0
  0
VERTEX
  5
476
330
474
100
AcDbEntity
  8
cotas
 62
   253
420
 11711154
370
     9
100
AcDbVertex
100
AcDb2dVertex
 10
12.7606336773654
 20
12.1401719804719
 30
0.0
  0
SEQEND
  5
477
330
474
100
AcDbEntity
  8
cotas
370
     9
  0
ENDBLK
  5
473
330
470
100
AcDbEntity
  8
0
100
AcDbBlockEnd
  0
BLOCK
  5
47A
330
478
100
AcDbEntity
  8
0
100
AcDbBlockBegin
  2
block 15
 70
     0
 71
     0
 10
0.0
 20
0.0
 30
0.0
  3
block 15
  1

  0
POLYLINE
  5
47C
330
478
100
AcDbEntity
  8
cotas
 62
   253
420
 11711154
370
     9
100
AcDb2dPolyline
 66
     1
 10
0.0
 20
0.0
 30
0.0
  0
VERTEX
  5
47D
330
47C
100
AcDbEntity
  8
cotas
 62
   253
420
 11711154
370
     9
100
AcDbVertex
100
AcDb2dVertex
 10
12.7606336773654
 20
8.742618812918513
 30
0.0
  0
VERTEX
  5
47E
330
47C
100
AcDbEntity
  8
cotas
 62
   253
420
 11711154
370
     9
100
AcDbVertex
100
AcDb2dVertex
 10
12.7606336773654
 20
11.19311523157672
 30
0.0
  0
SEQEND
  5
47F
330
47C
100
AcDbEntity
  8
cotas
370
     9
  0
ENDBLK
  5
47B
330
478
100
AcDbEntity
  8
0
100
AcDbBlockEnd
  0
BLOCK
  5
482
330
480
100
AcDbEntity
  8
0
100
AcDbBlockBegin
  2
block 16
 70
     0
 71
     0
 10
0.0
 20
0.0
 30
0.0
  3
block 16
  1

  0
POLYLINE
  5
484
330
480
100
AcDbEntity
  8
cotas
370
     0
100
AcDb2dPolyline
 66
     1
 10
0.0
 20
0.0
 30
0.0
  0
VERTEX
  5
485
330
484
100
AcDbEntity
  8
cotas
370
     0
100
AcDbVertex
100
AcDb2dVertex
 10
12.83952636397762
 20
14.59066839913011
 30
0.0
  0
VERTEX
  5
486
330
484
100
AcDbEntity
  8
cotas
370
     0
100
AcDbVertex
100
AcDb2dVertex
 10
12.68156873597891
 20
14.59066839913011
 30
0.0
  0
VERTEX
  5
487
330
484
100
AcDbEntity
  8
cotas
370
     0
100
AcDbVertex
100
AcDb2dVertex
 10
12.7606336773654
 20
15.06402451880344
 30
0.0
  0
VERTEX
  5
488
330
484
100
AcDbEntity
  8
cotas
370
     0
100
AcDbVertex
100
AcDb2dVertex
 10
12.83952636397762
 20
14.59066839913011
 30
0.0
  0
SEQEND
  5
489
330
484
100
AcDbEntity
  8
cotas
370
     0
  0
HATCH
  5
48A
330
480
100
AcDbEntity
  8
cotas
 62
   253
420
 11711154
100
AcDbHatch
 10
0.0
 20
0.0
 30
0.0
210
0.0
220
0.0
230
1.0
  2
SOLID
 70
     1
 71
     0
 91
        1
 92
        1
 93
        3
 72
     1
 10
12.83952636397762
 20
14.59066839913011
 11
12.68156873597891
 21
14.59066839913011
 72
     1
 10
12.68156873597891
 20
14.59066839913011
 11
12.7606336773654
 21
15.06402451880344
 72
     1
 10
12.7606336773654
 20
15.06402451880344
 11
12.83952636397762
 21
14.59066839913011
 97
        0
 75
     2
 76
     1
 98
        0
  0
ENDBLK
  5
483
330
480
100
AcDbEntity
  8
0
100
AcDbBlockEnd
  0
BLOCK
  5
48D
330
48B
100
AcDbEntity
  8
0
100
AcDbBlockBegin
  2
block 17
 70
     0
 71
     0
 10
0.0
 20
0.0
 30
0.0
  3
block 17
  1

  0
POLYLINE
  5
48F
330
48B
100
AcDbEntity
  8
cotas
370
     0
100
AcDb2dPolyline
 66
     1
 10
0.0
 20
0.0
 30
0.0
  0
VERTEX
  5
490
330
48F
100
AcDbEntity
  8
cotas
370
     0
100
AcDbVertex
100
AcDb2dVertex
 10
12.68156873597891
 20
8.742618812918513
 30
0.0
  0
VERTEX
  5
491
330
48F
100
AcDbEntity
  8
cotas
370
     0
100
AcDbVertex
100
AcDb2dVertex
 10
12.83952636397762
 20
8.742618812918513
 30
0.0
  0
VERTEX
  5
492
330
48F
100
AcDbEntity
  8
cotas
370
     0
100
AcDbVertex
100
AcDb2dVertex
 10
12.7606336773654
 20
8.268918183696659
 30
0.0
  0
VERTEX
  5
493
330
48F
100
AcDbEntity
  8
cotas
370
     0
100
AcDbVertex
100
AcDb2dVertex
 10
12.68156873597891
 20
8.742618812918513
 30
0.0
  0
SEQEND
  5
494
330
48F
100
AcDbEntity
  8
cotas
370
     0
  0
HATCH
  5
495
330
48B
100
AcDbEntity
  8
cotas
 62
   253
420
 11711154
100
AcDbHatch
 10
0.0
 20
0.0
 30
0.0
210
0.0
220
0.0
230
1.0
  2
SOLID
 70
     1
 71
     0
 91
        1
 92
        1
 93
        3
 72
     1
 10
12.68156873597891
 20
8.742618812918513
 11
12.83952636397762
 21
8.742618812918513
 72
     1
 10
12.83952636397762
 20
8.742618812918513
 11
12.7606336773654
 21
8.268918183696659
 72
     1
 10
12.7606336773654
 20
8.268918183696659
 11
12.68156873597891
 21
8.742618812918513
 97
        0
 75
     2
 76
     1
 98
        0
  0
ENDBLK
  5
48E
330
48B
100
AcDbEntity
  8
0
100
AcDbBlockEnd
  0
BLOCK
  5
498
330
496
100
AcDbEntity
  8
0
100
AcDbBlockBegin
  2
block 18
 70
     0
 71
     0
 10
0.0
 20
0.0
 30
0.0
  3
block 18
  1

  0
MTEXT
  5
49A
330
496
100
AcDbEntity
  8
cotas
 62
   253
420
 11711154
100
AcDbMText
 10
12.072648108961
 20
11.42979329141339
 30
0.0
 40
0.4735742339168865
 41
0.0
 71
     7
 72
     1
  1
\fMyriad Pro|b0|i0|c0|p34;\W1;600
 73
     1
 44
1.0
  0
ENDBLK
  5
499
330
496
100
AcDbEntity
  8
0
100
AcDbBlockEnd
  0
BLOCK
  5
49D
330
49B
100
AcDbEntity
  8
0
100
AcDbBlockBegin
  2
block 19
 70
     0
 71
     0
 10
0.0
 20
0.0
 30
0.0
  3
block 19
  1

  0
POLYLINE
  5
49F
330
49B
100
AcDbEntity
  8
cotas
 62
   253
420
 11711154
370
     9
100
AcDb2dPolyline
 66
     1
 10
0.0
 20
0.0
 30
0.0
  0
VERTEX
  5
4A0
330
49F
100
AcDbEntity
  8
cotas
 62
   253
420
 11711154
370
     9
100
AcDbVertex
100
AcDb2dVertex
 10
14.13333197346319
 20
15.06402451880344
 30
0.0
  0
VERTEX
  5
4A1
330
49F
100
AcDbEntity
  8
cotas
 62
   253
420
 11711154
370
     9
100
AcDbVertex
100
AcDb2dVertex
 10
14.13333197346319
 20
15.06402451880344
 30
0.0
  0
SEQEND
  5
4A2
330
49F
100
AcDbEntity
  8
cotas
370
     9
  0
ENDBLK
  5
49E
330
49B
100
AcDbEntity
  8
0
100
AcDbBlockEnd
  0
BLOCK
  5
4A5
330
4A3
100
AcDbEntity
  8
0
100
AcDbBlockBegin
  2
block 20
 70
     0
 71
     0
 10
0.0
 20
0.0
 30
0.0
  3
block 20
  1

  0
POLYLINE
  5
4A7
330
4A3
100
AcDbEntity
  8
cotas
 62
   253
420
 11711154
370
     9
100
AcDb2dPolyline
 66
     1
 10
0.0
 20
0.0
 30
0.0
  0
VERTEX
  5
4A8
330
4A7
100
AcDbEntity
  8
cotas
 62
   253
420
 11711154
370
     9
100
AcDbVertex
100
AcDb2dVertex
 10
14.73897975977012
 20
8.268918183696659
 30
0.0
  0
VERTEX
  5
4A9
330
4A7
100
AcDbEntity
  8
cotas
 62
   253
420
 11711154
370
     9
100
AcDbVertex
100
AcDb2dVertex
 10
14.73897975977012
 20
8.268918183696659
 30
0.0
  0
SEQEND
  5
4AA
330
4A7
100
AcDbEntity
  8
cotas
370
     9
  0
ENDBLK
  5
4A6
330
4A3
100
AcDbEntity
  8
0
100
AcDbBlockEnd
  0
BLOCK
  5
4AD
330
4AB
100
AcDbEntity
  8
0
100
AcDbBlockBegin
  2
block 21
 70
     0
 71
     0
 10
0.0
 20
0.0
 30
0.0
  3
block 21
  1

  0
POLYLINE
  5
4AF
330
4AB
100
AcDbEntity
  8
cotas
 62
   253
420
 11711154
370
     9
100
AcDb2dPolyline
 66
     1
 10
0.0
 20
0.0
 30
0.0
  0
VERTEX
  5
4B0
330
4AF
100
AcDbEntity
  8
cotas
 62
   253
420
 11711154
370
     9
100
AcDbVertex
100
AcDb2dVertex
 10
12.7606336773654
 20
8.268918183696659
 30
0.0
  0
VERTEX
  5
4B1
330
4AF
100
AcDbEntity
  8
cotas
 62
   253
420
 11711154
370
     9
100
AcDbVertex
100
AcDb2dVertex
 10
12.7606336773654
 20
8.268918183696659
 30
0.0
  0
SEQEND
  5
4B2
330
4AF
100
AcDbEntity
  8
cotas
370
     9
  0
ENDBLK
  5
4AE
330
4AB
100
AcDbEntity
  8
0
100
AcDbBlockEnd
  0
BLOCK
  5
4B5
330
4B3
100
AcDbEntity
  8
0
100
AcDbBlockBegin
  2
block 22
 70
     0
 71
     0
 10
0.0
 20
0.0
 30
0.0
  3
block 22
  1

  0
POLYLINE
  5
4B7
330
4B3
100
AcDbEntity
  8
cotas
 62
   253
420
 11711154
370
     9
100
AcDb2dPolyline
 66
     1
 10
0.0
 20
0.0
 30
0.0
  0
VERTEX
  5
4B8
330
4B7
100
AcDbEntity
  8
cotas
 62
   253
420
 11711154
370
     9
100
AcDbVertex
100
AcDb2dVertex
 10
15.58457844662469
 20
7.875488279281129
 30
0.0
  0
VERTEX
  5
4B9
330
4B7
100
AcDbEntity
  8
cotas
 62
   253
420
 11711154
370
     9
100
AcDbVertex
100
AcDb2dVertex
 10
15.58457844662469
 20
6.422002494054222
 30
0.0
  0
SEQEND
  5
4BA
330
4B7
100
AcDbEntity
  8
cotas
370
     9
  0
ENDBLK
  5
4B6
330
4B3
100
AcDbEntity
  8
0
100
AcDbBlockEnd
  0
BLOCK
  5
4BD
330
4BB
100
AcDbEntity
  8
0
100
AcDbBlockBegin
  2
block 23
 70
     0
 71
     0
 10
0.0
 20
0.0
 30
0.0
  3
block 23
  1

  0
POLYLINE
  5
4BF
330
4BB
100
AcDbEntity
  8
cotas
 62
   253
420
 11711154
370
     9
100
AcDb2dPolyline
 66
     1
 10
0.0
 20
0.0
 30
0.0
  0
VERTEX
  5
4C0
330
4BF
100
AcDbEntity
  8
cotas
 62
   253
420
 11711154
370
     9
100
AcDbVertex
100
AcDb2dVertex
 10
16.21520317519967
 20
7.875488279281129
 30
0.0
  0
VERTEX
  5
4C1
330
4BF
100
AcDbEntity
  8
cotas
 62
   253
420
 11711154
370
     9
100
AcDbVertex
100
AcDb2dVertex
 10
16.21520317519967
 20
6.422002494054222
 30
0.0
  0
SEQEND
  5
4C2
330
4BF
100
AcDbEntity
  8
cotas
370
     9
  0
ENDBLK
  5
4BE
330
4BB
100
AcDbEntity
  8
0
100
AcDbBlockEnd
  0
BLOCK
  5
4C5
330
4C3
100
AcDbEntity
  8
0
100
AcDbBlockBegin
  2
block 24
 70
     0
 71
     0
 10
0.0
 20
0.0
 30
0.0
  3
block 24
  1

  0
POLYLINE
  5
4C7
330
4C3
100
AcDbEntity
  8
cotas
 62
   253
420
 11711154
370
     9
100
AcDb2dPolyline
 66
     1
 10
0.0
 20
0.0
 30
0.0
  0
VERTEX
  5
4C8
330
4C7
100
AcDbEntity
  8
cotas
 62
   253
420
 11711154
370
     9
100
AcDbVertex
100
AcDb2dVertex
 10
16.21520317519967
 20
6.658680553890886
 30
0.0
  0
VERTEX
  5
4C9
330
4C7
100
AcDbEntity
  8
cotas
 62
   253
420
 11711154
370
     9
100
AcDbVertex
100
AcDb2dVertex
 10
17.24132486548134
 20
6.658680553890886
 30
0.0
  0
SEQEND
  5
4CA
330
4C7
100
AcDbEntity
  8
cotas
370
     9
  0
ENDBLK
  5
4C6
330
4C3
100
AcDbEntity
  8
0
100
AcDbBlockEnd
  0
BLOCK
  5
4CD
330
4CB
100
AcDbEntity
  8
0
100
AcDbBlockBegin
  2
block 25
 70
     0
 71
     0
 10
0.0
 20
0.0
 30
0.0
  3
block 25
  1

  0
POLYLINE
  5
4CF
330
4CB
100
AcDbEntity
  8
cotas
 62
   253
420
 11711154
370
     9
100
AcDb2dPolyline
 66
     1
 10
0.0
 20
0.0
 30
0.0
  0
VERTEX
  5
4D0
330
4CF
100
AcDbEntity
  8
cotas
 62
   253
420
 11711154
370
     9
100
AcDbVertex
100
AcDb2dVertex
 10
15.1110500721771
 20
6.658680553890886
 30
0.0
  0
VERTEX
  5
4D1
330
4CF
100
AcDbEntity
  8
cotas
 62
   253
420
 11711154
370
     9
100
AcDbVertex
100
AcDb2dVertex
 10
14.63734944295525
 20
6.658680553890886
 30
0.0
  0
SEQEND
  5
4D2
330
4CF
100
AcDbEntity
  8
cotas
370
     9
  0
ENDBLK
  5
4CE
330
4CB
100
AcDbEntity
  8
0
100
AcDbBlockEnd
  0
BLOCK
  5
4D5
330
4D3
100
AcDbEntity
  8
0
100
AcDbBlockBegin
  2
block 26
 70
     0
 71
     0
 10
0.0
 20
0.0
 30
0.0
  3
block 26
  1

  0
POLYLINE
  5
4D7
330
4D3
100
AcDbEntity
  8
cotas
 62
   253
420
 11711154
370
     9
100
AcDb2dPolyline
 66
     1
 10
0.0
 20
0.0
 30
0.0
  0
VERTEX
  5
4D8
330
4D7
100
AcDbEntity
  8
cotas
 62
   253
420
 11711154
370
     9
100
AcDbVertex
100
AcDb2dVertex
 10
16.68890380442152
 20
6.658680553890886
 30
0.0
  0
VERTEX
  5
4D9
330
4D7
100
AcDbEntity
  8
cotas
 62
   253
420
 11711154
370
     9
100
AcDbVertex
100
AcDb2dVertex
 10
17.16243217886911
 20
6.658680553890886
 30
0.0
  0
SEQEND
  5
4DA
330
4D7
100
AcDbEntity
  8
cotas
370
     9
  0
ENDBLK
  5
4D6
330
4D3
100
AcDbEntity
  8
0
100
AcDbBlockEnd
  0
BLOCK
  5
4DD
330
4DB
100
AcDbEntity
  8
0
100
AcDbBlockBegin
  2
block 27
 70
     0
 71
     0
 10
0.0
 20
0.0
 30
0.0
  3
block 27
  1

  0
POLYLINE
  5
4DF
330
4DB
100
AcDbEntity
  8
cotas
370
     0
100
AcDb2dPolyline
 66
     1
 10
0.0
 20
0.0
 30
0.0
  0
VERTEX
  5
4E0
330
4DF
100
AcDbEntity
  8
cotas
370
     0
100
AcDbVertex
100
AcDb2dVertex
 10
15.1110500721771
 20
6.579787867278664
 30
0.0
  0
VERTEX
  5
4E1
330
4DF
100
AcDbEntity
  8
cotas
370
     0
100
AcDbVertex
100
AcDb2dVertex
 10
15.1110500721771
 20
6.737573240503107
 30
0.0
  0
VERTEX
  5
4E2
330
4DF
100
AcDbEntity
  8
cotas
370
     0
100
AcDbVertex
100
AcDb2dVertex
 10
15.58457844662469
 20
6.658680553890886
 30
0.0
  0
VERTEX
  5
4E3
330
4DF
100
AcDbEntity
  8
cotas
370
     0
100
AcDbVertex
100
AcDb2dVertex
 10
15.1110500721771
 20
6.579787867278664
 30
0.0
  0
SEQEND
  5
4E4
330
4DF
100
AcDbEntity
  8
cotas
370
     0
  0
HATCH
  5
4E5
330
4DB
100
AcDbEntity
  8
cotas
 62
   253
420
 11711154
100
AcDbHatch
 10
0.0
 20
0.0
 30
0.0
210
0.0
220
0.0
230
1.0
  2
SOLID
 70
     1
 71
     0
 91
        1
 92
        1
 93
        3
 72
     1
 10
15.1110500721771
 20
6.579787867278664
 11
15.1110500721771
 21
6.737573240503107
 72
     1
 10
15.1110500721771
 20
6.737573240503107
 11
15.58457844662469
 21
6.658680553890886
 72
     1
 10
15.58457844662469
 20
6.658680553890886
 11
15.1110500721771
 21
6.579787867278664
 97
        0
 75
     2
 76
     1
 98
        0
  0
ENDBLK
  5
4DE
330
4DB
100
AcDbEntity
  8
0
100
AcDbBlockEnd
  0
BLOCK
  5
4E8
330
4E6
100
AcDbEntity
  8
0
100
AcDbBlockBegin
  2
block 28
 70
     0
 71
     0
 10
0.0
 20
0.0
 30
0.0
  3
block 28
  1

  0
POLYLINE
  5
4EA
330
4E6
100
AcDbEntity
  8
cotas
370
     0
100
AcDb2dPolyline
 66
     1
 10
0.0
 20
0.0
 30
0.0
  0
VERTEX
  5
4EB
330
4EA
100
AcDbEntity
  8
cotas
370
     0
100
AcDbVertex
100
AcDb2dVertex
 10
16.68890380442152
 20
6.737573240503107
 30
0.0
  0
VERTEX
  5
4EC
330
4EA
100
AcDbEntity
  8
cotas
370
     0
100
AcDbVertex
100
AcDb2dVertex
 10
16.68890380442152
 20
6.579787867278664
 30
0.0
  0
VERTEX
  5
4ED
330
4EA
100
AcDbEntity
  8
cotas
370
     0
100
AcDbVertex
100
AcDb2dVertex
 10
16.21520317519967
 20
6.658680553890886
 30
0.0
  0
VERTEX
  5
4EE
330
4EA
100
AcDbEntity
  8
cotas
370
     0
100
AcDbVertex
100
AcDb2dVertex
 10
16.68890380442152
 20
6.737573240503107
 30
0.0
  0
SEQEND
  5
4EF
330
4EA
100
AcDbEntity
  8
cotas
370
     0
  0
HATCH
  5
4F0
330
4E6
100
AcDbEntity
  8
cotas
 62
   253
420
 11711154
100
AcDbHatch
 10
0.0
 20
0.0
 30
0.0
210
0.0
220
0.0
230
1.0
  2
SOLID
 70
     1
 71
     0
 91
        1
 92
        1
 93
        3
 72
     1
 10
16.68890380442152
 20
6.737573240503107
 11
16.68890380442152
 21
6.579787867278664
 72
     1
 10
16.68890380442152
 20
6.579787867278664
 11
16.21520317519967
 21
6.658680553890886
 72
     1
 10
16.21520317519967
 20
6.658680553890886
 11
16.68890380442152
 21
6.737573240503107
 97
        0
 75
     2
 76
     1
 98
        0
  0
ENDBLK
  5
4E9
330
4E6
100
AcDbEntity
  8
0
100
AcDbBlockEnd
  0
BLOCK
  5
4F3
330
4F1
100
AcDbEntity
  8
0
100
AcDbBlockBegin
  2
block 29
 70
     0
 71
     0
 10
0.0
 20
0.0
 30
0.0
  3
block 29
  1

  0
MTEXT
  5
4F5
330
4F1
100
AcDbEntity
  8
cotas
 62
   253
420
 11711154
100
AcDbMText
 10
17.3090209917665
 20
6.501239690214968
 30
0.0
 40
0.4735742339168865
 41
0.0
 71
     7
 72
     1
  1
\fMyriad Pro|b0|i0|c0|p34;\W1;R1/2"
 73
     1
 44
1.0
  0
ENDBLK
  5
4F4
330
4F1
100
AcDbEntity
  8
0
100
AcDbBlockEnd
  0
BLOCK
  5
4F8
330
4F6
100
AcDbEntity
  8
0
100
AcDbBlockBegin
  2
block 30
 70
     0
 71
     0
 10
0.0
 20
0.0
 30
0.0
  3
block 30
  1

  0
POLYLINE
  5
4FA
330
4F6
100
AcDbEntity
  8
cotas
 62
   253
420
 11711154
370
     9
100
AcDb2dPolyline
 66
     1
 10
0.0
 20
0.0
 30
0.0
  0
VERTEX
  5
4FB
330
4FA
100
AcDbEntity
  8
cotas
 62
   253
420
 11711154
370
     9
100
AcDbVertex
100
AcDb2dVertex
 10
15.58457844662469
 20
8.25444878265861
 30
0.0
  0
VERTEX
  5
4FC
330
4FA
100
AcDbEntity
  8
cotas
 62
   253
420
 11711154
370
     9
100
AcDbVertex
100
AcDb2dVertex
 10
15.58457844662469
 20
8.25444878265861
 30
0.0
  0
SEQEND
  5
4FD
330
4FA
100
AcDbEntity
  8
cotas
370
     9
  0
ENDBLK
  5
4F9
330
4F6
100
AcDbEntity
  8
0
100
AcDbBlockEnd
  0
BLOCK
  5
500
330
4FE
100
AcDbEntity
  8
0
100
AcDbBlockBegin
  2
block 31
 70
     0
 71
     0
 10
0.0
 20
0.0
 30
0.0
  3
block 31
  1

  0
POLYLINE
  5
502
330
4FE
100
AcDbEntity
  8
cotas
 62
   253
420
 11711154
370
     9
100
AcDb2dPolyline
 66
     1
 10
0.0
 20
0.0
 30
0.0
  0
VERTEX
  5
503
330
502
100
AcDbEntity
  8
cotas
 62
   253
420
 11711154
370
     9
100
AcDbVertex
100
AcDb2dVertex
 10
16.21520317519967
 20
8.25444878265861
 30
0.0
  0
VERTEX
  5
504
330
502
100
AcDbEntity
  8
cotas
 62
   253
420
 11711154
370
     9
100
AcDbVertex
100
AcDb2dVertex
 10
16.21520317519967
 20
8.25444878265861
 30
0.0
  0
SEQEND
  5
505
330
502
100
AcDbEntity
  8
cotas
370
     9
  0
ENDBLK
  5
501
330
4FE
100
AcDbEntity
  8
0
100
AcDbBlockEnd
  0
BLOCK
  5
508
330
506
100
AcDbEntity
  8
0
100
AcDbBlockBegin
  2
block 32
 70
     0
 71
     0
 10
0.0
 20
0.0
 30
0.0
  3
block 32
  1

  0
POLYLINE
  5
50A
330
506
100
AcDbEntity
  8
cotas
 62
   253
420
 11711154
370
     9
100
AcDb2dPolyline
 66
     1
 10
0.0
 20
0.0
 30
0.0
  0
VERTEX
  5
50B
330
50A
100
AcDbEntity
  8
cotas
 62
   253
420
 11711154
370
     9
100
AcDbVertex
100
AcDb2dVertex
 10
16.21520317519967
 20
6.658680553890886
 30
0.0
  0
VERTEX
  5
50C
330
50A
100
AcDbEntity
  8
cotas
 62
   253
420
 11711154
370
     9
100
AcDbVertex
100
AcDb2dVertex
 10
16.21520317519967
 20
6.658680553890886
 30
0.0
  0
SEQEND
  5
50D
330
50A
100
AcDbEntity
  8
cotas
370
     9
  0
ENDBLK
  5
509
330
506
100
AcDbEntity
  8
0
100
AcDbBlockEnd
  0
BLOCK
  5
510
330
50E
100
AcDbEntity
  8
0
100
AcDbBlockBegin
  2
block 33
 70
     0
 71
     0
 10
0.0
 20
0.0
 30
0.0
  3
block 33
  1

  0
POLYLINE
  5
512
330
50E
100
AcDbEntity
  8
cotas
 62
   253
420
 11711154
370
     9
100
AcDb2dPolyline
 66
     1
 10
0.0
 20
0.0
 30
0.0
  0
VERTEX
  5
513
330
512
100
AcDbEntity
  8
cotas
 62
   253
420
 11711154
370
     9
100
AcDbVertex
100
AcDb2dVertex
 10
26.03355305338745
 20
15.18735893717538
 30
0.0
  0
VERTEX
  5
514
330
512
100
AcDbEntity
  8
cotas
 62
   253
420
 11711154
370
     9
100
AcDbVertex
100
AcDb2dVertex
 10
26.95098198110948
 20
15.18735893717538
 30
0.0
  0
SEQEND
  5
515
330
512
100
AcDbEntity
  8
cotas
370
     9
  0
ENDBLK
  5
511
330
50E
100
AcDbEntity
  8
0
100
AcDbBlockEnd
  0
BLOCK
  5
518
330
516
100
AcDbEntity
  8
0
100
AcDbBlockBegin
  2
block 34
 70
     0
 71
     0
 10
0.0
 20
0.0
 30
0.0
  3
block 34
  1

  0
POLYLINE
  5
51A
330
516
100
AcDbEntity
  8
cotas
 62
   253
420
 11711154
370
     9
100
AcDb2dPolyline
 66
     1
 10
0.0
 20
0.0
 30
0.0
  0
VERTEX
  5
51B
330
51A
100
AcDbEntity
  8
cotas
 62
   253
420
 11711154
370
     9
100
AcDbVertex
100
AcDb2dVertex
 10
25.37071668202538
 20
13.8141438767548
 30
0.0
  0
VERTEX
  5
51C
330
51A
100
AcDbEntity
  8
cotas
 62
   253
420
 11711154
370
     9
100
AcDbVertex
100
AcDb2dVertex
 10
26.95098198110948
 20
13.8141438767548
 30
0.0
  0
SEQEND
  5
51D
330
51A
100
AcDbEntity
  8
cotas
370
     9
  0
ENDBLK
  5
519
330
516
100
AcDbEntity
  8
0
100
AcDbBlockEnd
  0
BLOCK
  5
520
330
51E
100
AcDbEntity
  8
0
100
AcDbBlockBegin
  2
block 35
 70
     0
 71
     0
 10
0.0
 20
0.0
 30
0.0
  3
block 35
  1

  0
POLYLINE
  5
522
330
51E
100
AcDbEntity
  8
cotas
 62
   253
420
 11711154
370
     9
100
AcDb2dPolyline
 66
     1
 10
0.0
 20
0.0
 30
0.0
  0
VERTEX
  5
523
330
522
100
AcDbEntity
  8
cotas
 62
   253
420
 11711154
370
     9
100
AcDbVertex
100
AcDb2dVertex
 10
26.71430392127282
 20
15.66071505684871
 30
0.0
  0
VERTEX
  5
524
330
522
100
AcDbEntity
  8
cotas
 62
   253
420
 11711154
370
     9
100
AcDbVertex
100
AcDb2dVertex
 10
26.71430392127282
 20
16.13441568607056
 30
0.0
  0
SEQEND
  5
525
330
522
100
AcDbEntity
  8
cotas
370
     9
  0
ENDBLK
  5
521
330
51E
100
AcDbEntity
  8
0
100
AcDbBlockEnd
  0
BLOCK
  5
528
330
526
100
AcDbEntity
  8
0
100
AcDbBlockBegin
  2
block 36
 70
     0
 71
     0
 10
0.0
 20
0.0
 30
0.0
  3
block 36
  1

  0
POLYLINE
  5
52A
330
526
100
AcDbEntity
  8
cotas
 62
   253
420
 11711154
370
     9
100
AcDb2dPolyline
 66
     1
 10
0.0
 20
0.0
 30
0.0
  0
VERTEX
  5
52B
330
52A
100
AcDbEntity
  8
cotas
 62
   253
420
 11711154
370
     9
100
AcDbVertex
100
AcDb2dVertex
 10
26.71430392127282
 20
13.34009873798442
 30
0.0
  0
VERTEX
  5
52C
330
52A
100
AcDbEntity
  8
cotas
 62
   253
420
 11711154
370
     9
100
AcDbVertex
100
AcDb2dVertex
 10
26.71430392127282
 20
12.86674261831109
 30
0.0
  0
SEQEND
  5
52D
330
52A
100
AcDbEntity
  8
cotas
370
     9
  0
ENDBLK
  5
529
330
526
100
AcDbEntity
  8
0
100
AcDbBlockEnd
  0
BLOCK
  5
530
330
52E
100
AcDbEntity
  8
0
100
AcDbBlockBegin
  2
block 37
 70
     0
 71
     0
 10
0.0
 20
0.0
 30
0.0
  3
block 37
  1

  0
POLYLINE
  5
532
330
52E
100
AcDbEntity
  8
cotas
370
     0
100
AcDb2dPolyline
 66
     1
 10
0.0
 20
0.0
 30
0.0
  0
VERTEX
  5
533
330
532
100
AcDbEntity
  8
cotas
370
     0
100
AcDbVertex
100
AcDb2dVertex
 10
26.63541123466059
 20
15.66071505684871
 30
0.0
  0
VERTEX
  5
534
330
532
100
AcDbEntity
  8
cotas
370
     0
100
AcDbVertex
100
AcDb2dVertex
 10
26.79319660788504
 20
15.66071505684871
 30
0.0
  0
VERTEX
  5
535
330
532
100
AcDbEntity
  8
cotas
370
     0
100
AcDbVertex
100
AcDb2dVertex
 10
26.71430392127282
 20
15.18735893717538
 30
0.0
  0
VERTEX
  5
536
330
532
100
AcDbEntity
  8
cotas
370
     0
100
AcDbVertex
100
AcDb2dVertex
 10
26.63541123466059
 20
15.66071505684871
 30
0.0
  0
SEQEND
  5
537
330
532
100
AcDbEntity
  8
cotas
370
     0
  0
HATCH
  5
538
330
52E
100
AcDbEntity
  8
cotas
 62
   253
420
 11711154
100
AcDbHatch
 10
0.0
 20
0.0
 30
0.0
210
0.0
220
0.0
230
1.0
  2
SOLID
 70
     1
 71
     0
 91
        1
 92
        1
 93
        3
 72
     1
 10
26.63541123466059
 20
15.66071505684871
 11
26.79319660788504
 21
15.66071505684871
 72
     1
 10
26.79319660788504
 20
15.66071505684871
 11
26.71430392127282
 21
15.18735893717538
 72
     1
 10
26.71430392127282
 20
15.18735893717538
 11
26.63541123466059
 21
15.66071505684871
 97
        0
 75
     2
 76
     1
 98
        0
  0
ENDBLK
  5
531
330
52E
100
AcDbEntity
  8
0
100
AcDbBlockEnd
  0
BLOCK
  5
53B
330
539
100
AcDbEntity
  8
0
100
AcDbBlockBegin
  2
block 38
 70
     0
 71
     0
 10
0.0
 20
0.0
 30
0.0
  3
block 38
  1

  0
POLYLINE
  5
53D
330
539
100
AcDbEntity
  8
cotas
370
     0
100
AcDb2dPolyline
 66
     1
 10
0.0
 20
0.0
 30
0.0
  0
VERTEX
  5
53E
330
53D
100
AcDbEntity
  8
cotas
370
     0
100
AcDbVertex
100
AcDb2dVertex
 10
26.79319660788504
 20
13.34009873798442
 30
0.0
  0
VERTEX
  5
53F
330
53D
100
AcDbEntity
  8
cotas
370
     0
100
AcDbVertex
100
AcDb2dVertex
 10
26.63541123466059
 20
13.34009873798442
 30
0.0
  0
VERTEX
  5
540
330
53D
100
AcDbEntity
  8
cotas
370
     0
100
AcDbVertex
100
AcDb2dVertex
 10
26.71430392127282
 20
13.8141438767548
 30
0.0
  0
VERTEX
  5
541
330
53D
100
AcDbEntity
  8
cotas
370
     0
100
AcDbVertex
100
AcDb2dVertex
 10
26.79319660788504
 20
13.34009873798442
 30
0.0
  0
SEQEND
  5
542
330
53D
100
AcDbEntity
  8
cotas
370
     0
  0
HATCH
  5
543
330
539
100
AcDbEntity
  8
cotas
 62
   253
420
 11711154
100
AcDbHatch
 10
0.0
 20
0.0
 30
0.0
210
0.0
220
0.0
230
1.0
  2
SOLID
 70
     1
 71
     0
 91
        1
 92
        1
 93
        3
 72
     1
 10
26.79319660788504
 20
13.34009873798442
 11
26.63541123466059
 21
13.34009873798442
 72
     1
 10
26.63541123466059
 20
13.34009873798442
 11
26.71430392127282
 21
13.8141438767548
 72
     1
 10
26.71430392127282
 20
13.8141438767548
 11
26.79319660788504
 21
13.34009873798442
 97
        0
 75
     2
 76
     1
 98
        0
  0
ENDBLK
  5
53C
330
539
100
AcDbEntity
  8
0
100
AcDbBlockEnd
  0
BLOCK
  5
546
330
544
100
AcDbEntity
  8
0
100
AcDbBlockBegin
  2
block 39
 70
     0
 71
     0
 10
0.0
 20
0.0
 30
0.0
  3
block 39
  1

  0
MTEXT
  5
548
330
544
100
AcDbEntity
  8
cotas
 62
   253
420
 11711154
100
AcDbMText
 10
26.26334092225361
 20
14.26407334712843
 30
0.0
 40
0.4735742339168865
 41
0.0
 71
     7
 72
     1
  1
\fMyriad Pro|b0|i0|c0|p34;\W1;30
 73
     1
 44
1.0
  0
ENDBLK
  5
547
330
544
100
AcDbEntity
  8
0
100
AcDbBlockEnd
  0
BLOCK
  5
54B
330
549
100
AcDbEntity
  8
0
100
AcDbBlockBegin
  2
block 40
 70
     0
 71
     0
 10
0.0
 20
0.0
 30
0.0
  3
block 40
  1

  0
POLYLINE
  5
54D
330
549
100
AcDbEntity
  8
cotas
 62
   253
420
 11711154
370
     9
100
AcDb2dPolyline
 66
     1
 10
0.0
 20
0.0
 30
0.0
  0
VERTEX
  5
54E
330
54D
100
AcDbEntity
  8
cotas
 62
   253
420
 11711154
370
     9
100
AcDbVertex
100
AcDb2dVertex
 10
25.65459255000997
 20
15.18735893717538
 30
0.0
  0
VERTEX
  5
54F
330
54D
100
AcDbEntity
  8
cotas
 62
   253
420
 11711154
370
     9
100
AcDbVertex
100
AcDb2dVertex
 10
25.65459255000997
 20
15.18735893717538
 30
0.0
  0
SEQEND
  5
550
330
54D
100
AcDbEntity
  8
cotas
370
     9
  0
ENDBLK
  5
54C
330
549
100
AcDbEntity
  8
0
100
AcDbBlockEnd
  0
BLOCK
  5
553
330
551
100
AcDbEntity
  8
0
100
AcDbBlockBegin
  2
block 41
 70
     0
 71
     0
 10
0.0
 20
0.0
 30
0.0
  3
block 41
  1

  0
POLYLINE
  5
555
330
551
100
AcDbEntity
  8
cotas
 62
   253
420
 11711154
370
     9
100
AcDb2dPolyline
 66
     1
 10
0.0
 20
0.0
 30
0.0
  0
VERTEX
  5
556
330
555
100
AcDbEntity
  8
cotas
 62
   253
420
 11711154
370
     9
100
AcDbVertex
100
AcDb2dVertex
 10
24.9917561786479
 20
13.8141438767548
 30
0.0
  0
VERTEX
  5
557
330
555
100
AcDbEntity
  8
cotas
 62
   253
420
 11711154
370
     9
100
AcDbVertex
100
AcDb2dVertex
 10
24.9917561786479
 20
13.8141438767548
 30
0.0
  0
SEQEND
  5
558
330
555
100
AcDbEntity
  8
cotas
370
     9
  0
ENDBLK
  5
554
330
551
100
AcDbEntity
  8
0
100
AcDbBlockEnd
  0
BLOCK
  5
55B
330
559
100
AcDbEntity
  8
0
100
AcDbBlockBegin
  2
block 42
 70
     0
 71
     0
 10
0.0
 20
0.0
 30
0.0
  3
block 42
  1

  0
POLYLINE
  5
55D
330
559
100
AcDbEntity
  8
cotas
 62
   253
420
 11711154
370
     9
100
AcDb2dPolyline
 66
     1
 10
0.0
 20
0.0
 30
0.0
  0
VERTEX
  5
55E
330
55D
100
AcDbEntity
  8
cotas
 62
   253
420
 11711154
370
     9
100
AcDbVertex
100
AcDb2dVertex
 10
26.71430392127282
 20
13.8141438767548
 30
0.0
  0
VERTEX
  5
55F
330
55D
100
AcDbEntity
  8
cotas
 62
   253
420
 11711154
370
     9
100
AcDbVertex
100
AcDb2dVertex
 10
26.71430392127282
 20
13.8141438767548
 30
0.0
  0
SEQEND
  5
560
330
55D
100
AcDbEntity
  8
cotas
370
     9
  0
ENDBLK
  5
55C
330
559
100
AcDbEntity
  8
0
100
AcDbBlockEnd
  0
BLOCK
  5
563
330
561
100
AcDbEntity
  8
0
100
AcDbBlockBegin
  2
block 43
 70
     0
 71
     0
 10
0.0
 20
0.0
 30
0.0
  3
block 43
  1

  0
POLYLINE
  5
565
330
561
100
AcDbEntity
  8
cotas
 62
   253
420
 11711154
370
     9
100
AcDb2dPolyline
 66
     1
 10
0.0
 20
0.0
 30
0.0
  0
VERTEX
  5
566
330
565
100
AcDbEntity
  8
cotas
 62
   253
420
 11711154
370
     9
100
AcDbVertex
100
AcDb2dVertex
 10
22.81790092745525
 20
16.430004878705
 30
0.0
  0
VERTEX
  5
567
330
565
100
AcDbEntity
  8
cotas
 62
   253
420
 11711154
370
     9
100
AcDbVertex
100
AcDb2dVertex
 10
22.34454480778192
 20
16.430004878705
 30
0.0
  0
SEQEND
  5
568
330
565
100
AcDbEntity
  8
cotas
370
     9
  0
ENDBLK
  5
564
330
561
100
AcDbEntity
  8
0
100
AcDbBlockEnd
  0
BLOCK
  5
56B
330
569
100
AcDbEntity
  8
0
100
AcDbBlockBegin
  2
block 44
 70
     0
 71
     0
 10
0.0
 20
0.0
 30
0.0
  3
block 44
  1

  0
POLYLINE
  5
56D
330
569
100
AcDbEntity
  8
cotas
 62
   253
420
 11711154
370
     9
100
AcDb2dPolyline
 66
     1
 10
0.0
 20
0.0
 30
0.0
  0
VERTEX
  5
56E
330
56D
100
AcDbEntity
  8
cotas
 62
   253
420
 11711154
370
     9
100
AcDbVertex
100
AcDb2dVertex
 10
22.34454480778192
 20
16.430004878705
 30
0.0
  0
VERTEX
  5
56F
330
56D
100
AcDbEntity
  8
cotas
 62
   253
420
 11711154
370
     9
100
AcDbVertex
100
AcDb2dVertex
 10
22.34454480778192
 20
15.18735893717538
 30
0.0
  0
SEQEND
  5
570
330
56D
100
AcDbEntity
  8
cotas
370
     9
  0
ENDBLK
  5
56C
330
569
100
AcDbEntity
  8
0
100
AcDbBlockEnd
  0
BLOCK
  5
573
330
571
100
AcDbEntity
  8
0
100
AcDbBlockBegin
  2
block 45
 70
     0
 71
     0
 10
0.0
 20
0.0
 30
0.0
  3
block 45
  1

  0
POLYLINE
  5
575
330
571
100
AcDbEntity
  8
cotas
 62
   253
420
 11711154
370
     9
100
AcDb2dPolyline
 66
     1
 10
0.0
 20
0.0
 30
0.0
  0
VERTEX
  5
576
330
575
100
AcDbEntity
  8
cotas
 62
   253
420
 11711154
370
     9
100
AcDbVertex
100
AcDb2dVertex
 10
23.09729817130901
 20
15.18735893717538
 30
0.0
  0
VERTEX
  5
577
330
575
100
AcDbEntity
  8
cotas
 62
   253
420
 11711154
370
     9
100
AcDbVertex
100
AcDb2dVertex
 10
22.10752223839673
 20
15.18735893717538
 30
0.0
  0
SEQEND
  5
578
330
575
100
AcDbEntity
  8
cotas
370
     9
  0
ENDBLK
  5
574
330
571
100
AcDbEntity
  8
0
100
AcDbBlockEnd
  0
BLOCK
  5
57B
330
579
100
AcDbEntity
  8
0
100
AcDbBlockBegin
  2
block 46
 70
     0
 71
     0
 10
0.0
 20
0.0
 30
0.0
  3
block 46
  1

  0
POLYLINE
  5
57D
330
579
100
AcDbEntity
  8
cotas
 62
   253
420
 11711154
370
     9
100
AcDb2dPolyline
 66
     1
 10
0.0
 20
0.0
 30
0.0
  0
VERTEX
  5
57E
330
57D
100
AcDbEntity
  8
cotas
 62
   253
420
 11711154
370
     9
100
AcDbVertex
100
AcDb2dVertex
 10
23.3343207406942
 20
14.71365830795353
 30
0.0
  0
VERTEX
  5
57F
330
57D
100
AcDbEntity
  8
cotas
 62
   253
420
 11711154
370
     9
100
AcDbVertex
100
AcDb2dVertex
 10
22.10752223839673
 20
14.71365830795353
 30
0.0
  0
SEQEND
  5
580
330
57D
100
AcDbEntity
  8
cotas
370
     9
  0
ENDBLK
  5
57C
330
579
100
AcDbEntity
  8
0
100
AcDbBlockEnd
  0
BLOCK
  5
583
330
581
100
AcDbEntity
  8
0
100
AcDbBlockBegin
  2
block 47
 70
     0
 71
     0
 10
0.0
 20
0.0
 30
0.0
  3
block 47
  1

  0
POLYLINE
  5
585
330
581
100
AcDbEntity
  8
cotas
 62
   253
420
 11711154
370
     9
100
AcDb2dPolyline
 66
     1
 10
0.0
 20
0.0
 30
0.0
  0
VERTEX
  5
586
330
585
100
AcDbEntity
  8
cotas
 62
   253
420
 11711154
370
     9
100
AcDbVertex
100
AcDb2dVertex
 10
22.34454480778192
 20
14.23995767873168
 30
0.0
  0
VERTEX
  5
587
330
585
100
AcDbEntity
  8
cotas
 62
   253
420
 11711154
370
     9
100
AcDbVertex
100
AcDb2dVertex
 10
22.34454480778192
 20
13.76660155905835
 30
0.0
  0
SEQEND
  5
588
330
585
100
AcDbEntity
  8
cotas
370
     9
  0
ENDBLK
  5
584
330
581
100
AcDbEntity
  8
0
100
AcDbBlockEnd
  0
BLOCK
  5
58B
330
589
100
AcDbEntity
  8
0
100
AcDbBlockBegin
  2
block 48
 70
     0
 71
     0
 10
0.0
 20
0.0
 30
0.0
  3
block 48
  1

  0
POLYLINE
  5
58D
330
589
100
AcDbEntity
  8
cotas
370
     0
100
AcDb2dPolyline
 66
     1
 10
0.0
 20
0.0
 30
0.0
  0
VERTEX
  5
58E
330
58D
100
AcDbEntity
  8
cotas
370
     0
100
AcDbVertex
100
AcDb2dVertex
 10
22.26530761162117
 20
15.66071505684871
 30
0.0
  0
VERTEX
  5
58F
330
58D
100
AcDbEntity
  8
cotas
370
     0
100
AcDbVertex
100
AcDb2dVertex
 10
22.42343749439414
 20
15.66071505684871
 30
0.0
  0
VERTEX
  5
590
330
58D
100
AcDbEntity
  8
cotas
370
     0
100
AcDbVertex
100
AcDb2dVertex
 10
22.34454480778192
 20
15.18735893717538
 30
0.0
  0
VERTEX
  5
591
330
58D
100
AcDbEntity
  8
cotas
370
     0
100
AcDbVertex
100
AcDb2dVertex
 10
22.26530761162117
 20
15.66071505684871
 30
0.0
  0
SEQEND
  5
592
330
58D
100
AcDbEntity
  8
cotas
370
     0
  0
HATCH
  5
593
330
589
100
AcDbEntity
  8
cotas
 62
   253
420
 11711154
100
AcDbHatch
 10
0.0
 20
0.0
 30
0.0
210
0.0
220
0.0
230
1.0
  2
SOLID
 70
     1
 71
     0
 91
        1
 92
        1
 93
        3
 72
     1
 10
22.26530761162117
 20
15.66071505684871
 11
22.42343749439414
 21
15.66071505684871
 72
     1
 10
22.42343749439414
 20
15.66071505684871
 11
22.34454480778192
 21
15.18735893717538
 72
     1
 10
22.34454480778192
 20
15.18735893717538
 11
22.26530761162117
 21
15.66071505684871
 97
        0
 75
     2
 76
     1
 98
        0
  0
ENDBLK
  5
58C
330
589
100
AcDbEntity
  8
0
100
AcDbBlockEnd
  0
BLOCK
  5
596
330
594
100
AcDbEntity
  8
0
100
AcDbBlockBegin
  2
block 49
 70
     0
 71
     0
 10
0.0
 20
0.0
 30
0.0
  3
block 49
  1

  0
POLYLINE
  5
598
330
594
100
AcDbEntity
  8
cotas
370
     0
100
AcDb2dPolyline
 66
     1
 10
0.0
 20
0.0
 30
0.0
  0
VERTEX
  5
599
330
598
100
AcDbEntity
  8
cotas
370
     0
100
AcDbVertex
100
AcDb2dVertex
 10
22.42343749439414
 20
14.23995767873168
 30
0.0
  0
VERTEX
  5
59A
330
598
100
AcDbEntity
  8
cotas
370
     0
100
AcDbVertex
100
AcDb2dVertex
 10
22.26530761162117
 20
14.23995767873168
 30
0.0
  0
VERTEX
  5
59B
330
598
100
AcDbEntity
  8
cotas
370
     0
100
AcDbVertex
100
AcDb2dVertex
 10
22.34454480778192
 20
14.71365830795353
 30
0.0
  0
VERTEX
  5
59C
330
598
100
AcDbEntity
  8
cotas
370
     0
100
AcDbVertex
100
AcDb2dVertex
 10
22.42343749439414
 20
14.23995767873168
 30
0.0
  0
SEQEND
  5
59D
330
598
100
AcDbEntity
  8
cotas
370
     0
  0
HATCH
  5
59E
330
594
100
AcDbEntity
  8
cotas
 62
   253
420
 11711154
100
AcDbHatch
 10
0.0
 20
0.0
 30
0.0
210
0.0
220
0.0
230
1.0
  2
SOLID
 70
     1
 71
     0
 91
        1
 92
        1
 93
        3
 72
     1
 10
22.42343749439414
 20
14.23995767873168
 11
22.26530761162117
 21
14.23995767873168
 72
     1
 10
22.26530761162117
 20
14.23995767873168
 11
22.34454480778192
 21
14.71365830795353
 72
     1
 10
22.34454480778192
 20
14.71365830795353
 11
22.42343749439414
 21
14.23995767873168
 97
        0
 75
     2
 76
     1
 98
        0
  0
ENDBLK
  5
597
330
594
100
AcDbEntity
  8
0
100
AcDbBlockEnd
  0
BLOCK
  5
5A1
330
59F
100
AcDbEntity
  8
0
100
AcDbBlockBegin
  2
block 50
 70
     0
 71
     0
 10
0.0
 20
0.0
 30
0.0
  3
block 50
  1

  0
MTEXT
  5
5A3
330
59F
100
AcDbEntity
  8
cotas
 62
   253
420
 11711154
100
AcDbMText
 10
22.74469264839369
 20
16.19332681886834
 30
0.0
 40
0.4735742339168865
 41
0.0
 71
     7
 72
     1
  1
\fMyriad Pro|b0|i0|c0|p34;\W1;min.10
 73
     1
 44
1.0
  0
ENDBLK
  5
5A2
330
59F
100
AcDbEntity
  8
0
100
AcDbBlockEnd
  0
BLOCK
  5
5A6
330
5A4
100
AcDbEntity
  8
0
100
AcDbBlockBegin
  2
block 51
 70
     0
 71
     0
 10
0.0
 20
0.0
 30
0.0
  3
block 51
  1

  0
POLYLINE
  5
5A8
330
5A4
100
AcDbEntity
  8
cotas
 62
   253
420
 11711154
370
     9
100
AcDb2dPolyline
 66
     1
 10
0.0
 20
0.0
 30
0.0
  0
VERTEX
  5
5A9
330
5A8
100
AcDbEntity
  8
cotas
 62
   253
420
 11711154
370
     9
100
AcDbVertex
100
AcDb2dVertex
 10
23.47625867468649
 20
15.18735893717538
 30
0.0
  0
VERTEX
  5
5AA
330
5A8
100
AcDbEntity
  8
cotas
 62
   253
420
 11711154
370
     9
100
AcDbVertex
100
AcDb2dVertex
 10
23.47625867468649
 20
15.18735893717538
 30
0.0
  0
SEQEND
  5
5AB
330
5A8
100
AcDbEntity
  8
cotas
370
     9
  0
ENDBLK
  5
5A7
330
5A4
100
AcDbEntity
  8
0
100
AcDbBlockEnd
  0
BLOCK
  5
5AE
330
5AC
100
AcDbEntity
  8
0
100
AcDbBlockBegin
  2
block 52
 70
     0
 71
     0
 10
0.0
 20
0.0
 30
0.0
  3
block 52
  1

  0
POLYLINE
  5
5B0
330
5AC
100
AcDbEntity
  8
cotas
 62
   253
420
 11711154
370
     9
100
AcDb2dPolyline
 66
     1
 10
0.0
 20
0.0
 30
0.0
  0
VERTEX
  5
5B1
330
5B0
100
AcDbEntity
  8
cotas
 62
   253
420
 11711154
370
     9
100
AcDbVertex
100
AcDb2dVertex
 10
23.71293673452315
 20
14.71365830795353
 30
0.0
  0
VERTEX
  5
5B2
330
5B0
100
AcDbEntity
  8
cotas
 62
   253
420
 11711154
370
     9
100
AcDbVertex
100
AcDb2dVertex
 10
23.71293673452315
 20
14.71365830795353
 30
0.0
  0
SEQEND
  5
5B3
330
5B0
100
AcDbEntity
  8
cotas
370
     9
  0
ENDBLK
  5
5AF
330
5AC
100
AcDbEntity
  8
0
100
AcDbBlockEnd
  0
BLOCK
  5
5B6
330
5B4
100
AcDbEntity
  8
0
100
AcDbBlockBegin
  2
block 53
 70
     0
 71
     0
 10
0.0
 20
0.0
 30
0.0
  3
block 53
  1

  0
POLYLINE
  5
5B8
330
5B4
100
AcDbEntity
  8
cotas
 62
   253
420
 11711154
370
     9
100
AcDb2dPolyline
 66
     1
 10
0.0
 20
0.0
 30
0.0
  0
VERTEX
  5
5B9
330
5B8
100
AcDbEntity
  8
cotas
 62
   253
420
 11711154
370
     9
100
AcDbVertex
100
AcDb2dVertex
 10
22.34454480778192
 20
14.71365830795353
 30
0.0
  0
VERTEX
  5
5BA
330
5B8
100
AcDbEntity
  8
cotas
 62
   253
420
 11711154
370
     9
100
AcDbVertex
100
AcDb2dVertex
 10
22.34454480778192
 20
14.71365830795353
 30
0.0
  0
SEQEND
  5
5BB
330
5B8
100
AcDbEntity
  8
cotas
370
     9
  0
ENDBLK
  5
5B7
330
5B4
100
AcDbEntity
  8
0
100
AcDbBlockEnd
  0
BLOCK
  5
5BE
330
5BC
100
AcDbEntity
  8
0
100
AcDbBlockBegin
  2
block 54
 70
     0
 71
     0
 10
0.0
 20
0.0
 30
0.0
  3
block 54
  1

  0
POLYLINE
  5
5C0
330
5BC
100
AcDbEntity
  8
cotas
 62
   253
420
 11711154
370
     9
100
AcDb2dPolyline
 66
     1
 10
0.0
 20
0.0
 30
0.0
  0
VERTEX
  5
5C1
330
5C0
100
AcDbEntity
  8
cotas
 62
   253
420
 11711154
370
     9
100
AcDbVertex
100
AcDb2dVertex
 10
14.13333197346319
 20
16.15336371123944
 30
0.0
  0
VERTEX
  5
5C2
330
5C0
100
AcDbEntity
  8
cotas
 62
   253
420
 11711154
370
     9
100
AcDbVertex
100
AcDb2dVertex
 10
14.13333197346319
 20
17.25648328561644
 30
0.0
  0
SEQEND
  5
5C3
330
5C0
100
AcDbEntity
  8
cotas
370
     9
  0
ENDBLK
  5
5BF
330
5BC
100
AcDbEntity
  8
0
100
AcDbBlockEnd
  0
BLOCK
  5
5C6
330
5C4
100
AcDbEntity
  8
0
100
AcDbBlockBegin
  2
block 55
 70
     0
 71
     0
 10
0.0
 20
0.0
 30
0.0
  3
block 55
  1

  0
POLYLINE
  5
5C8
330
5C4
100
AcDbEntity
  8
cotas
 62
   253
420
 11711154
370
     9
100
AcDb2dPolyline
 66
     1
 10
0.0
 20
0.0
 30
0.0
  0
VERTEX
  5
5C9
330
5C8
100
AcDbEntity
  8
cotas
 62
   253
420
 11711154
370
     9
100
AcDbVertex
100
AcDb2dVertex
 10
16.73799641508634
 20
16.15336371123944
 30
0.0
  0
VERTEX
  5
5CA
330
5C8
100
AcDbEntity
  8
cotas
 62
   253
420
 11711154
370
     9
100
AcDbVertex
100
AcDb2dVertex
 10
16.73799641508634
 20
17.25648328561644
 30
0.0
  0
SEQEND
  5
5CB
330
5C8
100
AcDbEntity
  8
cotas
370
     9
  0
ENDBLK
  5
5C7
330
5C4
100
AcDbEntity
  8
0
100
AcDbBlockEnd
  0
BLOCK
  5
5CE
330
5CC
100
AcDbEntity
  8
0
100
AcDbBlockBegin
  2
block 56
 70
     0
 71
     0
 10
0.0
 20
0.0
 30
0.0
  3
block 56
  1

  0
POLYLINE
  5
5D0
330
5CC
100
AcDbEntity
  8
cotas
 62
   253
420
 11711154
370
     9
100
AcDb2dPolyline
 66
     1
 10
0.0
 20
0.0
 30
0.0
  0
VERTEX
  5
5D1
330
5D0
100
AcDbEntity
  8
cotas
 62
   253
420
 11711154
370
     9
100
AcDbVertex
100
AcDb2dVertex
 10
16.73799641508634
 20
17.01980522577977
 30
0.0
  0
VERTEX
  5
5D2
330
5D0
100
AcDbEntity
  8
cotas
 62
   253
420
 11711154
370
     9
100
AcDbVertex
100
AcDb2dVertex
 10
17.93826768214738
 20
17.01980522577977
 30
0.0
  0
SEQEND
  5
5D3
330
5D0
100
AcDbEntity
  8
cotas
370
     9
  0
ENDBLK
  5
5CF
330
5CC
100
AcDbEntity
  8
0
100
AcDbBlockEnd
  0
BLOCK
  5
5D6
330
5D4
100
AcDbEntity
  8
0
100
AcDbBlockBegin
  2
block 57
 70
     0
 71
     0
 10
0.0
 20
0.0
 30
0.0
  3
block 57
  1

  0
POLYLINE
  5
5D8
330
5D4
100
AcDbEntity
  8
cotas
 62
   253
420
 11711154
370
     9
100
AcDb2dPolyline
 66
     1
 10
0.0
 20
0.0
 30
0.0
  0
VERTEX
  5
5D9
330
5D8
100
AcDbEntity
  8
cotas
 62
   253
420
 11711154
370
     9
100
AcDbVertex
100
AcDb2dVertex
 10
14.13333197346319
 20
17.01980522577977
 30
0.0
  0
VERTEX
  5
5DA
330
5D8
100
AcDbEntity
  8
cotas
 62
   253
420
 11711154
370
     9
100
AcDbVertex
100
AcDb2dVertex
 10
16.73799641508634
 20
17.01980522577977
 30
0.0
  0
SEQEND
  5
5DB
330
5D8
100
AcDbEntity
  8
cotas
370
     9
  0
ENDBLK
  5
5D7
330
5D4
100
AcDbEntity
  8
0
100
AcDbBlockEnd
  0
BLOCK
  5
5DE
330
5DC
100
AcDbEntity
  8
0
100
AcDbBlockBegin
  2
block 58
 70
     0
 71
     0
 10
0.0
 20
0.0
 30
0.0
  3
block 58
  1

  0
POLYLINE
  5
5E0
330
5DC
100
AcDbEntity
  8
cotas
 62
   253
420
 11711154
370
     9
100
AcDb2dPolyline
 66
     1
 10
0.0
 20
0.0
 30
0.0
  0
VERTEX
  5
5E1
330
5E0
100
AcDbEntity
  8
cotas
 62
   253
420
 11711154
370
     9
100
AcDbVertex
100
AcDb2dVertex
 10
13.65980359901561
 20
17.01980522577977
 30
0.0
  0
VERTEX
  5
5E2
330
5E0
100
AcDbEntity
  8
cotas
 62
   253
420
 11711154
370
     9
100
AcDbVertex
100
AcDb2dVertex
 10
13.18610296979375
 20
17.01980522577977
 30
0.0
  0
SEQEND
  5
5E3
330
5E0
100
AcDbEntity
  8
cotas
370
     9
  0
ENDBLK
  5
5DF
330
5DC
100
AcDbEntity
  8
0
100
AcDbBlockEnd
  0
BLOCK
  5
5E6
330
5E4
100
AcDbEntity
  8
0
100
AcDbBlockBegin
  2
block 59
 70
     0
 71
     0
 10
0.0
 20
0.0
 30
0.0
  3
block 59
  1

  0
POLYLINE
  5
5E8
330
5E4
100
AcDbEntity
  8
cotas
 62
   253
420
 11711154
370
     9
100
AcDb2dPolyline
 66
     1
 10
0.0
 20
0.0
 30
0.0
  0
VERTEX
  5
5E9
330
5E8
100
AcDbEntity
  8
cotas
 62
   253
420
 11711154
370
     9
100
AcDbVertex
100
AcDb2dVertex
 10
17.21152478953393
 20
17.01980522577977
 30
0.0
  0
VERTEX
  5
5EA
330
5E8
100
AcDbEntity
  8
cotas
 62
   253
420
 11711154
370
     9
100
AcDbVertex
100
AcDb2dVertex
 10
17.68505316398151
 20
17.01980522577977
 30
0.0
  0
SEQEND
  5
5EB
330
5E8
100
AcDbEntity
  8
cotas
370
     9
  0
ENDBLK
  5
5E7
330
5E4
100
AcDbEntity
  8
0
100
AcDbBlockEnd
  0
BLOCK
  5
5EE
330
5EC
100
AcDbEntity
  8
0
100
AcDbBlockBegin
  2
block 60
 70
     0
 71
     0
 10
0.0
 20
0.0
 30
0.0
  3
block 60
  1

  0
POLYLINE
  5
5F0
330
5EC
100
AcDbEntity
  8
cotas
370
     0
100
AcDb2dPolyline
 66
     1
 10
0.0
 20
0.0
 30
0.0
  0
VERTEX
  5
5F1
330
5F0
100
AcDbEntity
  8
cotas
370
     0
100
AcDbVertex
100
AcDb2dVertex
 10
13.65980359901561
 20
16.94091253916755
 30
0.0
  0
VERTEX
  5
5F2
330
5F0
100
AcDbEntity
  8
cotas
370
     0
100
AcDbVertex
100
AcDb2dVertex
 10
13.65980359901561
 20
17.09869791239199
 30
0.0
  0
VERTEX
  5
5F3
330
5F0
100
AcDbEntity
  8
cotas
370
     0
100
AcDbVertex
100
AcDb2dVertex
 10
14.13333197346319
 20
17.01980522577977
 30
0.0
  0
VERTEX
  5
5F4
330
5F0
100
AcDbEntity
  8
cotas
370
     0
100
AcDbVertex
100
AcDb2dVertex
 10
13.65980359901561
 20
16.94091253916755
 30
0.0
  0
SEQEND
  5
5F5
330
5F0
100
AcDbEntity
  8
cotas
370
     0
  0
HATCH
  5
5F6
330
5EC
100
AcDbEntity
  8
cotas
 62
   253
420
 11711154
100
AcDbHatch
 10
0.0
 20
0.0
 30
0.0
210
0.0
220
0.0
230
1.0
  2
SOLID
 70
     1
 71
     0
 91
        1
 92
        1
 93
        3
 72
     1
 10
13.65980359901561
 20
16.94091253916755
 11
13.65980359901561
 21
17.09869791239199
 72
     1
 10
13.65980359901561
 20
17.09869791239199
 11
14.13333197346319
 21
17.01980522577977
 72
     1
 10
14.13333197346319
 20
17.01980522577977
 11
13.65980359901561
 21
16.94091253916755
 97
        0
 75
     2
 76
     1
 98
        0
  0
ENDBLK
  5
5EF
330
5EC
100
AcDbEntity
  8
0
100
AcDbBlockEnd
  0
BLOCK
  5
5F9
330
5F7
100
AcDbEntity
  8
0
100
AcDbBlockBegin
  2
block 61
 70
     0
 71
     0
 10
0.0
 20
0.0
 30
0.0
  3
block 61
  1

  0
POLYLINE
  5
5FB
330
5F7
100
AcDbEntity
  8
cotas
370
     0
100
AcDb2dPolyline
 66
     1
 10
0.0
 20
0.0
 30
0.0
  0
VERTEX
  5
5FC
330
5FB
100
AcDbEntity
  8
cotas
370
     0
100
AcDbVertex
100
AcDb2dVertex
 10
17.21152478953393
 20
17.09869791239199
 30
0.0
  0
VERTEX
  5
5FD
330
5FB
100
AcDbEntity
  8
cotas
370
     0
100
AcDbVertex
100
AcDb2dVertex
 10
17.21152478953393
 20
16.94091253916755
 30
0.0
  0
VERTEX
  5
5FE
330
5FB
100
AcDbEntity
  8
cotas
370
     0
100
AcDbVertex
100
AcDb2dVertex
 10
16.73799641508634
 20
17.01980522577977
 30
0.0
  0
VERTEX
  5
5FF
330
5FB
100
AcDbEntity
  8
cotas
370
     0
100
AcDbVertex
100
AcDb2dVertex
 10
17.21152478953393
 20
17.09869791239199
 30
0.0
  0
SEQEND
  5
600
330
5FB
100
AcDbEntity
  8
cotas
370
     0
  0
HATCH
  5
601
330
5F7
100
AcDbEntity
  8
cotas
 62
   253
420
 11711154
100
AcDbHatch
 10
0.0
 20
0.0
 30
0.0
210
0.0
220
0.0
230
1.0
  2
SOLID
 70
     1
 71
     0
 91
        1
 92
        1
 93
        3
 72
     1
 10
17.21152478953393
 20
17.09869791239199
 11
17.21152478953393
 21
16.94091253916755
 72
     1
 10
17.21152478953393
 20
16.94091253916755
 11
16.73799641508634
 21
17.01980522577977
 72
     1
 10
16.73799641508634
 20
17.01980522577977
 11
17.21152478953393
 21
17.09869791239199
 97
        0
 75
     2
 76
     1
 98
        0
  0
ENDBLK
  5
5FA
330
5F7
100
AcDbEntity
  8
0
100
AcDbBlockEnd
  0
BLOCK
  5
604
330
602
100
AcDbEntity
  8
0
100
AcDbBlockBegin
  2
block 62
 70
     0
 71
     0
 10
0.0
 20
0.0
 30
0.0
  3
block 62
  1

  0
MTEXT
  5
606
330
602
100
AcDbEntity
  8
cotas
 62
   253
420
 11711154
100
AcDbMText
 10
18.14118380622859
 20
16.78312716594311
 30
0.0
 40
0.4735742339168865
 41
0.0
 71
     7
 72
     1
  1
\fMyriad Pro|b0|i0|c0|p34;\W1;Ø55
 73
     1
 44
1.0
  0
ENDBLK
  5
605
330
602
100
AcDbEntity
  8
0
100
AcDbBlockEnd
  0
BLOCK
  5
609
330
607
100
AcDbEntity
  8
0
100
AcDbBlockBegin
  2
block 63
 70
     0
 71
     0
 10
0.0
 20
0.0
 30
0.0
  3
block 63
  1

  0
POLYLINE
  5
60B
330
607
100
AcDbEntity
  8
cotas
 62
   253
420
 11711154
370
     9
100
AcDb2dPolyline
 66
     1
 10
0.0
 20
0.0
 30
0.0
  0
VERTEX
  5
60C
330
60B
100
AcDbEntity
  8
cotas
 62
   253
420
 11711154
370
     9
100
AcDbVertex
100
AcDb2dVertex
 10
14.13333197346319
 20
15.77440320786195
 30
0.0
  0
VERTEX
  5
60D
330
60B
100
AcDbEntity
  8
cotas
 62
   253
420
 11711154
370
     9
100
AcDbVertex
100
AcDb2dVertex
 10
14.13333197346319
 20
15.77440320786195
 30
0.0
  0
SEQEND
  5
60E
330
60B
100
AcDbEntity
  8
cotas
370
     9
  0
ENDBLK
  5
60A
330
607
100
AcDbEntity
  8
0
100
AcDbBlockEnd
  0
BLOCK
  5
611
330
60F
100
AcDbEntity
  8
0
100
AcDbBlockBegin
  2
block 64
 70
     0
 71
     0
 10
0.0
 20
0.0
 30
0.0
  3
block 64
  1

  0
POLYLINE
  5
613
330
60F
100
AcDbEntity
  8
cotas
 62
   253
420
 11711154
370
     9
100
AcDb2dPolyline
 66
     1
 10
0.0
 20
0.0
 30
0.0
  0
VERTEX
  5
614
330
613
100
AcDbEntity
  8
cotas
 62
   253
420
 11711154
370
     9
100
AcDbVertex
100
AcDb2dVertex
 10
16.73799641508634
 20
15.77440320786195
 30
0.0
  0
VERTEX
  5
615
330
613
100
AcDbEntity
  8
cotas
 62
   253
420
 11711154
370
     9
100
AcDbVertex
100
AcDb2dVertex
 10
16.73799641508634
 20
15.77440320786195
 30
0.0
  0
SEQEND
  5
616
330
613
100
AcDbEntity
  8
cotas
370
     9
  0
ENDBLK
  5
612
330
60F
100
AcDbEntity
  8
0
100
AcDbBlockEnd
  0
BLOCK
  5
619
330
617
100
AcDbEntity
  8
0
100
AcDbBlockBegin
  2
block 65
 70
     0
 71
     0
 10
0.0
 20
0.0
 30
0.0
  3
block 65
  1

  0
POLYLINE
  5
61B
330
617
100
AcDbEntity
  8
cotas
 62
   253
420
 11711154
370
     9
100
AcDb2dPolyline
 66
     1
 10
0.0
 20
0.0
 30
0.0
  0
VERTEX
  5
61C
330
61B
100
AcDbEntity
  8
cotas
 62
   253
420
 11711154
370
     9
100
AcDbVertex
100
AcDb2dVertex
 10
16.73799641508634
 20
17.01980522577977
 30
0.0
  0
VERTEX
  5
61D
330
61B
100
AcDbEntity
  8
cotas
 62
   253
420
 11711154
370
     9
100
AcDbVertex
100
AcDb2dVertex
 10
16.73799641508634
 20
17.01980522577977
 30
0.0
  0
SEQEND
  5
61E
330
61B
100
AcDbEntity
  8
cotas
370
     9
  0
ENDBLK
  5
61A
330
617
100
AcDbEntity
  8
0
100
AcDbBlockEnd
  0
BLOCK
  5
621
330
61F
100
AcDbEntity
  8
0
100
AcDbBlockBegin
  2
block 66
 70
     0
 71
     0
 10
0.0
 20
0.0
 30
0.0
  3
block 66
  1

  0
POLYLINE
  5
623
330
61F
100
AcDbEntity
  8
cotas
 62
   253
420
 11711154
370
     9
100
AcDb2dPolyline
 66
     1
 10
0.0
 20
0.0
 30
0.0
  0
VERTEX
  5
624
330
623
100
AcDbEntity
  8
cotas
 62
   253
420
 11711154
370
     9
100
AcDbVertex
100
AcDb2dVertex
 10
17.11678466368955
 20
15.06402451880344
 30
0.0
  0
VERTEX
  5
625
330
623
100
AcDbEntity
  8
cotas
 62
   253
420
 11711154
370
     9
100
AcDbVertex
100
AcDb2dVertex
 10
18.71617024271679
 20
15.06402451880344
 30
0.0
  0
SEQEND
  5
626
330
623
100
AcDbEntity
  8
cotas
370
     9
  0
ENDBLK
  5
622
330
61F
100
AcDbEntity
  8
0
100
AcDbBlockEnd
  0
BLOCK
  5
629
330
627
100
AcDbEntity
  8
0
100
AcDbBlockBegin
  2
block 67
 70
     0
 71
     0
 10
0.0
 20
0.0
 30
0.0
  3
block 67
  1

  0
POLYLINE
  5
62B
330
627
100
AcDbEntity
  8
cotas
 62
   253
420
 11711154
370
     9
100
AcDb2dPolyline
 66
     1
 10
0.0
 20
0.0
 30
0.0
  0
VERTEX
  5
62C
330
62B
100
AcDbEntity
  8
cotas
 62
   253
420
 11711154
370
     9
100
AcDbVertex
100
AcDb2dVertex
 10
16.6361938434972
 20
14.21170789575263
 30
0.0
  0
VERTEX
  5
62D
330
62B
100
AcDbEntity
  8
cotas
 62
   253
420
 11711154
370
     9
100
AcDbVertex
100
AcDb2dVertex
 10
18.71617024271679
 20
14.21170789575263
 30
0.0
  0
SEQEND
  5
62E
330
62B
100
AcDbEntity
  8
cotas
370
     9
  0
ENDBLK
  5
62A
330
627
100
AcDbEntity
  8
0
100
AcDbBlockEnd
  0
BLOCK
  5
631
330
62F
100
AcDbEntity
  8
0
100
AcDbBlockBegin
  2
block 68
 70
     0
 71
     0
 10
0.0
 20
0.0
 30
0.0
  3
block 68
  1

  0
POLYLINE
  5
633
330
62F
100
AcDbEntity
  8
cotas
 62
   253
420
 11711154
370
     9
100
AcDb2dPolyline
 66
     1
 10
0.0
 20
0.0
 30
0.0
  0
VERTEX
  5
634
330
633
100
AcDbEntity
  8
cotas
 62
   253
420
 11711154
370
     9
100
AcDbVertex
100
AcDb2dVertex
 10
18.47949218288013
 20
15.53772514802529
 30
0.0
  0
VERTEX
  5
635
330
633
100
AcDbEntity
  8
cotas
 62
   253
420
 11711154
370
     9
100
AcDbVertex
100
AcDb2dVertex
 10
18.47949218288013
 20
16.01142577724714
 30
0.0
  0
SEQEND
  5
636
330
633
100
AcDbEntity
  8
cotas
370
     9
  0
ENDBLK
  5
632
330
62F
100
AcDbEntity
  8
0
100
AcDbBlockEnd
  0
BLOCK
  5
639
330
637
100
AcDbEntity
  8
0
100
AcDbBlockBegin
  2
block 69
 70
     0
 71
     0
 10
0.0
 20
0.0
 30
0.0
  3
block 69
  1

  0
POLYLINE
  5
63B
330
637
100
AcDbEntity
  8
cotas
 62
   253
420
 11711154
370
     9
100
AcDb2dPolyline
 66
     1
 10
0.0
 20
0.0
 30
0.0
  0
VERTEX
  5
63C
330
63B
100
AcDbEntity
  8
cotas
 62
   253
420
 11711154
370
     9
100
AcDbVertex
100
AcDb2dVertex
 10
18.47949218288013
 20
13.7383517760793
 30
0.0
  0
VERTEX
  5
63D
330
63B
100
AcDbEntity
  8
cotas
 62
   253
420
 11711154
370
     9
100
AcDbVertex
100
AcDb2dVertex
 10
18.47949218288013
 20
13.26465114685745
 30
0.0
  0
SEQEND
  5
63E
330
63B
100
AcDbEntity
  8
cotas
370
     9
  0
ENDBLK
  5
63A
330
637
100
AcDbEntity
  8
0
100
AcDbBlockEnd
  0
BLOCK
  5
641
330
63F
100
AcDbEntity
  8
0
100
AcDbBlockBegin
  2
block 70
 70
     0
 71
     0
 10
0.0
 20
0.0
 30
0.0
  3
block 70
  1

  0
POLYLINE
  5
643
330
63F
100
AcDbEntity
  8
cotas
370
     0
100
AcDb2dPolyline
 66
     1
 10
0.0
 20
0.0
 30
0.0
  0
VERTEX
  5
644
330
643
100
AcDbEntity
  8
cotas
370
     0
100
AcDbVertex
100
AcDb2dVertex
 10
18.40042724149365
 20
15.53772514802529
 30
0.0
  0
VERTEX
  5
645
330
643
100
AcDbEntity
  8
cotas
370
     0
100
AcDbVertex
100
AcDb2dVertex
 10
18.55838486949235
 20
15.53772514802529
 30
0.0
  0
VERTEX
  5
646
330
643
100
AcDbEntity
  8
cotas
370
     0
100
AcDbVertex
100
AcDb2dVertex
 10
18.47949218288013
 20
15.06402451880344
 30
0.0
  0
VERTEX
  5
647
330
643
100
AcDbEntity
  8
cotas
370
     0
100
AcDbVertex
100
AcDb2dVertex
 10
18.40042724149365
 20
15.53772514802529
 30
0.0
  0
SEQEND
  5
648
330
643
100
AcDbEntity
  8
cotas
370
     0
  0
HATCH
  5
649
330
63F
100
AcDbEntity
  8
cotas
 62
   253
420
 11711154
100
AcDbHatch
 10
0.0
 20
0.0
 30
0.0
210
0.0
220
0.0
230
1.0
  2
SOLID
 70
     1
 71
     0
 91
        1
 92
        1
 93
        3
 72
     1
 10
18.40042724149365
 20
15.53772514802529
 11
18.55838486949235
 21
15.53772514802529
 72
     1
 10
18.55838486949235
 20
15.53772514802529
 11
18.47949218288013
 21
15.06402451880344
 72
     1
 10
18.47949218288013
 20
15.06402451880344
 11
18.40042724149365
 21
15.53772514802529
 97
        0
 75
     2
 76
     1
 98
        0
  0
ENDBLK
  5
642
330
63F
100
AcDbEntity
  8
0
100
AcDbBlockEnd
  0
BLOCK
  5
64C
330
64A
100
AcDbEntity
  8
0
100
AcDbBlockBegin
  2
block 71
 70
     0
 71
     0
 10
0.0
 20
0.0
 30
0.0
  3
block 71
  1

  0
POLYLINE
  5
64E
330
64A
100
AcDbEntity
  8
cotas
370
     0
100
AcDb2dPolyline
 66
     1
 10
0.0
 20
0.0
 30
0.0
  0
VERTEX
  5
64F
330
64E
100
AcDbEntity
  8
cotas
370
     0
100
AcDbVertex
100
AcDb2dVertex
 10
18.55838486949235
 20
13.7383517760793
 30
0.0
  0
VERTEX
  5
650
330
64E
100
AcDbEntity
  8
cotas
370
     0
100
AcDbVertex
100
AcDb2dVertex
 10
18.40042724149365
 20
13.7383517760793
 30
0.0
  0
VERTEX
  5
651
330
64E
100
AcDbEntity
  8
cotas
370
     0
100
AcDbVertex
100
AcDb2dVertex
 10
18.47949218288013
 20
14.21170789575263
 30
0.0
  0
VERTEX
  5
652
330
64E
100
AcDbEntity
  8
cotas
370
     0
100
AcDbVertex
100
AcDb2dVertex
 10
18.55838486949235
 20
13.7383517760793
 30
0.0
  0
SEQEND
  5
653
330
64E
100
AcDbEntity
  8
cotas
370
     0
  0
HATCH
  5
654
330
64A
100
AcDbEntity
  8
cotas
 62
   253
420
 11711154
100
AcDbHatch
 10
0.0
 20
0.0
 30
0.0
210
0.0
220
0.0
230
1.0
  2
SOLID
 70
     1
 71
     0
 91
        1
 92
        1
 93
        3
 72
     1
 10
18.55838486949235
 20
13.7383517760793
 11
18.40042724149365
 21
13.7383517760793
 72
     1
 10
18.40042724149365
 20
13.7383517760793
 11
18.47949218288013
 21
14.21170789575263
 72
     1
 10
18.47949218288013
 20
14.21170789575263
 11
18.55838486949235
 21
13.7383517760793
 97
        0
 75
     2
 76
     1
 98
        0
  0
ENDBLK
  5
64D
330
64A
100
AcDbEntity
  8
0
100
AcDbBlockEnd
  0
BLOCK
  5
657
330
655
100
AcDbEntity
  8
0
100
AcDbBlockBegin
  2
block 72
 70
     0
 71
     0
 10
0.0
 20
0.0
 30
0.0
  3
block 72
  1

  0
MTEXT
  5
659
330
655
100
AcDbEntity
  8
cotas
 62
   253
420
 11711154
100
AcDbMText
 10
17.26165092884431
 20
14.40118814744137
 30
0.0
 40
0.4735742339168865
 41
0.0
 71
     7
 72
     1
  1
\fMyriad Pro|b0|i0|c0|p34;\W1;min.20
 73
     1
 44
1.0
  0
ENDBLK
  5
658
330
655
100
AcDbEntity
  8
0
100
AcDbBlockEnd
  0
BLOCK
  5
65C
330
65A
100
AcDbEntity
  8
0
100
AcDbBlockBegin
  2
block 73
 70
     0
 71
     0
 10
0.0
 20
0.0
 30
0.0
  3
block 73
  1

  0
POLYLINE
  5
65E
330
65A
100
AcDbEntity
  8
cotas
 62
   253
420
 11711154
370
     9
100
AcDb2dPolyline
 66
     1
 10
0.0
 20
0.0
 30
0.0
  0
VERTEX
  5
65F
330
65E
100
AcDbEntity
  8
cotas
 62
   253
420
 11711154
370
     9
100
AcDbVertex
100
AcDb2dVertex
 10
16.73799641508634
 20
15.06402451880344
 30
0.0
  0
VERTEX
  5
660
330
65E
100
AcDbEntity
  8
cotas
 62
   253
420
 11711154
370
     9
100
AcDbVertex
100
AcDb2dVertex
 10
16.73799641508634
 20
15.06402451880344
 30
0.0
  0
SEQEND
  5
661
330
65E
100
AcDbEntity
  8
cotas
370
     9
  0
ENDBLK
  5
65D
330
65A
100
AcDbEntity
  8
0
100
AcDbBlockEnd
  0
BLOCK
  5
664
330
662
100
AcDbEntity
  8
0
100
AcDbBlockBegin
  2
block 74
 70
     0
 71
     0
 10
0.0
 20
0.0
 30
0.0
  3
block 74
  1

  0
POLYLINE
  5
666
330
662
100
AcDbEntity
  8
cotas
 62
   253
420
 11711154
370
     9
100
AcDb2dPolyline
 66
     1
 10
0.0
 20
0.0
 30
0.0
  0
VERTEX
  5
667
330
666
100
AcDbEntity
  8
cotas
 62
   253
420
 11711154
370
     9
100
AcDbVertex
100
AcDb2dVertex
 10
16.25723334011972
 20
14.21170789575263
 30
0.0
  0
VERTEX
  5
668
330
666
100
AcDbEntity
  8
cotas
 62
   253
420
 11711154
370
     9
100
AcDbVertex
100
AcDb2dVertex
 10
16.25723334011972
 20
14.21170789575263
 30
0.0
  0
SEQEND
  5
669
330
666
100
AcDbEntity
  8
cotas
370
     9
  0
ENDBLK
  5
665
330
662
100
AcDbEntity
  8
0
100
AcDbBlockEnd
  0
BLOCK
  5
66C
330
66A
100
AcDbEntity
  8
0
100
AcDbBlockBegin
  2
block 75
 70
     0
 71
     0
 10
0.0
 20
0.0
 30
0.0
  3
block 75
  1

  0
POLYLINE
  5
66E
330
66A
100
AcDbEntity
  8
cotas
 62
   253
420
 11711154
370
     9
100
AcDb2dPolyline
 66
     1
 10
0.0
 20
0.0
 30
0.0
  0
VERTEX
  5
66F
330
66E
100
AcDbEntity
  8
cotas
 62
   253
420
 11711154
370
     9
100
AcDbVertex
100
AcDb2dVertex
 10
18.47949218288013
 20
14.21170789575263
 30
0.0
  0
VERTEX
  5
670
330
66E
100
AcDbEntity
  8
cotas
 62
   253
420
 11711154
370
     9
100
AcDbVertex
100
AcDb2dVertex
 10
18.47949218288013
 20
14.21170789575263
 30
0.0
  0
SEQEND
  5
671
330
66E
100
AcDbEntity
  8
cotas
370
     9
  0
ENDBLK
  5
66D
330
66A
100
AcDbEntity
  8
0
100
AcDbBlockEnd
  0
BLOCK
  5
674
330
672
100
AcDbEntity
  8
0
100
AcDbBlockBegin
  2
block 76
 70
     0
 71
     0
 10
0.0
 20
0.0
 30
0.0
  3
block 76
  1

  0
POLYLINE
  5
676
330
672
100
AcDbEntity
  8
cotas
 62
   253
420
 11711154
370
     9
100
AcDb2dPolyline
 66
     1
 10
0.0
 20
0.0
 30
0.0
  0
VERTEX
  5
677
330
676
100
AcDbEntity
  8
cotas
 62
   253
420
 11711154
370
     9
100
AcDbVertex
100
AcDb2dVertex
 10
14.82803547806382
 20
7.875488279281129
 30
0.0
  0
VERTEX
  5
678
330
676
100
AcDbEntity
  8
cotas
 62
   253
420
 11711154
370
     9
100
AcDbVertex
100
AcDb2dVertex
 10
14.82803547806382
 20
7.170966252547537
 30
0.0
  0
SEQEND
  5
679
330
676
100
AcDbEntity
  8
cotas
370
     9
  0
ENDBLK
  5
675
330
672
100
AcDbEntity
  8
0
100
AcDbBlockEnd
  0
BLOCK
  5
67C
330
67A
100
AcDbEntity
  8
0
100
AcDbBlockBegin
  2
block 77
 70
     0
 71
     0
 10
0.0
 20
0.0
 30
0.0
  3
block 77
  1

  0
POLYLINE
  5
67E
330
67A
100
AcDbEntity
  8
cotas
 62
   253
420
 11711154
370
     9
100
AcDb2dPolyline
 66
     1
 10
0.0
 20
0.0
 30
0.0
  0
VERTEX
  5
67F
330
67E
100
AcDbEntity
  8
cotas
 62
   253
420
 11711154
370
     9
100
AcDbVertex
100
AcDb2dVertex
 10
15.22456596841608
 20
7.890302189867702
 30
0.0
  0
VERTEX
  5
680
330
67E
100
AcDbEntity
  8
cotas
 62
   253
420
 11711154
370
     9
100
AcDbVertex
100
AcDb2dVertex
 10
15.22456596841608
 20
7.170966252547537
 30
0.0
  0
SEQEND
  5
681
330
67E
100
AcDbEntity
  8
cotas
370
     9
  0
ENDBLK
  5
67D
330
67A
100
AcDbEntity
  8
0
100
AcDbBlockEnd
  0
BLOCK
  5
684
330
682
100
AcDbEntity
  8
0
100
AcDbBlockBegin
  2
block 78
 70
     0
 71
     0
 10
0.0
 20
0.0
 30
0.0
  3
block 78
  1

  0
POLYLINE
  5
686
330
682
100
AcDbEntity
  8
cotas
 62
   253
420
 11711154
370
     9
100
AcDb2dPolyline
 66
     1
 10
0.0
 20
0.0
 30
0.0
  0
VERTEX
  5
687
330
686
100
AcDbEntity
  8
cotas
 62
   253
420
 11711154
370
     9
100
AcDbVertex
100
AcDb2dVertex
 10
14.82803547806382
 20
7.407988821932725
 30
0.0
  0
VERTEX
  5
688
330
686
100
AcDbEntity
  8
cotas
 62
   253
420
 11711154
370
     9
100
AcDbVertex
100
AcDb2dVertex
 10
13.88097872916864
 20
7.407988821932725
 30
0.0
  0
SEQEND
  5
689
330
686
100
AcDbEntity
  8
cotas
370
     9
  0
ENDBLK
  5
685
330
682
100
AcDbEntity
  8
0
100
AcDbBlockEnd
  0
BLOCK
  5
68C
330
68A
100
AcDbEntity
  8
0
100
AcDbBlockBegin
  2
block 79
 70
     0
 71
     0
 10
0.0
 20
0.0
 30
0.0
  3
block 79
  1

  0
POLYLINE
  5
68E
330
68A
100
AcDbEntity
  8
cotas
 62
   253
420
 11711154
370
     9
100
AcDb2dPolyline
 66
     1
 10
0.0
 20
0.0
 30
0.0
  0
VERTEX
  5
68F
330
68E
100
AcDbEntity
  8
cotas
 62
   253
420
 11711154
370
     9
100
AcDbVertex
100
AcDb2dVertex
 10
14.35450710361624
 20
7.407988821932725
 30
0.0
  0
VERTEX
  5
690
330
68E
100
AcDbEntity
  8
cotas
 62
   253
420
 11711154
370
     9
100
AcDbVertex
100
AcDb2dVertex
 10
13.88097872916864
 20
7.407988821932725
 30
0.0
  0
SEQEND
  5
691
330
68E
100
AcDbEntity
  8
cotas
370
     9
  0
ENDBLK
  5
68D
330
68A
100
AcDbEntity
  8
0
100
AcDbBlockEnd
  0
BLOCK
  5
694
330
692
100
AcDbEntity
  8
0
100
AcDbBlockBegin
  2
block 80
 70
     0
 71
     0
 10
0.0
 20
0.0
 30
0.0
  3
block 80
  1

  0
POLYLINE
  5
696
330
692
100
AcDbEntity
  8
cotas
 62
   253
420
 11711154
370
     9
100
AcDb2dPolyline
 66
     1
 10
0.0
 20
0.0
 30
0.0
  0
VERTEX
  5
697
330
696
100
AcDbEntity
  8
cotas
 62
   253
420
 11711154
370
     9
100
AcDbVertex
100
AcDb2dVertex
 10
15.69826659763793
 20
7.407988821932725
 30
0.0
  0
VERTEX
  5
698
330
696
100
AcDbEntity
  8
cotas
 62
   253
420
 11711154
370
     9
100
AcDbVertex
100
AcDb2dVertex
 10
16.17179497208553
 20
7.407988821932725
 30
0.0
  0
SEQEND
  5
699
330
696
100
AcDbEntity
  8
cotas
370
     9
  0
ENDBLK
  5
695
330
692
100
AcDbEntity
  8
0
100
AcDbBlockEnd
  0
BLOCK
  5
69C
330
69A
100
AcDbEntity
  8
0
100
AcDbBlockBegin
  2
block 81
 70
     0
 71
     0
 10
0.0
 20
0.0
 30
0.0
  3
block 81
  1

  0
POLYLINE
  5
69E
330
69A
100
AcDbEntity
  8
cotas
370
     0
100
AcDb2dPolyline
 66
     1
 10
0.0
 20
0.0
 30
0.0
  0
VERTEX
  5
69F
330
69E
100
AcDbEntity
  8
cotas
370
     0
100
AcDbVertex
100
AcDb2dVertex
 10
14.35450710361624
 20
7.329096135320504
 30
0.0
  0
VERTEX
  5
6A0
330
69E
100
AcDbEntity
  8
cotas
370
     0
100
AcDbVertex
100
AcDb2dVertex
 10
14.35450710361624
 20
7.486881508544947
 30
0.0
  0
VERTEX
  5
6A1
330
69E
100
AcDbEntity
  8
cotas
370
     0
100
AcDbVertex
100
AcDb2dVertex
 10
14.82803547806382
 20
7.407988821932725
 30
0.0
  0
VERTEX
  5
6A2
330
69E
100
AcDbEntity
  8
cotas
370
     0
100
AcDbVertex
100
AcDb2dVertex
 10
14.35450710361624
 20
7.329096135320504
 30
0.0
  0
SEQEND
  5
6A3
330
69E
100
AcDbEntity
  8
cotas
370
     0
  0
HATCH
  5
6A4
330
69A
100
AcDbEntity
  8
cotas
 62
   253
420
 11711154
100
AcDbHatch
 10
0.0
 20
0.0
 30
0.0
210
0.0
220
0.0
230
1.0
  2
SOLID
 70
     1
 71
     0
 91
        1
 92
        1
 93
        3
 72
     1
 10
14.35450710361624
 20
7.329096135320504
 11
14.35450710361624
 21
7.486881508544947
 72
     1
 10
14.35450710361624
 20
7.486881508544947
 11
14.82803547806382
 21
7.407988821932725
 72
     1
 10
14.82803547806382
 20
7.407988821932725
 11
14.35450710361624
 21
7.329096135320504
 97
        0
 75
     2
 76
     1
 98
        0
  0
ENDBLK
  5
69D
330
69A
100
AcDbEntity
  8
0
100
AcDbBlockEnd
  0
BLOCK
  5
6A7
330
6A5
100
AcDbEntity
  8
0
100
AcDbBlockBegin
  2
block 82
 70
     0
 71
     0
 10
0.0
 20
0.0
 30
0.0
  3
block 82
  1

  0
POLYLINE
  5
6A9
330
6A5
100
AcDbEntity
  8
cotas
370
     0
100
AcDb2dPolyline
 66
     1
 10
0.0
 20
0.0
 30
0.0
  0
VERTEX
  5
6AA
330
6A9
100
AcDbEntity
  8
cotas
370
     0
100
AcDbVertex
100
AcDb2dVertex
 10
15.69826659763793
 20
7.486881508544947
 30
0.0
  0
VERTEX
  5
6AB
330
6A9
100
AcDbEntity
  8
cotas
370
     0
100
AcDbVertex
100
AcDb2dVertex
 10
15.69826659763793
 20
7.329096135320504
 30
0.0
  0
VERTEX
  5
6AC
330
6A9
100
AcDbEntity
  8
cotas
370
     0
100
AcDbVertex
100
AcDb2dVertex
 10
15.22456596841608
 20
7.407988821932725
 30
0.0
  0
VERTEX
  5
6AD
330
6A9
100
AcDbEntity
  8
cotas
370
     0
100
AcDbVertex
100
AcDb2dVertex
 10
15.69826659763793
 20
7.486881508544947
 30
0.0
  0
SEQEND
  5
6AE
330
6A9
100
AcDbEntity
  8
cotas
370
     0
  0
HATCH
  5
6AF
330
6A5
100
AcDbEntity
  8
cotas
 62
   253
420
 11711154
100
AcDbHatch
 10
0.0
 20
0.0
 30
0.0
210
0.0
220
0.0
230
1.0
  2
SOLID
 70
     1
 71
     0
 91
        1
 92
        1
 93
        3
 72
     1
 10
15.69826659763793
 20
7.486881508544947
 11
15.69826659763793
 21
7.329096135320504
 72
     1
 10
15.69826659763793
 20
7.329096135320504
 11
15.22456596841608
 21
7.407988821932725
 72
     1
 10
15.22456596841608
 20
7.407988821932725
 11
15.69826659763793
 21
7.486881508544947
 97
        0
 75
     2
 76
     1
 98
        0
  0
ENDBLK
  5
6A8
330
6A5
100
AcDbEntity
  8
0
100
AcDbBlockEnd
  0
BLOCK
  5
6B2
330
6B0
100
AcDbEntity
  8
0
100
AcDbBlockBegin
  2
block 83
 70
     0
 71
     0
 10
0.0
 20
0.0
 30
0.0
  3
block 83
  1

  0
MTEXT
  5
6B4
330
6B0
100
AcDbEntity
  8
cotas
 62
   253
420
 11711154
100
AcDbMText
 10
11.50162353228084
 20
7.250203448708283
 30
0.0
 40
0.4735742339168865
 41
0.0
 71
     7
 72
     1
  1
\fMyriad Pro|b0|i0|c0|p34;\W1;R3/8"
 73
     1
 44
1.0
  0
ENDBLK
  5
6B3
330
6B0
100
AcDbEntity
  8
0
100
AcDbBlockEnd
  0
BLOCK
  5
6B7
330
6B5
100
AcDbEntity
  8
0
100
AcDbBlockBegin
  2
block 84
 70
     0
 71
     0
 10
0.0
 20
0.0
 30
0.0
  3
block 84
  1

  0
POLYLINE
  5
6B9
330
6B5
100
AcDbEntity
  8
cotas
 62
   253
420
 11711154
370
     9
100
AcDb2dPolyline
 66
     1
 10
0.0
 20
0.0
 30
0.0
  0
VERTEX
  5
6BA
330
6B9
100
AcDbEntity
  8
cotas
 62
   253
420
 11711154
370
     9
100
AcDbVertex
100
AcDb2dVertex
 10
14.82803547806382
 20
8.25444878265861
 30
0.0
  0
VERTEX
  5
6BB
330
6B9
100
AcDbEntity
  8
cotas
 62
   253
420
 11711154
370
     9
100
AcDbVertex
100
AcDb2dVertex
 10
14.82803547806382
 20
8.25444878265861
 30
0.0
  0
SEQEND
  5
6BC
330
6B9
100
AcDbEntity
  8
cotas
370
     9
  0
ENDBLK
  5
6B8
330
6B5
100
AcDbEntity
  8
0
100
AcDbBlockEnd
  0
BLOCK
  5
6BF
330
6BD
100
AcDbEntity
  8
0
100
AcDbBlockBegin
  2
block 85
 70
     0
 71
     0
 10
0.0
 20
0.0
 30
0.0
  3
block 85
  1

  0
POLYLINE
  5
6C1
330
6BD
100
AcDbEntity
  8
cotas
 62
   253
420
 11711154
370
     9
100
AcDb2dPolyline
 66
     1
 10
0.0
 20
0.0
 30
0.0
  0
VERTEX
  5
6C2
330
6C1
100
AcDbEntity
  8
cotas
 62
   253
420
 11711154
370
     9
100
AcDbVertex
100
AcDb2dVertex
 10
15.22456596841608
 20
8.268918183696659
 30
0.0
  0
VERTEX
  5
6C3
330
6C1
100
AcDbEntity
  8
cotas
 62
   253
420
 11711154
370
     9
100
AcDbVertex
100
AcDb2dVertex
 10
15.22456596841608
 20
8.268918183696659
 30
0.0
  0
SEQEND
  5
6C4
330
6C1
100
AcDbEntity
  8
cotas
370
     9
  0
ENDBLK
  5
6C0
330
6BD
100
AcDbEntity
  8
0
100
AcDbBlockEnd
  0
BLOCK
  5
6C7
330
6C5
100
AcDbEntity
  8
0
100
AcDbBlockBegin
  2
block 86
 70
     0
 71
     0
 10
0.0
 20
0.0
 30
0.0
  3
block 86
  1

  0
POLYLINE
  5
6C9
330
6C5
100
AcDbEntity
  8
cotas
 62
   253
420
 11711154
370
     9
100
AcDb2dPolyline
 66
     1
 10
0.0
 20
0.0
 30
0.0
  0
VERTEX
  5
6CA
330
6C9
100
AcDbEntity
  8
cotas
 62
   253
420
 11711154
370
     9
100
AcDbVertex
100
AcDb2dVertex
 10
15.22456596841608
 20
7.407988821932725
 30
0.0
  0
VERTEX
  5
6CB
330
6C9
100
AcDbEntity
  8
cotas
 62
   253
420
 11711154
370
     9
100
AcDbVertex
100
AcDb2dVertex
 10
15.22456596841608
 20
7.407988821932725
 30
0.0
  0
SEQEND
  5
6CC
330
6C9
100
AcDbEntity
  8
cotas
370
     9
  0
ENDBLK
  5
6C8
330
6C5
100
AcDbEntity
  8
0
100
AcDbBlockEnd
  0
BLOCK
  5
6CF
330
6CD
100
AcDbEntity
  8
0
100
AcDbBlockBegin
  2
block 87
 70
     0
 71
     0
 10
0.0
 20
0.0
 30
0.0
  3
block 87
  1

  0
POLYLINE
  5
6D1
330
6CD
100
AcDbEntity
  8
cotas
 62
   253
420
 11711154
370
     9
100
AcDb2dPolyline
 66
     1
 10
0.0
 20
0.0
 30
0.0
  0
VERTEX
  5
6D2
330
6D1
100
AcDbEntity
  8
cotas
 62
   253
420
 11711154
370
     9
100
AcDbVertex
100
AcDb2dVertex
 10
17.11678466368955
 20
15.06402451880344
 30
0.0
  0
VERTEX
  5
6D3
330
6D1
100
AcDbEntity
  8
cotas
 62
   253
420
 11711154
370
     9
100
AcDbVertex
100
AcDb2dVertex
 10
20.34518364291718
 20
15.06402451880344
 30
0.0
  0
SEQEND
  5
6D4
330
6D1
100
AcDbEntity
  8
cotas
370
     9
  0
ENDBLK
  5
6D0
330
6CD
100
AcDbEntity
  8
0
100
AcDbBlockEnd
  0
BLOCK
  5
6D7
330
6D5
100
AcDbEntity
  8
0
100
AcDbBlockBegin
  2
block 88
 70
     0
 71
     0
 10
0.0
 20
0.0
 30
0.0
  3
block 88
  1

  0
POLYLINE
  5
6D9
330
6D5
100
AcDbEntity
  8
cotas
 62
   253
420
 11711154
370
     9
100
AcDb2dPolyline
 66
     1
 10
0.0
 20
0.0
 30
0.0
  0
VERTEX
  5
6DA
330
6D9
100
AcDbEntity
  8
cotas
 62
   253
420
 11711154
370
     9
100
AcDbVertex
100
AcDb2dVertex
 10
16.59416367857715
 20
8.25444878265861
 30
0.0
  0
VERTEX
  5
6DB
330
6D9
100
AcDbEntity
  8
cotas
 62
   253
420
 11711154
370
     9
100
AcDbVertex
100
AcDb2dVertex
 10
20.34518364291718
 20
8.25444878265861
 30
0.0
  0
SEQEND
  5
6DC
330
6D9
100
AcDbEntity
  8
cotas
370
     9
  0
ENDBLK
  5
6D8
330
6D5
100
AcDbEntity
  8
0
100
AcDbBlockEnd
  0
BLOCK
  5
6DF
330
6DD
100
AcDbEntity
  8
0
100
AcDbBlockBegin
  2
block 89
 70
     0
 71
     0
 10
0.0
 20
0.0
 30
0.0
  3
block 89
  1

  0
POLYLINE
  5
6E1
330
6DD
100
AcDbEntity
  8
cotas
 62
   253
420
 11711154
370
     9
100
AcDb2dPolyline
 66
     1
 10
0.0
 20
0.0
 30
0.0
  0
VERTEX
  5
6E2
330
6E1
100
AcDbEntity
  8
cotas
 62
   253
420
 11711154
370
     9
100
AcDbVertex
100
AcDb2dVertex
 10
20.10833332830625
 20
14.59066839913011
 30
0.0
  0
VERTEX
  5
6E3
330
6E1
100
AcDbEntity
  8
cotas
 62
   253
420
 11711154
370
     9
100
AcDbVertex
100
AcDb2dVertex
 10
20.10833332830625
 20
11.88351236682079
 30
0.0
  0
SEQEND
  5
6E4
330
6E1
100
AcDbEntity
  8
cotas
370
     9
  0
ENDBLK
  5
6E0
330
6DD
100
AcDbEntity
  8
0
100
AcDbBlockEnd
  0
BLOCK
  5
6E7
330
6E5
100
AcDbEntity
  8
0
100
AcDbBlockBegin
  2
block 90
 70
     0
 71
     0
 10
0.0
 20
0.0
 30
0.0
  3
block 90
  1

  0
POLYLINE
  5
6E9
330
6E5
100
AcDbEntity
  8
cotas
 62
   253
420
 11711154
370
     9
100
AcDb2dPolyline
 66
     1
 10
0.0
 20
0.0
 30
0.0
  0
VERTEX
  5
6EA
330
6E9
100
AcDbEntity
  8
cotas
 62
   253
420
 11711154
370
     9
100
AcDbVertex
100
AcDb2dVertex
 10
20.10833332830625
 20
8.728149411880462
 30
0.0
  0
VERTEX
  5
6EB
330
6E9
100
AcDbEntity
  8
cotas
 62
   253
420
 11711154
370
     9
100
AcDbVertex
100
AcDb2dVertex
 10
20.10833332830625
 20
10.93611110837708
 30
0.0
  0
SEQEND
  5
6EC
330
6E9
100
AcDbEntity
  8
cotas
370
     9
  0
ENDBLK
  5
6E8
330
6E5
100
AcDbEntity
  8
0
100
AcDbBlockEnd
  0
BLOCK
  5
6EF
330
6ED
100
AcDbEntity
  8
0
100
AcDbBlockBegin
  2
block 91
 70
     0
 71
     0
 10
0.0
 20
0.0
 30
0.0
  3
block 91
  1

  0
POLYLINE
  5
6F1
330
6ED
100
AcDbEntity
  8
cotas
370
     0
100
AcDb2dPolyline
 66
     1
 10
0.0
 20
0.0
 30
0.0
  0
VERTEX
  5
6F2
330
6F1
100
AcDbEntity
  8
cotas
370
     0
100
AcDbVertex
100
AcDb2dVertex
 10
20.18722601491847
 20
14.59066839913011
 30
0.0
  0
VERTEX
  5
6F3
330
6F1
100
AcDbEntity
  8
cotas
370
     0
100
AcDbVertex
100
AcDb2dVertex
 10
20.02944064169403
 20
14.59066839913011
 30
0.0
  0
VERTEX
  5
6F4
330
6F1
100
AcDbEntity
  8
cotas
370
     0
100
AcDbVertex
100
AcDb2dVertex
 10
20.10833332830625
 20
15.06402451880344
 30
0.0
  0
VERTEX
  5
6F5
330
6F1
100
AcDbEntity
  8
cotas
370
     0
100
AcDbVertex
100
AcDb2dVertex
 10
20.18722601491847
 20
14.59066839913011
 30
0.0
  0
SEQEND
  5
6F6
330
6F1
100
AcDbEntity
  8
cotas
370
     0
  0
HATCH
  5
6F7
330
6ED
100
AcDbEntity
  8
cotas
 62
   253
420
 11711154
100
AcDbHatch
 10
0.0
 20
0.0
 30
0.0
210
0.0
220
0.0
230
1.0
  2
SOLID
 70
     1
 71
     0
 91
        1
 92
        1
 93
        3
 72
     1
 10
20.18722601491847
 20
14.59066839913011
 11
20.02944064169403
 21
14.59066839913011
 72
     1
 10
20.02944064169403
 20
14.59066839913011
 11
20.10833332830625
 21
15.06402451880344
 72
     1
 10
20.10833332830625
 20
15.06402451880344
 11
20.18722601491847
 21
14.59066839913011
 97
        0
 75
     2
 76
     1
 98
        0
  0
ENDBLK
  5
6F0
330
6ED
100
AcDbEntity
  8
0
100
AcDbBlockEnd
  0
BLOCK
  5
6FA
330
6F8
100
AcDbEntity
  8
0
100
AcDbBlockBegin
  2
block 92
 70
     0
 71
     0
 10
0.0
 20
0.0
 30
0.0
  3
block 92
  1

  0
POLYLINE
  5
6FC
330
6F8
100
AcDbEntity
  8
cotas
370
     0
100
AcDb2dPolyline
 66
     1
 10
0.0
 20
0.0
 30
0.0
  0
VERTEX
  5
6FD
330
6FC
100
AcDbEntity
  8
cotas
370
     0
100
AcDbVertex
100
AcDb2dVertex
 10
20.02944064169403
 20
8.728149411880462
 30
0.0
  0
VERTEX
  5
6FE
330
6FC
100
AcDbEntity
  8
cotas
370
     0
100
AcDbVertex
100
AcDb2dVertex
 10
20.18722601491847
 20
8.728149411880462
 30
0.0
  0
VERTEX
  5
6FF
330
6FC
100
AcDbEntity
  8
cotas
370
     0
100
AcDbVertex
100
AcDb2dVertex
 10
20.10833332830625
 20
8.25444878265861
 30
0.0
  0
VERTEX
  5
700
330
6FC
100
AcDbEntity
  8
cotas
370
     0
100
AcDbVertex
100
AcDb2dVertex
 10
20.02944064169403
 20
8.728149411880462
 30
0.0
  0
SEQEND
  5
701
330
6FC
100
AcDbEntity
  8
cotas
370
     0
  0
HATCH
  5
702
330
6F8
100
AcDbEntity
  8
cotas
 62
   253
420
 11711154
100
AcDbHatch
 10
0.0
 20
0.0
 30
0.0
210
0.0
220
0.0
230
1.0
  2
SOLID
 70
     1
 71
     0
 91
        1
 92
        1
 93
        3
 72
     1
 10
20.02944064169403
 20
8.728149411880462
 11
20.18722601491847
 21
8.728149411880462
 72
     1
 10
20.18722601491847
 20
8.728149411880462
 11
20.10833332830625
 21
8.25444878265861
 72
     1
 10
20.10833332830625
 20
8.25444878265861
 11
20.02944064169403
 21
8.728149411880462
 97
        0
 75
     2
 76
     1
 98
        0
  0
ENDBLK
  5
6FB
330
6F8
100
AcDbEntity
  8
0
100
AcDbBlockEnd
  0
BLOCK
  5
705
330
703
100
AcDbEntity
  8
0
100
AcDbBlockBegin
  2
block 93
 70
     0
 71
     0
 10
0.0
 20
0.0
 30
0.0
  3
block 93
  1

  0
MTEXT
  5
707
330
703
100
AcDbEntity
  8
cotas
 62
   253
420
 11711154
100
AcDbMText
 10
19.43171657500318
 20
11.17278916821375
 30
0.0
 40
0.4735742339168865
 41
0.0
 71
     7
 72
     1
  1
\fMyriad Pro|b0|i0|c0|p34;\W1;350
 73
     1
 44
1.0
  0
ENDBLK
  5
706
330
703
100
AcDbEntity
  8
0
100
AcDbBlockEnd
  0
BLOCK
  5
70A
330
708
100
AcDbEntity
  8
0
100
AcDbBlockBegin
  2
block 94
 70
     0
 71
     0
 10
0.0
 20
0.0
 30
0.0
  3
block 94
  1

  0
POLYLINE
  5
70C
330
708
100
AcDbEntity
  8
cotas
 62
   253
420
 11711154
370
     9
100
AcDb2dPolyline
 66
     1
 10
0.0
 20
0.0
 30
0.0
  0
VERTEX
  5
70D
330
70C
100
AcDbEntity
  8
cotas
 62
   253
420
 11711154
370
     9
100
AcDbVertex
100
AcDb2dVertex
 10
16.73799641508634
 20
15.06402451880344
 30
0.0
  0
VERTEX
  5
70E
330
70C
100
AcDbEntity
  8
cotas
 62
   253
420
 11711154
370
     9
100
AcDbVertex
100
AcDb2dVertex
 10
16.73799641508634
 20
15.06402451880344
 30
0.0
  0
SEQEND
  5
70F
330
70C
100
AcDbEntity
  8
cotas
370
     9
  0
ENDBLK
  5
70B
330
708
100
AcDbEntity
  8
0
100
AcDbBlockEnd
  0
BLOCK
  5
712
330
710
100
AcDbEntity
  8
0
100
AcDbBlockBegin
  2
block 95
 70
     0
 71
     0
 10
0.0
 20
0.0
 30
0.0
  3
block 95
  1

  0
POLYLINE
  5
714
330
710
100
AcDbEntity
  8
cotas
 62
   253
420
 11711154
370
     9
100
AcDb2dPolyline
 66
     1
 10
0.0
 20
0.0
 30
0.0
  0
VERTEX
  5
715
330
714
100
AcDbEntity
  8
cotas
 62
   253
420
 11711154
370
     9
100
AcDbVertex
100
AcDb2dVertex
 10
16.21520317519967
 20
8.25444878265861
 30
0.0
  0
VERTEX
  5
716
330
714
100
AcDbEntity
  8
cotas
 62
   253
420
 11711154
370
     9
100
AcDbVertex
100
AcDb2dVertex
 10
16.21520317519967
 20
8.25444878265861
 30
0.0
  0
SEQEND
  5
717
330
714
100
AcDbEntity
  8
cotas
370
     9
  0
ENDBLK
  5
713
330
710
100
AcDbEntity
  8
0
100
AcDbBlockEnd
  0
BLOCK
  5
71A
330
718
100
AcDbEntity
  8
0
100
AcDbBlockBegin
  2
block 96
 70
     0
 71
     0
 10
0.0
 20
0.0
 30
0.0
  3
block 96
  1

  0
POLYLINE
  5
71C
330
718
100
AcDbEntity
  8
cotas
 62
   253
420
 11711154
370
     9
100
AcDb2dPolyline
 66
     1
 10
0.0
 20
0.0
 30
0.0
  0
VERTEX
  5
71D
330
71C
100
AcDbEntity
  8
cotas
 62
   253
420
 11711154
370
     9
100
AcDbVertex
100
AcDb2dVertex
 10
20.10833332830625
 20
8.25444878265861
 30
0.0
  0
VERTEX
  5
71E
330
71C
100
AcDbEntity
  8
cotas
 62
   253
420
 11711154
370
     9
100
AcDbVertex
100
AcDb2dVertex
 10
20.10833332830625
 20
8.25444878265861
 30
0.0
  0
SEQEND
  5
71F
330
71C
100
AcDbEntity
  8
cotas
370
     9
  0
ENDBLK
  5
71B
330
718
100
AcDbEntity
  8
0
100
AcDbBlockEnd
  0
BLOCK
  5
722
330
720
100
AcDbEntity
  8
0
100
AcDbBlockBegin
  2
block 97
 70
     0
 71
     0
 10
0.0
 20
0.0
 30
0.0
  3
block 97
  1

  0
POLYLINE
  5
724
330
720
100
AcDbEntity
  8
cotas
 62
   253
420
 11711154
370
     9
100
AcDb2dPolyline
 66
     1
 10
0.0
 20
0.0
 30
0.0
  0
VERTEX
  5
725
330
724
100
AcDbEntity
  8
cotas
 62
   253
420
 11711154
370
     9
100
AcDbVertex
100
AcDb2dVertex
 10
24.13909504604856
 20
13.43518337337732
 30
0.0
  0
VERTEX
  5
726
330
724
100
AcDbEntity
  8
cotas
 62
   253
420
 11711154
370
     9
100
AcDbVertex
100
AcDb2dVertex
 10
24.13909504604856
 20
12.76235622510802
 30
0.0
  0
SEQEND
  5
727
330
724
100
AcDbEntity
  8
cotas
370
     9
  0
ENDBLK
  5
723
330
720
100
AcDbEntity
  8
0
100
AcDbBlockEnd
  0
BLOCK
  5
72A
330
728
100
AcDbEntity
  8
0
100
AcDbBlockBegin
  2
block 98
 70
     0
 71
     0
 10
0.0
 20
0.0
 30
0.0
  3
block 98
  1

  0
POLYLINE
  5
72C
330
728
100
AcDbEntity
  8
cotas
 62
   253
420
 11711154
370
     9
100
AcDb2dPolyline
 66
     1
 10
0.0
 20
0.0
 30
0.0
  0
VERTEX
  5
72D
330
72C
100
AcDbEntity
  8
cotas
 62
   253
420
 11711154
370
     9
100
AcDbVertex
100
AcDb2dVertex
 10
24.9917561786479
 20
13.43518337337732
 30
0.0
  0
VERTEX
  5
72E
330
72C
100
AcDbEntity
  8
cotas
 62
   253
420
 11711154
370
     9
100
AcDbVertex
100
AcDb2dVertex
 10
24.9917561786479
 20
12.76235622510802
 30
0.0
  0
SEQEND
  5
72F
330
72C
100
AcDbEntity
  8
cotas
370
     9
  0
ENDBLK
  5
72B
330
728
100
AcDbEntity
  8
0
100
AcDbBlockEnd
  0
BLOCK
  5
732
330
730
100
AcDbEntity
  8
0
100
AcDbBlockBegin
  2
block 99
 70
     0
 71
     0
 10
0.0
 20
0.0
 30
0.0
  3
block 99
  1

  0
POLYLINE
  5
734
330
730
100
AcDbEntity
  8
cotas
 62
   253
420
 11711154
370
     9
100
AcDb2dPolyline
 66
     1
 10
0.0
 20
0.0
 30
0.0
  0
VERTEX
  5
735
330
734
100
AcDbEntity
  8
cotas
 62
   253
420
 11711154
370
     9
100
AcDbVertex
100
AcDb2dVertex
 10
24.13909504604856
 20
12.99903428494469
 30
0.0
  0
VERTEX
  5
736
330
734
100
AcDbEntity
  8
cotas
 62
   253
420
 11711154
370
     9
100
AcDbVertex
100
AcDb2dVertex
 10
23.19203829715338
 20
12.99903428494469
 30
0.0
  0
SEQEND
  5
737
330
734
100
AcDbEntity
  8
cotas
370
     9
  0
ENDBLK
  5
733
330
730
100
AcDbEntity
  8
0
100
AcDbBlockEnd
  0
BLOCK
  5
73A
330
738
100
AcDbEntity
  8
0
100
AcDbBlockBegin
  2
block 100
 70
     0
 71
     0
 10
0.0
 20
0.0
 30
0.0
  3
block 100
  1

  0
POLYLINE
  5
73C
330
738
100
AcDbEntity
  8
cotas
 62
   253
420
 11711154
370
     9
100
AcDb2dPolyline
 66
     1
 10
0.0
 20
0.0
 30
0.0
  0
VERTEX
  5
73D
330
73C
100
AcDbEntity
  8
cotas
 62
   253
420
 11711154
370
     9
100
AcDbVertex
100
AcDb2dVertex
 10
23.66573892637523
 20
12.99903428494469
 30
0.0
  0
VERTEX
  5
73E
330
73C
100
AcDbEntity
  8
cotas
 62
   253
420
 11711154
370
     9
100
AcDbVertex
100
AcDb2dVertex
 10
23.19203829715338
 20
12.99903428494469
 30
0.0
  0
SEQEND
  5
73F
330
73C
100
AcDbEntity
  8
cotas
370
     9
  0
ENDBLK
  5
73B
330
738
100
AcDbEntity
  8
0
100
AcDbBlockEnd
  0
BLOCK
  5
742
330
740
100
AcDbEntity
  8
0
100
AcDbBlockBegin
  2
block 101
 70
     0
 71
     0
 10
0.0
 20
0.0
 30
0.0
  3
block 101
  1

  0
POLYLINE
  5
744
330
740
100
AcDbEntity
  8
cotas
 62
   253
420
 11711154
370
     9
100
AcDb2dPolyline
 66
     1
 10
0.0
 20
0.0
 30
0.0
  0
VERTEX
  5
745
330
744
100
AcDbEntity
  8
cotas
 62
   253
420
 11711154
370
     9
100
AcDbVertex
100
AcDb2dVertex
 10
25.46511229832122
 20
12.99903428494469
 30
0.0
  0
VERTEX
  5
746
330
744
100
AcDbEntity
  8
cotas
 62
   253
420
 11711154
370
     9
100
AcDbVertex
100
AcDb2dVertex
 10
25.93881292754308
 20
12.99903428494469
 30
0.0
  0
SEQEND
  5
747
330
744
100
AcDbEntity
  8
cotas
370
     9
  0
ENDBLK
  5
743
330
740
100
AcDbEntity
  8
0
100
AcDbBlockEnd
  0
BLOCK
  5
74A
330
748
100
AcDbEntity
  8
0
100
AcDbBlockBegin
  2
block 102
 70
     0
 71
     0
 10
0.0
 20
0.0
 30
0.0
  3
block 102
  1

  0
POLYLINE
  5
74C
330
748
100
AcDbEntity
  8
cotas
370
     0
100
AcDb2dPolyline
 66
     1
 10
0.0
 20
0.0
 30
0.0
  0
VERTEX
  5
74D
330
74C
100
AcDbEntity
  8
cotas
370
     0
100
AcDbVertex
100
AcDb2dVertex
 10
23.66573892637523
 20
12.92014159833247
 30
0.0
  0
VERTEX
  5
74E
330
74C
100
AcDbEntity
  8
cotas
370
     0
100
AcDbVertex
100
AcDb2dVertex
 10
23.66573892637523
 20
13.07792697155691
 30
0.0
  0
VERTEX
  5
74F
330
74C
100
AcDbEntity
  8
cotas
370
     0
100
AcDbVertex
100
AcDb2dVertex
 10
24.13909504604856
 20
12.99903428494469
 30
0.0
  0
VERTEX
  5
750
330
74C
100
AcDbEntity
  8
cotas
370
     0
100
AcDbVertex
100
AcDb2dVertex
 10
23.66573892637523
 20
12.92014159833247
 30
0.0
  0
SEQEND
  5
751
330
74C
100
AcDbEntity
  8
cotas
370
     0
  0
HATCH
  5
752
330
748
100
AcDbEntity
  8
cotas
 62
   253
420
 11711154
100
AcDbHatch
 10
0.0
 20
0.0
 30
0.0
210
0.0
220
0.0
230
1.0
  2
SOLID
 70
     1
 71
     0
 91
        1
 92
        1
 93
        3
 72
     1
 10
23.66573892637523
 20
12.92014159833247
 11
23.66573892637523
 21
13.07792697155691
 72
     1
 10
23.66573892637523
 20
13.07792697155691
 11
24.13909504604856
 21
12.99903428494469
 72
     1
 10
24.13909504604856
 20
12.99903428494469
 11
23.66573892637523
 21
12.92014159833247
 97
        0
 75
     2
 76
     1
 98
        0
  0
ENDBLK
  5
74B
330
748
100
AcDbEntity
  8
0
100
AcDbBlockEnd
  0
BLOCK
  5
755
330
753
100
AcDbEntity
  8
0
100
AcDbBlockBegin
  2
block 103
 70
     0
 71
     0
 10
0.0
 20
0.0
 30
0.0
  3
block 103
  1

  0
POLYLINE
  5
757
330
753
100
AcDbEntity
  8
cotas
370
     0
100
AcDb2dPolyline
 66
     1
 10
0.0
 20
0.0
 30
0.0
  0
VERTEX
  5
758
330
757
100
AcDbEntity
  8
cotas
370
     0
100
AcDbVertex
100
AcDb2dVertex
 10
25.46511229832122
 20
13.07792697155691
 30
0.0
  0
VERTEX
  5
759
330
757
100
AcDbEntity
  8
cotas
370
     0
100
AcDbVertex
100
AcDb2dVertex
 10
25.46511229832122
 20
12.92014159833247
 30
0.0
  0
VERTEX
  5
75A
330
757
100
AcDbEntity
  8
cotas
370
     0
100
AcDbVertex
100
AcDb2dVertex
 10
24.9917561786479
 20
12.99903428494469
 30
0.0
  0
VERTEX
  5
75B
330
757
100
AcDbEntity
  8
cotas
370
     0
100
AcDbVertex
100
AcDb2dVertex
 10
25.46511229832122
 20
13.07792697155691
 30
0.0
  0
SEQEND
  5
75C
330
757
100
AcDbEntity
  8
cotas
370
     0
  0
HATCH
  5
75D
330
753
100
AcDbEntity
  8
cotas
 62
   253
420
 11711154
100
AcDbHatch
 10
0.0
 20
0.0
 30
0.0
210
0.0
220
0.0
230
1.0
  2
SOLID
 70
     1
 71
     0
 91
        1
 92
        1
 93
        3
 72
     1
 10
25.46511229832122
 20
13.07792697155691
 11
25.46511229832122
 21
12.92014159833247
 72
     1
 10
25.46511229832122
 20
12.92014159833247
 11
24.9917561786479
 21
12.99903428494469
 72
     1
 10
24.9917561786479
 20
12.99903428494469
 11
25.46511229832122
 21
13.07792697155691
 97
        0
 75
     2
 76
     1
 98
        0
  0
ENDBLK
  5
756
330
753
100
AcDbEntity
  8
0
100
AcDbBlockEnd
  0
BLOCK
  5
760
330
75E
100
AcDbEntity
  8
0
100
AcDbBlockBegin
  2
block 104
 70
     0
 71
     0
 10
0.0
 20
0.0
 30
0.0
  3
block 104
  1

  0
MTEXT
  5
762
330
75E
100
AcDbEntity
  8
cotas
 62
   253
420
 11711154
100
AcDbMText
 10
20.81285535503984
 20
12.84124891172024
 30
0.0
 40
0.4735742339168865
 41
0.0
 71
     7
 72
     1
  1
\fMyriad Pro|b0|i0|c0|p34;\W1;R3/8"
 73
     1
 44
1.0
  0
ENDBLK
  5
761
330
75E
100
AcDbEntity
  8
0
100
AcDbBlockEnd
  0
BLOCK
  5
765
330
763
100
AcDbEntity
  8
0
100
AcDbBlockBegin
  2
block 105
 70
     0
 71
     0
 10
0.0
 20
0.0
 30
0.0
  3
block 105
  1

  0
POLYLINE
  5
767
330
763
100
AcDbEntity
  8
cotas
 62
   253
420
 11711154
370
     9
100
AcDb2dPolyline
 66
     1
 10
0.0
 20
0.0
 30
0.0
  0
VERTEX
  5
768
330
767
100
AcDbEntity
  8
cotas
 62
   253
420
 11711154
370
     9
100
AcDbVertex
100
AcDb2dVertex
 10
24.13909504604856
 20
13.8141438767548
 30
0.0
  0
VERTEX
  5
769
330
767
100
AcDbEntity
  8
cotas
 62
   253
420
 11711154
370
     9
100
AcDbVertex
100
AcDb2dVertex
 10
24.13909504604856
 20
13.8141438767548
 30
0.0
  0
SEQEND
  5
76A
330
767
100
AcDbEntity
  8
cotas
370
     9
  0
ENDBLK
  5
766
330
763
100
AcDbEntity
  8
0
100
AcDbBlockEnd
  0
BLOCK
  5
76D
330
76B
100
AcDbEntity
  8
0
100
AcDbBlockBegin
  2
block 106
 70
     0
 71
     0
 10
0.0
 20
0.0
 30
0.0
  3
block 106
  1

  0
POLYLINE
  5
76F
330
76B
100
AcDbEntity
  8
cotas
 62
   253
420
 11711154
370
     9
100
AcDb2dPolyline
 66
     1
 10
0.0
 20
0.0
 30
0.0
  0
VERTEX
  5
770
330
76F
100
AcDbEntity
  8
cotas
 62
   253
420
 11711154
370
     9
100
AcDbVertex
100
AcDb2dVertex
 10
24.9917561786479
 20
13.8141438767548
 30
0.0
  0
VERTEX
  5
771
330
76F
100
AcDbEntity
  8
cotas
 62
   253
420
 11711154
370
     9
100
AcDbVertex
100
AcDb2dVertex
 10
24.9917561786479
 20
13.8141438767548
 30
0.0
  0
SEQEND
  5
772
330
76F
100
AcDbEntity
  8
cotas
370
     9
  0
ENDBLK
  5
76E
330
76B
100
AcDbEntity
  8
0
100
AcDbBlockEnd
  0
BLOCK
  5
775
330
773
100
AcDbEntity
  8
0
100
AcDbBlockBegin
  2
block 107
 70
     0
 71
     0
 10
0.0
 20
0.0
 30
0.0
  3
block 107
  1

  0
POLYLINE
  5
777
330
773
100
AcDbEntity
  8
cotas
 62
   253
420
 11711154
370
     9
100
AcDb2dPolyline
 66
     1
 10
0.0
 20
0.0
 30
0.0
  0
VERTEX
  5
778
330
777
100
AcDbEntity
  8
cotas
 62
   253
420
 11711154
370
     9
100
AcDbVertex
100
AcDb2dVertex
 10
24.9917561786479
 20
12.99903428494469
 30
0.0
  0
VERTEX
  5
779
330
777
100
AcDbEntity
  8
cotas
 62
   253
420
 11711154
370
     9
100
AcDbVertex
100
AcDb2dVertex
 10
24.9917561786479
 20
12.99903428494469
 30
0.0
  0
SEQEND
  5
77A
330
777
100
AcDbEntity
  8
cotas
370
     9
  0
ENDBLK
  5
776
330
773
100
AcDbEntity
  8
0
100
AcDbBlockEnd
  0
ENDSEC
  0
SECTION
  2
ENTITIES
  0
POLYLINE
  5
3C
330
1F
100
AcDbEntity
  8
cuerpo
 62
     7
420
 16777215
370
     9
100
AcDb2dPolyline
 66
     1
 10
0.0
 20
0.0
 30
0.0
  0
VERTEX
  5
3D
330
3C
100
AcDbEntity
  8
cuerpo
 62
     7
420
 16777215
370
     9
100
AcDbVertex
100
AcDb2dVertex
 10
14.64716796508821
 20
15.06402451880344
 30
0.0
  0
VERTEX
  5
3E
330
3C
100
AcDbEntity
  8
cuerpo
 62
     7
420
 16777215
370
     9
100
AcDbVertex
100
AcDb2dVertex
 10
14.64716796508821
 20
14.21170789575263
 30
0.0
  0
SEQEND
  5
3F
330
3C
100
AcDbEntity
  8
cuerpo
370
     9
  0
POLYLINE
  5
40
330
1F
100
AcDbEntity
  8
cuerpo
 62
     7
420
 16777215
370
     9
100
AcDb2dPolyline
 66
     1
 10
0.0
 20
0.0
 30
0.0
  0
VERTEX
  5
41
330
40
100
AcDbEntity
  8
cuerpo
 62
     7
420
 16777215
370
     9
100
AcDbVertex
100
AcDb2dVertex
 10
16.25723334011972
 20
15.06402451880344
 30
0.0
  0
VERTEX
  5
42
330
40
100
AcDbEntity
  8
cuerpo
 62
     7
420
 16777215
370
     9
100
AcDbVertex
100
AcDb2dVertex
 10
16.25723334011972
 20
14.21170789575263
 30
0.0
  0
SEQEND
  5
43
330
40
100
AcDbEntity
  8
cuerpo
370
     9
  0
POLYLINE
  5
44
330
1F
100
AcDbEntity
  8
cuerpo
 62
     7
420
 16777215
370
     9
100
AcDb2dPolyline
 66
     1
 10
0.0
 20
0.0
 30
0.0
  0
VERTEX
  5
45
330
44
100
AcDbEntity
  8
cuerpo
 62
     7
420
 16777215
370
     9
100
AcDbVertex
100
AcDb2dVertex
 10
16.09686414528134
 20
10.78452690702609
 30
0.0
  0
VERTEX
  5
46
330
44
100
AcDbEntity
  8
cuerpo
 62
     7
420
 16777215
370
     9
100
AcDbVertex
100
AcDb2dVertex
 10
16.09686414528134
 20
11.37983940687726
 30
0.0
  0
SEQEND
  5
47
330
44
100
AcDbEntity
  8
cuerpo
370
     9
  0
POLYLINE
  5
48
330
1F
100
AcDbEntity
  8
cuerpo
 62
     7
420
 16777215
370
     9
100
AcDb2dPolyline
 66
     1
 10
0.0
 20
0.0
 30
0.0
  0
VERTEX
  5
49
330
48
100
AcDbEntity
  8
cuerpo
 62
     7
420
 16777215
370
     9
100
AcDbVertex
100
AcDb2dVertex
 10
15.62333577083375
 20
10.6577473931689
 30
0.0
  0
VERTEX
  5
4A
330
48
100
AcDbEntity
  8
cuerpo
 62
     7
420
 16777215
370
     9
100
AcDbVertex
100
AcDb2dVertex
 10
15.62333577083375
 20
11.37983940687726
 30
0.0
  0
SEQEND
  5
4B
330
48
100
AcDbEntity
  8
cuerpo
370
     9
  0
POLYLINE
  5
4C
330
1F
100
AcDbEntity
  8
cuerpo
 62
     7
420
 16777215
370
     9
100
AcDb2dPolyline
 66
     1
 10
0.0
 20
0.0
 30
0.0
  0
VERTEX
  5
4D
330
4C
100
AcDbEntity
  8
cuerpo
 62
     7
420
 16777215
370
     9
100
AcDbVertex
100
AcDb2dVertex
 10
15.31620550832373
 20
10.57540961107143
 30
0.0
  0
VERTEX
  5
4E
330
4C
100
AcDbEntity
  8
cuerpo
 62
     7
420
 16777215
370
     9
100
AcDbVertex
100
AcDb2dVertex
 10
16.54334852016972
 20
10.90407172036426
 30
0.0
  0
SEQEND
  5
4F
330
4C
100
AcDbEntity
  8
cuerpo
370
     9
  0
POLYLINE
  5
50
330
1F
100
AcDbEntity
  8
cuerpo
 62
     7
420
 16777215
370
     9
100
AcDb2dPolyline
 66
     1
 10
0.0
 20
0.0
 30
0.0
  0
VERTEX
  5
51
330
50
100
AcDbEntity
  8
cuerpo
 62
     7
420
 16777215
370
     9
100
AcDbVertex
100
AcDb2dVertex
 10
15.29226209470124
 20
10.30600314412489
 30
0.0
  0
VERTEX
  5
52
330
50
100
AcDbEntity
  8
cuerpo
 62
     7
420
 16777215
370
     9
100
AcDbVertex
100
AcDb2dVertex
 10
16.56160752624154
 20
10.64603406851905
 30
0.0
  0
SEQEND
  5
53
330
50
100
AcDbEntity
  8
cuerpo
370
     9
  0
POLYLINE
  5
54
330
1F
100
AcDbEntity
  8
cuerpo
 62
     7
420
 16777215
370
     9
100
AcDb2dPolyline
 66
     1
 10
0.0
 20
0.0
 30
0.0
  0
VERTEX
  5
55
330
54
100
AcDbEntity
  8
cuerpo
 62
     7
420
 16777215
370
     9
100
AcDbVertex
100
AcDb2dVertex
 10
15.62333577083375
 20
8.728149411880462
 30
0.0
  0
VERTEX
  5
56
330
54
100
AcDbEntity
  8
cuerpo
 62
     7
420
 16777215
370
     9
100
AcDbVertex
100
AcDb2dVertex
 10
15.62333577083375
 20
8.775347220028387
 30
0.0
  0
SEQEND
  5
57
330
54
100
AcDbEntity
  8
cuerpo
370
     9
  0
SPLINE
  5
58
330
1F
100
AcDbEntity
  8
cuerpo
 62
     7
420
 16777215
370
     9
100
AcDbSpline
210
0.0
220
0.0
230
1.0
 70
     8
 71
     3
 72
    11
 73
     7
 74
     0
 42
0.0000000001
 43
0.0000000001
 40
0.0
 40
0.0
 40
0.0
 40
0.0
 40
1.0
 40
1.0
 40
1.0
 40
2.0
 40
2.0
 40
2.0
 40
2.0
 10
16.07326524120738
 20
8.79911837887661
 30
0.0
 10
16.11546766090169
 20
8.802218964813335
 30
0.0
 10
16.14716253936599
 20
8.839081486505508
 30
0.0
 10
16.14406195342926
 20
8.88145616097408
 30
0.0
 10
16.14320067955795
 20
8.891446937881305
 30
0.0
 10
16.14061685794401
 20
8.901093205240004
 30
0.0
 10
16.13613823381319
 20
8.910050453501654
 30
0.0
  0
SPLINE
  5
59
330
1F
100
AcDbEntity
  8
cuerpo
 62
     7
420
 16777215
370
     9
100
AcDbSpline
210
0.0
220
0.0
230
1.0
 70
     8
 71
     3
 72
    11
 73
     7
 74
     0
 42
0.0000000001
 43
0.0000000001
 40
0.0
 40
0.0
 40
0.0
 40
0.0
 40
1.0
 40
1.0
 40
1.0
 40
2.0
 40
2.0
 40
2.0
 40
2.0
 10
15.5840616823019
 20
8.910050453501654
 30
0.0
 10
15.56511365713303
 20
8.872154403163906
 30
0.0
 10
15.58044433204239
 20
8.825990123661558
 30
0.0
 10
15.61834038238014
 20
8.807042098492685
 30
0.0
 10
15.62729763064179
 20
8.80256347436186
 30
0.0
 10
15.63711615277475
 20
8.799807397973659
 30
0.0
 10
15.64693467490771
 20
8.79911837887661
 30
0.0
  0
POLYLINE
  5
5A
330
1F
100
AcDbEntity
  8
cuerpo
 62
     7
420
 16777215
370
     9
100
AcDb2dPolyline
 66
     1
 10
0.0
 20
0.0
 30
0.0
  0
VERTEX
  5
5B
330
5A
100
AcDbEntity
  8
cuerpo
 62
     7
420
 16777215
370
     9
100
AcDbVertex
100
AcDb2dVertex
 10
15.57596570791156
 20
9.580466034931273
 30
0.0
  0
VERTEX
  5
5C
330
5A
100
AcDbEntity
  8
cuerpo
 62
     7
420
 16777215
370
     9
100
AcDbVertex
100
AcDb2dVertex
 10
16.14423420820352
 20
9.580466034931273
 30
0.0
  0
SEQEND
  5
5D
330
5A
100
AcDbEntity
  8
cuerpo
370
     9
  0
POLYLINE
  5
5E
330
1F
100
AcDbEntity
  8
cuerpo
 62
     7
420
 16777215
370
     9
100
AcDb2dPolyline
 66
     1
 10
0.0
 20
0.0
 30
0.0
  0
VERTEX
  5
5F
330
5E
100
AcDbEntity
  8
cuerpo
 62
     7
420
 16777215
370
     9
100
AcDbVertex
100
AcDb2dVertex
 10
16.09686414528134
 20
8.98859863056535
 30
0.0
  0
VERTEX
  5
60
330
5E
100
AcDbEntity
  8
cuerpo
 62
     7
420
 16777215
370
     9
100
AcDbVertex
100
AcDb2dVertex
 10
16.09686414528134
 20
9.320016816246385
 30
0.0
  0
SEQEND
  5
61
330
5E
100
AcDbEntity
  8
cuerpo
370
     9
  0
POLYLINE
  5
62
330
1F
100
AcDbEntity
  8
cuerpo
 62
     7
420
 16777215
370
     9
100
AcDb2dPolyline
 66
     1
 10
0.0
 20
0.0
 30
0.0
  0
VERTEX
  5
63
330
62
100
AcDbEntity
  8
cuerpo
 62
     7
420
 16777215
370
     9
100
AcDbVertex
100
AcDb2dVertex
 10
16.14423420820352
 20
9.503295896061676
 30
0.0
  0
VERTEX
  5
64
330
62
100
AcDbEntity
  8
cuerpo
 62
     7
420
 16777215
370
     9
100
AcDbVertex
100
AcDb2dVertex
 10
16.14423420820352
 20
9.580466034931273
 30
0.0
  0
SEQEND
  5
65
330
62
100
AcDbEntity
  8
cuerpo
370
     9
  0
SPLINE
  5
66
330
1F
100
AcDbEntity
  8
cuerpo
 62
     7
420
 16777215
370
     9
100
AcDbSpline
210
0.0
220
0.0
230
1.0
 70
     8
 71
     3
 72
     8
 73
     4
 74
     0
 42
0.0000000001
 43
0.0000000001
 40
0.0
 40
0.0
 40
0.0
 40
0.0
 40
1.0
 40
1.0
 40
1.0
 40
1.0
 10
16.09686414528134
 20
9.320016816246385
 30
0.0
 10
16.12787000464859
 20
9.376171872655958
 30
0.0
 10
16.14423420820352
 20
9.43921712003603
 30
0.0
 10
16.14423420820352
 20
9.503295896061676
 30
0.0
  0
POLYLINE
  5
67
330
1F
100
AcDbEntity
  8
cuerpo
 62
     7
420
 16777215
370
     9
100
AcDb2dPolyline
 66
     1
 10
0.0
 20
0.0
 30
0.0
  0
VERTEX
  5
68
330
67
100
AcDbEntity
  8
cuerpo
 62
     7
420
 16777215
370
     9
100
AcDbVertex
100
AcDb2dVertex
 10
16.09686414528134
 20
8.98859863056535
 30
0.0
  0
VERTEX
  5
69
330
67
100
AcDbEntity
  8
cuerpo
 62
     7
420
 16777215
370
     9
100
AcDbVertex
100
AcDb2dVertex
 10
16.13613823381319
 20
8.910050453501654
 30
0.0
  0
SEQEND
  5
6A
330
67
100
AcDbEntity
  8
cuerpo
370
     9
  0
POLYLINE
  5
6B
330
1F
100
AcDbEntity
  8
cuerpo
 62
     7
420
 16777215
370
     9
100
AcDb2dPolyline
 66
     1
 10
0.0
 20
0.0
 30
0.0
  0
VERTEX
  5
6C
330
6B
100
AcDbEntity
  8
cuerpo
 62
     7
420
 16777215
370
     9
100
AcDbVertex
100
AcDb2dVertex
 10
16.06137966178327
 20
8.98859863056535
 30
0.0
  0
VERTEX
  5
6D
330
6B
100
AcDbEntity
  8
cuerpo
 62
     7
420
 16777215
370
     9
100
AcDbVertex
100
AcDb2dVertex
 10
16.06137966178327
 20
9.320016816246385
 30
0.0
  0
SEQEND
  5
6E
330
6B
100
AcDbEntity
  8
cuerpo
370
     9
  0
POLYLINE
  5
6F
330
1F
100
AcDbEntity
  8
cuerpo
 62
     7
420
 16777215
370
     9
100
AcDb2dPolyline
 66
     1
 10
0.0
 20
0.0
 30
0.0
  0
VERTEX
  5
70
330
6F
100
AcDbEntity
  8
cuerpo
 62
     7
420
 16777215
370
     9
100
AcDbVertex
100
AcDb2dVertex
 10
15.91926947301671
 20
8.98859863056535
 30
0.0
  0
VERTEX
  5
71
330
6F
100
AcDbEntity
  8
cuerpo
 62
     7
420
 16777215
370
     9
100
AcDbVertex
100
AcDb2dVertex
 10
15.91926947301671
 20
9.320016816246385
 30
0.0
  0
SEQEND
  5
72
330
6F
100
AcDbEntity
  8
cuerpo
370
     9
  0
POLYLINE
  5
73
330
1F
100
AcDbEntity
  8
cuerpo
 62
     7
420
 16777215
370
     9
100
AcDb2dPolyline
 66
     1
 10
0.0
 20
0.0
 30
0.0
  0
VERTEX
  5
74
330
73
100
AcDbEntity
  8
cuerpo
 62
     7
420
 16777215
370
     9
100
AcDbVertex
100
AcDb2dVertex
 10
15.80093044309838
 20
8.98859863056535
 30
0.0
  0
VERTEX
  5
75
330
73
100
AcDbEntity
  8
cuerpo
 62
     7
420
 16777215
370
     9
100
AcDbVertex
100
AcDb2dVertex
 10
15.80093044309838
 20
9.320016816246385
 30
0.0
  0
SEQEND
  5
76
330
73
100
AcDbEntity
  8
cuerpo
370
     9
  0
POLYLINE
  5
77
330
1F
100
AcDbEntity
  8
cuerpo
 62
     7
420
 16777215
370
     9
100
AcDb2dPolyline
 66
     1
 10
0.0
 20
0.0
 30
0.0
  0
VERTEX
  5
78
330
77
100
AcDbEntity
  8
cuerpo
 62
     7
420
 16777215
370
     9
100
AcDbVertex
100
AcDb2dVertex
 10
15.97852511536301
 20
8.98859863056535
 30
0.0
  0
VERTEX
  5
79
330
77
100
AcDbEntity
  8
cuerpo
 62
     7
420
 16777215
370
     9
100
AcDbVertex
100
AcDb2dVertex
 10
15.97852511536301
 20
9.320016816246385
 30
0.0
  0
SEQEND
  5
7A
330
77
100
AcDbEntity
  8
cuerpo
370
     9
  0
SPLINE
  5
7B
330
1F
100
AcDbEntity
  8
cuerpo
 62
     7
420
 16777215
370
     9
100
AcDbSpline
210
0.0
220
0.0
230
1.0
 70
     8
 71
     3
 72
    11
 73
     7
 74
     0
 42
0.0000000001
 43
0.0000000001
 40
0.0
 40
0.0
 40
0.0
 40
0.0
 40
1.0
 40
1.0
 40
1.0
 40
2.0
 40
2.0
 40
2.0
 40
2.0
 10
15.80093044309838
 20
8.98859863056535
 30
0.0
 10
15.80093044309838
 20
8.955870223455477
 30
0.0
 10
15.8274576783348
 20
8.929342988219053
 30
0.0
 10
15.86018608544468
 20
8.929342988219053
 30
0.0
 10
15.89274223778029
 20
8.929342988219053
 30
0.0
 10
15.91926947301671
 20
8.955870223455477
 30
0.0
 10
15.91926947301671
 20
8.98859863056535
 30
0.0
  0
SPLINE
  5
7C
330
1F
100
AcDbEntity
  8
cuerpo
 62
     7
420
 16777215
370
     9
100
AcDbSpline
210
0.0
220
0.0
230
1.0
 70
     8
 71
     3
 72
    11
 73
     7
 74
     0
 42
0.0000000001
 43
0.0000000001
 40
0.0
 40
0.0
 40
0.0
 40
0.0
 40
1.0
 40
1.0
 40
1.0
 40
2.0
 40
2.0
 40
2.0
 40
2.0
 10
15.97852511536301
 20
8.98859863056535
 30
0.0
 10
15.97852511536301
 20
8.955870223455477
 30
0.0
 10
15.99695637620909
 20
8.929342988219053
 30
0.0
 10
16.01986626118601
 20
8.929342988219053
 30
0.0
 10
16.04277614616292
 20
8.929342988219053
 30
0.0
 10
16.06137966178327
 20
8.955870223455477
 30
0.0
 10
16.06137966178327
 20
8.98859863056535
 30
0.0
  0
SPLINE
  5
7D
330
1F
100
AcDbEntity
  8
cuerpo
 62
     7
420
 16777215
370
     9
100
AcDbSpline
210
0.0
220
0.0
230
1.0
 70
     8
 71
     3
 72
    11
 73
     7
 74
     0
 42
0.0000000001
 43
0.0000000001
 40
0.0
 40
0.0
 40
0.0
 40
0.0
 40
1.0
 40
1.0
 40
1.0
 40
2.0
 40
2.0
 40
2.0
 40
2.0
 10
16.06137966178327
 20
9.320016816246385
 30
0.0
 10
16.06137966178327
 20
9.352745223356258
 30
0.0
 10
16.04277614616292
 20
9.379272458592682
 30
0.0
 10
16.01986626118601
 20
9.379272458592682
 30
0.0
 10
15.99695637620909
 20
9.379272458592682
 30
0.0
 10
15.97852511536301
 20
9.352745223356258
 30
0.0
 10
15.97852511536301
 20
9.320016816246385
 30
0.0
  0
SPLINE
  5
7E
330
1F
100
AcDbEntity
  8
cuerpo
 62
     7
420
 16777215
370
     9
100
AcDbSpline
210
0.0
220
0.0
230
1.0
 70
     8
 71
     3
 72
    11
 73
     7
 74
     0
 42
0.0000000001
 43
0.0000000001
 40
0.0
 40
0.0
 40
0.0
 40
0.0
 40
1.0
 40
1.0
 40
1.0
 40
2.0
 40
2.0
 40
2.0
 40
2.0
 10
15.91926947301671
 20
9.320016816246385
 30
0.0
 10
15.91926947301671
 20
9.352745223356258
 30
0.0
 10
15.89274223778029
 20
9.379272458592682
 30
0.0
 10
15.86018608544468
 20
9.379272458592682
 30
0.0
 10
15.8274576783348
 20
9.379272458592682
 30
0.0
 10
15.80093044309838
 20
9.352745223356258
 30
0.0
 10
15.80093044309838
 20
9.320016816246385
 30
0.0
  0
POLYLINE
  5
7F
330
1F
100
AcDbEntity
  8
cuerpo
 62
     7
420
 16777215
370
     9
100
AcDb2dPolyline
 66
     1
 10
0.0
 20
0.0
 30
0.0
  0
VERTEX
  5
80
330
7F
100
AcDbEntity
  8
cuerpo
 62
     7
420
 16777215
370
     9
100
AcDbVertex
100
AcDb2dVertex
 10
15.57596570791156
 20
9.503295896061676
 30
0.0
  0
VERTEX
  5
81
330
7F
100
AcDbEntity
  8
cuerpo
 62
     7
420
 16777215
370
     9
100
AcDbVertex
100
AcDb2dVertex
 10
15.57596570791156
 20
9.580466034931273
 30
0.0
  0
SEQEND
  5
82
330
7F
100
AcDbEntity
  8
cuerpo
370
     9
  0
SPLINE
  5
83
330
1F
100
AcDbEntity
  8
cuerpo
 62
     7
420
 16777215
370
     9
100
AcDbSpline
210
0.0
220
0.0
230
1.0
 70
     8
 71
     3
 72
     8
 73
     4
 74
     0
 42
0.0000000001
 43
0.0000000001
 40
0.0
 40
0.0
 40
0.0
 40
0.0
 40
1.0
 40
1.0
 40
1.0
 40
1.0
 10
15.57596570791156
 20
9.503295896061676
 30
0.0
 10
15.57596570791156
 20
9.43921712003603
 30
0.0
 10
15.59215765669224
 20
9.376171872655958
 30
0.0
 10
15.62333577083375
 20
9.320016816246385
 30
0.0
  0
POLYLINE
  5
84
330
1F
100
AcDbEntity
  8
cuerpo
 62
     7
420
 16777215
370
     9
100
AcDb2dPolyline
 66
     1
 10
0.0
 20
0.0
 30
0.0
  0
VERTEX
  5
85
330
84
100
AcDbEntity
  8
cuerpo
 62
     7
420
 16777215
370
     9
100
AcDbVertex
100
AcDb2dVertex
 10
15.62333577083375
 20
8.98859863056535
 30
0.0
  0
VERTEX
  5
86
330
84
100
AcDbEntity
  8
cuerpo
 62
     7
420
 16777215
370
     9
100
AcDbVertex
100
AcDb2dVertex
 10
15.5840616823019
 20
8.910050453501654
 30
0.0
  0
SEQEND
  5
87
330
84
100
AcDbEntity
  8
cuerpo
370
     9
  0
POLYLINE
  5
88
330
1F
100
AcDbEntity
  8
cuerpo
 62
     7
420
 16777215
370
     9
100
AcDb2dPolyline
 66
     1
 10
0.0
 20
0.0
 30
0.0
  0
VERTEX
  5
89
330
88
100
AcDbEntity
  8
cuerpo
 62
     7
420
 16777215
370
     9
100
AcDbVertex
100
AcDb2dVertex
 10
15.65882025433182
 20
8.98859863056535
 30
0.0
  0
VERTEX
  5
8A
330
88
100
AcDbEntity
  8
cuerpo
 62
     7
420
 16777215
370
     9
100
AcDbVertex
100
AcDb2dVertex
 10
15.65882025433182
 20
9.320016816246385
 30
0.0
  0
SEQEND
  5
8B
330
88
100
AcDbEntity
  8
cuerpo
370
     9
  0
POLYLINE
  5
8C
330
1F
100
AcDbEntity
  8
cuerpo
 62
     7
420
 16777215
370
     9
100
AcDb2dPolyline
 66
     1
 10
0.0
 20
0.0
 30
0.0
  0
VERTEX
  5
8D
330
8C
100
AcDbEntity
  8
cuerpo
 62
     7
420
 16777215
370
     9
100
AcDbVertex
100
AcDb2dVertex
 10
15.74167480075208
 20
8.98859863056535
 30
0.0
  0
VERTEX
  5
8E
330
8C
100
AcDbEntity
  8
cuerpo
 62
     7
420
 16777215
370
     9
100
AcDbVertex
100
AcDb2dVertex
 10
15.74167480075208
 20
9.320016816246385
 30
0.0
  0
SEQEND
  5
8F
330
8C
100
AcDbEntity
  8
cuerpo
370
     9
  0
SPLINE
  5
90
330
1F
100
AcDbEntity
  8
cuerpo
 62
     7
420
 16777215
370
     9
100
AcDbSpline
210
0.0
220
0.0
230
1.0
 70
     8
 71
     3
 72
    11
 73
     7
 74
     0
 42
0.0000000001
 43
0.0000000001
 40
0.0
 40
0.0
 40
0.0
 40
0.0
 40
1.0
 40
1.0
 40
1.0
 40
2.0
 40
2.0
 40
2.0
 40
2.0
 10
15.65882025433182
 20
8.98859863056535
 30
0.0
 10
15.65882025433182
 20
8.955870223455477
 30
0.0
 10
15.67742376995217
 20
8.929342988219053
 30
0.0
 10
15.70033365492908
 20
8.929342988219053
 30
0.0
 10
15.72307128513173
 20
8.929342988219053
 30
0.0
 10
15.74167480075208
 20
8.955870223455477
 30
0.0
 10
15.74167480075208
 20
8.98859863056535
 30
0.0
  0
SPLINE
  5
91
330
1F
100
AcDbEntity
  8
cuerpo
 62
     7
420
 16777215
370
     9
100
AcDbSpline
210
0.0
220
0.0
230
1.0
 70
     8
 71
     3
 72
    11
 73
     7
 74
     0
 42
0.0000000001
 43
0.0000000001
 40
0.0
 40
0.0
 40
0.0
 40
0.0
 40
1.0
 40
1.0
 40
1.0
 40
2.0
 40
2.0
 40
2.0
 40
2.0
 10
15.74167480075208
 20
9.320016816246385
 30
0.0
 10
15.74167480075208
 20
9.352745223356258
 30
0.0
 10
15.72307128513173
 20
9.379272458592682
 30
0.0
 10
15.70033365492908
 20
9.379272458592682
 30
0.0
 10
15.67742376995217
 20
9.379272458592682
 30
0.0
 10
15.65882025433182
 20
9.352745223356258
 30
0.0
 10
15.65882025433182
 20
9.320016816246385
 30
0.0
  0
POLYLINE
  5
92
330
1F
100
AcDbEntity
  8
cuerpo
 62
     7
420
 16777215
370
     9
100
AcDb2dPolyline
 66
     1
 10
0.0
 20
0.0
 30
0.0
  0
VERTEX
  5
93
330
92
100
AcDbEntity
  8
cuerpo
 62
     7
420
 16777215
370
     9
100
AcDbVertex
100
AcDb2dVertex
 10
15.62333577083375
 20
8.98859863056535
 30
0.0
  0
VERTEX
  5
94
330
92
100
AcDbEntity
  8
cuerpo
 62
     7
420
 16777215
370
     9
100
AcDbVertex
100
AcDb2dVertex
 10
15.62333577083375
 20
9.320016816246385
 30
0.0
  0
SEQEND
  5
95
330
92
100
AcDbEntity
  8
cuerpo
370
     9
  0
POLYLINE
  5
96
330
1F
100
AcDbEntity
  8
cuerpo
 62
     7
420
 16777215
370
     9
100
AcDb2dPolyline
 66
     1
 10
0.0
 20
0.0
 30
0.0
  0
VERTEX
  5
97
330
96
100
AcDbEntity
  8
cuerpo
 62
     7
420
 16777215
370
     9
100
AcDbVertex
100
AcDb2dVertex
 10
15.64693467490771
 20
8.79911837887661
 30
0.0
  0
VERTEX
  5
98
330
96
100
AcDbEntity
  8
cuerpo
 62
     7
420
 16777215
370
     9
100
AcDbVertex
100
AcDb2dVertex
 10
16.07326524120738
 20
8.79911837887661
 30
0.0
  0
SEQEND
  5
99
330
96
100
AcDbEntity
  8
cuerpo
370
     9
  0
POLYLINE
  5
9A
330
1F
100
AcDbEntity
  8
cuerpo
 62
     7
420
 16777215
370
     9
100
AcDb2dPolyline
 66
     1
 10
0.0
 20
0.0
 30
0.0
  0
VERTEX
  5
9B
330
9A
100
AcDbEntity
  8
cuerpo
 62
     7
420
 16777215
370
     9
100
AcDbVertex
100
AcDb2dVertex
 10
15.50499674091542
 20
8.728149411880462
 30
0.0
  0
VERTEX
  5
9C
330
9A
100
AcDbEntity
  8
cuerpo
 62
     7
420
 16777215
370
     9
100
AcDbVertex
100
AcDb2dVertex
 10
16.21520317519967
 20
8.728149411880462
 30
0.0
  0
SEQEND
  5
9D
330
9A
100
AcDbEntity
  8
cuerpo
370
     9
  0
POLYLINE
  5
9E
330
1F
100
AcDbEntity
  8
cuerpo
 62
     7
420
 16777215
370
     9
100
AcDb2dPolyline
 66
     1
 10
0.0
 20
0.0
 30
0.0
  0
VERTEX
  5
9F
330
9E
100
AcDbEntity
  8
cuerpo
 62
     7
420
 16777215
370
     9
100
AcDbVertex
100
AcDb2dVertex
 10
16.09686414528134
 20
8.728149411880462
 30
0.0
  0
VERTEX
  5
A0
330
9E
100
AcDbEntity
  8
cuerpo
 62
     7
420
 16777215
370
     9
100
AcDbVertex
100
AcDb2dVertex
 10
16.09686414528134
 20
8.775347220028387
 30
0.0
  0
SEQEND
  5
A1
330
9E
100
AcDbEntity
  8
cuerpo
370
     9
  0
SPLINE
  5
A2
330
1F
100
AcDbEntity
  8
cuerpo
 62
     7
420
 16777215
370
     9
100
AcDbSpline
210
0.0
220
0.0
230
1.0
 70
     8
 71
     3
 72
     8
 73
     4
 74
     0
 42
0.0000000001
 43
0.0000000001
 40
0.0
 40
0.0
 40
0.0
 40
0.0
 40
1.0
 40
1.0
 40
1.0
 40
1.0
 10
16.09686414528134
 20
8.775347220028387
 30
0.0
 10
16.09686414528134
 20
8.788438582872335
 30
0.0
 10
16.08635660405133
 20
8.79911837887661
 30
0.0
 10
16.07326524120738
 20
8.79911837887661
 30
0.0
  0
POLYLINE
  5
A3
330
1F
100
AcDbEntity
  8
cuerpo
 62
     7
420
 16777215
370
     9
100
AcDb2dPolyline
 66
     1
 10
0.0
 20
0.0
 30
0.0
  0
VERTEX
  5
A4
330
A3
100
AcDbEntity
  8
cuerpo
 62
     7
420
 16777215
370
     9
100
AcDbVertex
100
AcDb2dVertex
 10
16.28634439697008
 20
8.68715277560599
 30
0.0
  0
VERTEX
  5
A5
330
A3
100
AcDbEntity
  8
cuerpo
 62
     7
420
 16777215
370
     9
100
AcDbVertex
100
AcDb2dVertex
 10
16.28634439697008
 20
8.295445418933083
 30
0.0
  0
SEQEND
  5
A6
330
A3
100
AcDbEntity
  8
cuerpo
370
     9
  0
POLYLINE
  5
A7
330
1F
100
AcDbEntity
  8
cuerpo
 62
     7
420
 16777215
370
     9
100
AcDb2dPolyline
 66
     1
 10
0.0
 20
0.0
 30
0.0
  0
VERTEX
  5
A8
330
A7
100
AcDbEntity
  8
cuerpo
 62
     7
420
 16777215
370
     9
100
AcDbVertex
100
AcDb2dVertex
 10
16.21520317519967
 20
8.25444878265861
 30
0.0
  0
VERTEX
  5
A9
330
A7
100
AcDbEntity
  8
cuerpo
 62
     7
420
 16777215
370
     9
100
AcDbVertex
100
AcDb2dVertex
 10
15.50499674091542
 20
8.25444878265861
 30
0.0
  0
SEQEND
  5
AA
330
A7
100
AcDbEntity
  8
cuerpo
370
     9
  0
SPLINE
  5
AB
330
1F
100
AcDbEntity
  8
cuerpo
 62
     7
420
 16777215
370
     9
100
AcDbSpline
210
0.0
220
0.0
230
1.0
 70
     8
 71
     3
 72
     8
 73
     4
 74
     0
 42
0.0000000001
 43
0.0000000001
 40
0.0
 40
0.0
 40
0.0
 40
0.0
 40
1.0
 40
1.0
 40
1.0
 40
1.0
 10
15.64693467490771
 20
8.79911837887661
 30
0.0
 10
15.63384331206376
 20
8.79911837887661
 30
0.0
 10
15.62333577083375
 20
8.788438582872335
 30
0.0
 10
15.62333577083375
 20
8.775347220028387
 30
0.0
  0
POLYLINE
  5
AC
330
1F
100
AcDbEntity
  8
cuerpo
 62
     7
420
 16777215
370
     9
100
AcDb2dPolyline
 66
     1
 10
0.0
 20
0.0
 30
0.0
  0
VERTEX
  5
AD
330
AC
100
AcDbEntity
  8
cuerpo
 62
     7
420
 16777215
370
     9
100
AcDbVertex
100
AcDb2dVertex
 10
16.21520317519967
 20
8.728149411880462
 30
0.0
  0
VERTEX
  5
AE
330
AC
100
AcDbEntity
  8
cuerpo
 62
     7
420
 16777215
370
     9
100
AcDbVertex
100
AcDb2dVertex
 10
16.28634439697008
 20
8.68715277560599
 30
0.0
  0
SEQEND
  5
AF
330
AC
100
AcDbEntity
  8
cuerpo
370
     9
  0
POLYLINE
  5
B0
330
1F
100
AcDbEntity
  8
cuerpo
 62
     7
420
 16777215
370
     9
100
AcDb2dPolyline
 66
     1
 10
0.0
 20
0.0
 30
0.0
  0
VERTEX
  5
B1
330
B0
100
AcDbEntity
  8
cuerpo
 62
     7
420
 16777215
370
     9
100
AcDbVertex
100
AcDb2dVertex
 10
16.21520317519967
 20
8.25444878265861
 30
0.0
  0
VERTEX
  5
B2
330
B0
100
AcDbEntity
  8
cuerpo
 62
     7
420
 16777215
370
     9
100
AcDbVertex
100
AcDb2dVertex
 10
16.28634439697008
 20
8.295445418933083
 30
0.0
  0
SEQEND
  5
B3
330
B0
100
AcDbEntity
  8
cuerpo
370
     9
  0
POLYLINE
  5
B4
330
1F
100
AcDbEntity
  8
cuerpo
 62
     7
420
 16777215
370
     9
100
AcDb2dPolyline
 66
     1
 10
0.0
 20
0.0
 30
0.0
  0
VERTEX
  5
B5
330
B4
100
AcDbEntity
  8
cuerpo
 62
     7
420
 16777215
370
     9
100
AcDbVertex
100
AcDb2dVertex
 10
15.62333577083375
 20
8.68715277560599
 30
0.0
  0
VERTEX
  5
B6
330
B4
100
AcDbEntity
  8
cuerpo
 62
     7
420
 16777215
370
     9
100
AcDbVertex
100
AcDb2dVertex
 10
15.62333577083375
 20
8.295445418933083
 30
0.0
  0
SEQEND
  5
B7
330
B4
100
AcDbEntity
  8
cuerpo
370
     9
  0
POLYLINE
  5
B8
330
1F
100
AcDbEntity
  8
cuerpo
 62
     7
420
 16777215
370
     9
100
AcDb2dPolyline
 66
     1
 10
0.0
 20
0.0
 30
0.0
  0
VERTEX
  5
B9
330
B8
100
AcDbEntity
  8
cuerpo
 62
     7
420
 16777215
370
     9
100
AcDbVertex
100
AcDb2dVertex
 10
16.09686414528134
 20
8.68715277560599
 30
0.0
  0
VERTEX
  5
BA
330
B8
100
AcDbEntity
  8
cuerpo
 62
     7
420
 16777215
370
     9
100
AcDbVertex
100
AcDb2dVertex
 10
16.09686414528134
 20
8.295445418933083
 30
0.0
  0
SEQEND
  5
BB
330
B8
100
AcDbEntity
  8
cuerpo
370
     9
  0
SPLINE
  5
BC
330
1F
100
AcDbEntity
  8
cuerpo
 62
     7
420
 16777215
370
     9
100
AcDbSpline
210
0.0
220
0.0
230
1.0
 70
     8
 71
     3
 72
     8
 73
     4
 74
     0
 42
0.0000000001
 43
0.0000000001
 40
0.0
 40
0.0
 40
0.0
 40
0.0
 40
1.0
 40
1.0
 40
1.0
 40
1.0
 10
16.09686414528134
 20
8.68715277560599
 30
0.0
 10
15.94372965096198
 20
8.741585284272938
 30
0.0
 10
15.7764702651531
 20
8.741585284272938
 30
0.0
 10
15.62333577083375
 20
8.68715277560599
 30
0.0
  0
SPLINE
  5
BD
330
1F
100
AcDbEntity
  8
cuerpo
 62
     7
420
 16777215
370
     9
100
AcDbSpline
210
0.0
220
0.0
230
1.0
 70
     8
 71
     3
 72
     8
 73
     4
 74
     0
 42
0.0000000001
 43
0.0000000001
 40
0.0
 40
0.0
 40
0.0
 40
0.0
 40
1.0
 40
1.0
 40
1.0
 40
1.0
 10
15.62333577083375
 20
8.295445418933083
 30
0.0
 10
15.7764702651531
 20
8.240668400717611
 30
0.0
 10
15.94372965096198
 20
8.240668400717611
 30
0.0
 10
16.09686414528134
 20
8.295445418933083
 30
0.0
  0
SPLINE
  5
BE
330
1F
100
AcDbEntity
  8
cuerpo
 62
     7
420
 16777215
370
     9
100
AcDbSpline
210
0.0
220
0.0
230
1.0
 70
     8
 71
     3
 72
     8
 73
     4
 74
     0
 42
0.0000000001
 43
0.0000000001
 40
0.0
 40
0.0
 40
0.0
 40
0.0
 40
1.0
 40
1.0
 40
1.0
 40
1.0
 10
15.50499674091542
 20
8.25444878265861
 30
0.0
 10
15.54806043448104
 20
8.252726234915986
 30
0.0
 10
15.59043510894961
 20
8.26754014550256
 30
0.0
 10
15.62333577083375
 20
8.295445418933083
 30
0.0
  0
SPLINE
  5
BF
330
1F
100
AcDbEntity
  8
cuerpo
 62
     7
420
 16777215
370
     9
100
AcDbSpline
210
0.0
220
0.0
230
1.0
 70
     8
 71
     3
 72
     8
 73
     4
 74
     0
 42
0.0000000001
 43
0.0000000001
 40
0.0
 40
0.0
 40
0.0
 40
0.0
 40
1.0
 40
1.0
 40
1.0
 40
1.0
 10
15.62333577083375
 20
8.68715277560599
 30
0.0
 10
15.59043510894961
 20
8.715058049036514
 30
0.0
 10
15.54806043448104
 20
8.729871959623088
 30
0.0
 10
15.50499674091542
 20
8.728149411880462
 30
0.0
  0
SPLINE
  5
C0
330
1F
100
AcDbEntity
  8
cuerpo
 62
     7
420
 16777215
370
     9
100
AcDbSpline
210
0.0
220
0.0
230
1.0
 70
     8
 71
     3
 72
     8
 73
     4
 74
     0
 42
0.0000000001
 43
0.0000000001
 40
0.0
 40
0.0
 40
0.0
 40
0.0
 40
1.0
 40
1.0
 40
1.0
 40
1.0
 10
16.21520317519967
 20
8.728149411880462
 30
0.0
 10
16.17213948163405
 20
8.729871959623088
 30
0.0
 10
16.12976480716548
 20
8.715058049036514
 30
0.0
 10
16.09686414528134
 20
8.68715277560599
 30
0.0
  0
SPLINE
  5
C1
330
1F
100
AcDbEntity
  8
cuerpo
 62
     7
420
 16777215
370
     9
100
AcDbSpline
210
0.0
220
0.0
230
1.0
 70
     8
 71
     3
 72
     8
 73
     4
 74
     0
 42
0.0000000001
 43
0.0000000001
 40
0.0
 40
0.0
 40
0.0
 40
0.0
 40
1.0
 40
1.0
 40
1.0
 40
1.0
 10
16.09686414528134
 20
8.295445418933083
 30
0.0
 10
16.12976480716548
 20
8.26754014550256
 30
0.0
 10
16.17213948163405
 20
8.252726234915986
 30
0.0
 10
16.21520317519967
 20
8.25444878265861
 30
0.0
  0
POLYLINE
  5
C2
330
1F
100
AcDbEntity
  8
cuerpo
 62
     7
420
 16777215
370
     9
100
AcDb2dPolyline
 66
     1
 10
0.0
 20
0.0
 30
0.0
  0
VERTEX
  5
C3
330
C2
100
AcDbEntity
  8
cuerpo
 62
     7
420
 16777215
370
     9
100
AcDbVertex
100
AcDb2dVertex
 10
15.43385551914501
 20
8.68715277560599
 30
0.0
  0
VERTEX
  5
C4
330
C2
100
AcDbEntity
  8
cuerpo
 62
     7
420
 16777215
370
     9
100
AcDbVertex
100
AcDb2dVertex
 10
15.43385551914501
 20
8.295445418933083
 30
0.0
  0
SEQEND
  5
C5
330
C2
100
AcDbEntity
  8
cuerpo
370
     9
  0
POLYLINE
  5
C6
330
1F
100
AcDbEntity
  8
cuerpo
 62
     7
420
 16777215
370
     9
100
AcDb2dPolyline
 66
     1
 10
0.0
 20
0.0
 30
0.0
  0
VERTEX
  5
C7
330
C6
100
AcDbEntity
  8
cuerpo
 62
     7
420
 16777215
370
     9
100
AcDbVertex
100
AcDb2dVertex
 10
15.50499674091542
 20
8.728149411880462
 30
0.0
  0
VERTEX
  5
C8
330
C6
100
AcDbEntity
  8
cuerpo
 62
     7
420
 16777215
370
     9
100
AcDbVertex
100
AcDb2dVertex
 10
15.43385551914501
 20
8.68715277560599
 30
0.0
  0
SEQEND
  5
C9
330
C6
100
AcDbEntity
  8
cuerpo
370
     9
  0
POLYLINE
  5
CA
330
1F
100
AcDbEntity
  8
cuerpo
 62
     7
420
 16777215
370
     9
100
AcDb2dPolyline
 66
     1
 10
0.0
 20
0.0
 30
0.0
  0
VERTEX
  5
CB
330
CA
100
AcDbEntity
  8
cuerpo
 62
     7
420
 16777215
370
     9
100
AcDbVertex
100
AcDb2dVertex
 10
15.50499674091542
 20
8.25444878265861
 30
0.0
  0
VERTEX
  5
CC
330
CA
100
AcDbEntity
  8
cuerpo
 62
     7
420
 16777215
370
     9
100
AcDbVertex
100
AcDb2dVertex
 10
15.43385551914501
 20
8.295445418933083
 30
0.0
  0
SEQEND
  5
CD
330
CA
100
AcDbEntity
  8
cuerpo
370
     9
  0
POLYLINE
  5
CE
330
1F
100
AcDbEntity
  8
cuerpo
 62
     7
420
 16777215
370
     9
100
AcDb2dPolyline
 66
     1
 10
0.0
 20
0.0
 30
0.0
  0
VERTEX
  5
CF
330
CE
100
AcDbEntity
  8
cuerpo
 62
     7
420
 16777215
370
     9
100
AcDbVertex
100
AcDb2dVertex
 10
16.09686414528134
 20
9.580466034931273
 30
0.0
  0
VERTEX
  5
D0
330
CE
100
AcDbEntity
  8
cuerpo
 62
     7
420
 16777215
370
     9
100
AcDbVertex
100
AcDb2dVertex
 10
16.09686414528134
 20
10.52166612150153
 30
0.0
  0
SEQEND
  5
D1
330
CE
100
AcDbEntity
  8
cuerpo
370
     9
  0
POLYLINE
  5
D2
330
1F
100
AcDbEntity
  8
cuerpo
 62
     7
420
 16777215
370
     9
100
AcDb2dPolyline
 66
     1
 10
0.0
 20
0.0
 30
0.0
  0
VERTEX
  5
D3
330
D2
100
AcDbEntity
  8
cuerpo
 62
     7
420
 16777215
370
     9
100
AcDbVertex
100
AcDb2dVertex
 10
15.62333577083375
 20
10.39454209809581
 30
0.0
  0
VERTEX
  5
D4
330
D2
100
AcDbEntity
  8
cuerpo
 62
     7
420
 16777215
370
     9
100
AcDbVertex
100
AcDb2dVertex
 10
15.62333577083375
 20
9.580466034931273
 30
0.0
  0
SEQEND
  5
D5
330
D2
100
AcDbEntity
  8
cuerpo
370
     9
  0
POLYLINE
  5
D6
330
1F
100
AcDbEntity
  8
cuerpo
 62
     7
420
 16777215
370
     9
100
AcDb2dPolyline
 66
     1
 10
0.0
 20
0.0
 30
0.0
  0
VERTEX
  5
D7
330
D6
100
AcDbEntity
  8
cuerpo
 62
     7
420
 16777215
370
     9
100
AcDbVertex
100
AcDb2dVertex
 10
14.25167100338153
 20
18.66346028179247
 30
0.0
  0
VERTEX
  5
D8
330
D6
100
AcDbEntity
  8
cuerpo
 62
     7
420
 16777215
370
     9
100
AcDbVertex
100
AcDb2dVertex
 10
14.13333197346319
 20
15.77440320786195
 30
0.0
  0
SEQEND
  5
D9
330
D6
100
AcDbEntity
  8
cuerpo
370
     9
  0
POLYLINE
  5
DA
330
1F
100
AcDbEntity
  8
cuerpo
 62
     7
420
 16777215
370
     9
100
AcDb2dPolyline
 66
     1
 10
0.0
 20
0.0
 30
0.0
  0
VERTEX
  5
DB
330
DA
100
AcDbEntity
  8
cuerpo
 62
     7
420
 16777215
370
     9
100
AcDbVertex
100
AcDb2dVertex
 10
16.73799641508634
 20
15.06402451880344
 30
0.0
  0
VERTEX
  5
DC
330
DA
100
AcDbEntity
  8
cuerpo
 62
     7
420
 16777215
370
     9
100
AcDbVertex
100
AcDb2dVertex
 10
14.13333197346319
 20
15.06402451880344
 30
0.0
  0
SEQEND
  5
DD
330
DA
100
AcDbEntity
  8
cuerpo
370
     9
  0
POLYLINE
  5
DE
330
1F
100
AcDbEntity
  8
cuerpo
 62
     7
420
 16777215
370
     9
100
AcDb2dPolyline
 66
     1
 10
0.0
 20
0.0
 30
0.0
  0
VERTEX
  5
DF
330
DE
100
AcDbEntity
  8
cuerpo
 62
     7
420
 16777215
370
     9
100
AcDbVertex
100
AcDb2dVertex
 10
16.619657385168
 20
18.66346028179247
 30
0.0
  0
VERTEX
  5
E0
330
DE
100
AcDbEntity
  8
cuerpo
 62
     7
420
 16777215
370
     9
100
AcDbVertex
100
AcDb2dVertex
 10
16.73799641508634
 20
15.77440320786195
 30
0.0
  0
SEQEND
  5
E1
330
DE
100
AcDbEntity
  8
cuerpo
370
     9
  0
POLYLINE
  5
E2
330
1F
100
AcDbEntity
  8
cuerpo
 62
     7
420
 16777215
370
     9
100
AcDb2dPolyline
 66
     1
 10
0.0
 20
0.0
 30
0.0
  0
VERTEX
  5
E3
330
E2
100
AcDbEntity
  8
cuerpo
 62
     7
420
 16777215
370
     9
100
AcDbVertex
100
AcDb2dVertex
 10
14.25167100338153
 20
18.66346028179247
 30
0.0
  0
VERTEX
  5
E4
330
E2
100
AcDbEntity
  8
cuerpo
 62
     7
420
 16777215
370
     9
100
AcDbVertex
100
AcDb2dVertex
 10
16.619657385168
 20
18.66346028179247
 30
0.0
  0
SEQEND
  5
E5
330
E2
100
AcDbEntity
  8
cuerpo
370
     9
  0
POLYLINE
  5
E6
330
1F
100
AcDbEntity
  8
cuerpo
 62
     7
420
 16777215
370
     9
100
AcDb2dPolyline
 66
     1
 10
0.0
 20
0.0
 30
0.0
  0
VERTEX
  5
E7
330
E6
100
AcDbEntity
  8
cuerpo
 62
     7
420
 16777215
370
     9
100
AcDbVertex
100
AcDb2dVertex
 10
15.4357503216619
 20
13.64326714068641
 30
0.0
  0
VERTEX
  5
E8
330
E6
100
AcDbEntity
  8
cuerpo
 62
     7
420
 16777215
370
     9
100
AcDbVertex
100
AcDb2dVertex
 10
14.01499294354486
 20
13.64326714068641
 30
0.0
  0
SEQEND
  5
E9
330
E6
100
AcDbEntity
  8
cuerpo
370
     9
  0
POLYLINE
  5
EA
330
1F
100
AcDbEntity
  8
cuerpo
 62
     7
420
 16777215
370
     9
100
AcDb2dPolyline
 66
     1
 10
0.0
 20
0.0
 30
0.0
  0
VERTEX
  5
EB
330
EA
100
AcDbEntity
  8
cuerpo
 62
     7
420
 16777215
370
     9
100
AcDbVertex
100
AcDb2dVertex
 10
16.85633544500467
 20
13.64326714068641
 30
0.0
  0
VERTEX
  5
EC
330
EA
100
AcDbEntity
  8
cuerpo
 62
     7
420
 16777215
370
     9
100
AcDbVertex
100
AcDb2dVertex
 10
15.4357503216619
 20
13.64326714068641
 30
0.0
  0
SEQEND
  5
ED
330
EA
100
AcDbEntity
  8
cuerpo
370
     9
  0
POLYLINE
  5
EE
330
1F
100
AcDbEntity
  8
cuerpo
 62
     7
420
 16777215
370
     9
100
AcDb2dPolyline
 66
     1
 10
0.0
 20
0.0
 30
0.0
  0
VERTEX
  5
EF
330
EE
100
AcDbEntity
  8
cuerpo
 62
     7
420
 16777215
370
     9
100
AcDbVertex
100
AcDb2dVertex
 10
14.01499294354486
 20
13.64326714068641
 30
0.0
  0
VERTEX
  5
F0
330
EE
100
AcDbEntity
  8
cuerpo
 62
     7
420
 16777215
370
     9
100
AcDbVertex
100
AcDb2dVertex
 10
14.01499294354486
 20
13.7383517760793
 30
0.0
  0
SEQEND
  5
F1
330
EE
100
AcDbEntity
  8
cuerpo
370
     9
  0
POLYLINE
  5
F2
330
1F
100
AcDbEntity
  8
cuerpo
 62
     7
420
 16777215
370
     9
100
AcDb2dPolyline
 66
     1
 10
0.0
 20
0.0
 30
0.0
  0
VERTEX
  5
F3
330
F2
100
AcDbEntity
  8
cuerpo
 62
     7
420
 16777215
370
     9
100
AcDbVertex
100
AcDb2dVertex
 10
14.01499294354486
 20
13.7383517760793
 30
0.0
  0
VERTEX
  5
F4
330
F2
100
AcDbEntity
  8
cuerpo
 62
     7
420
 16777215
370
     9
100
AcDbVertex
100
AcDb2dVertex
 10
14.64716796508821
 20
14.21170789575263
 30
0.0
  0
SEQEND
  5
F5
330
F2
100
AcDbEntity
  8
cuerpo
370
     9
  0
POLYLINE
  5
F6
330
1F
100
AcDbEntity
  8
cuerpo
 62
     7
420
 16777215
370
     9
100
AcDb2dPolyline
 66
     1
 10
0.0
 20
0.0
 30
0.0
  0
VERTEX
  5
F7
330
F6
100
AcDbEntity
  8
cuerpo
 62
     7
420
 16777215
370
     9
100
AcDbVertex
100
AcDb2dVertex
 10
14.01499294354486
 20
13.7383517760793
 30
0.0
  0
VERTEX
  5
F8
330
F6
100
AcDbEntity
  8
cuerpo
 62
     7
420
 16777215
370
     9
100
AcDbVertex
100
AcDb2dVertex
 10
16.85633544500467
 20
13.7383517760793
 30
0.0
  0
SEQEND
  5
F9
330
F6
100
AcDbEntity
  8
cuerpo
370
     9
  0
POLYLINE
  5
FA
330
1F
100
AcDbEntity
  8
cuerpo
 62
     7
420
 16777215
370
     9
100
AcDb2dPolyline
 66
     1
 10
0.0
 20
0.0
 30
0.0
  0
VERTEX
  5
FB
330
FA
100
AcDbEntity
  8
cuerpo
 62
     7
420
 16777215
370
     9
100
AcDbVertex
100
AcDb2dVertex
 10
16.85633544500467
 20
13.7383517760793
 30
0.0
  0
VERTEX
  5
FC
330
FA
100
AcDbEntity
  8
cuerpo
 62
     7
420
 16777215
370
     9
100
AcDbVertex
100
AcDb2dVertex
 10
16.85633544500467
 20
13.64326714068641
 30
0.0
  0
SEQEND
  5
FD
330
FA
100
AcDbEntity
  8
cuerpo
370
     9
  0
POLYLINE
  5
FE
330
1F
100
AcDbEntity
  8
cuerpo
 62
     7
420
 16777215
370
     9
100
AcDb2dPolyline
 66
     1
 10
0.0
 20
0.0
 30
0.0
  0
VERTEX
  5
FF
330
FE
100
AcDbEntity
  8
cuerpo
 62
     7
420
 16777215
370
     9
100
AcDbVertex
100
AcDb2dVertex
 10
16.85633544500467
 20
13.7383517760793
 30
0.0
  0
VERTEX
  5
100
330
FE
100
AcDbEntity
  8
cuerpo
 62
     7
420
 16777215
370
     9
100
AcDbVertex
100
AcDb2dVertex
 10
16.25723334011972
 20
14.21170789575263
 30
0.0
  0
SEQEND
  5
101
330
FE
100
AcDbEntity
  8
cuerpo
370
     9
  0
POLYLINE
  5
102
330
1F
100
AcDbEntity
  8
cuerpo
 62
     7
420
 16777215
370
     9
100
AcDb2dPolyline
 66
     1
 10
0.0
 20
0.0
 30
0.0
  0
VERTEX
  5
103
330
102
100
AcDbEntity
  8
cuerpo
 62
     7
420
 16777215
370
     9
100
AcDbVertex
100
AcDb2dVertex
 10
16.25723334011972
 20
14.21170789575263
 30
0.0
  0
VERTEX
  5
104
330
102
100
AcDbEntity
  8
cuerpo
 62
     7
420
 16777215
370
     9
100
AcDbVertex
100
AcDb2dVertex
 10
14.64716796508821
 20
14.21170789575263
 30
0.0
  0
SEQEND
  5
105
330
102
100
AcDbEntity
  8
cuerpo
370
     9
  0
POLYLINE
  5
106
330
1F
100
AcDbEntity
  8
cuerpo
 62
     7
420
 16777215
370
     9
100
AcDb2dPolyline
 66
     1
 10
0.0
 20
0.0
 30
0.0
  0
VERTEX
  5
107
330
106
100
AcDbEntity
  8
cuerpo
 62
     7
420
 16777215
370
     9
100
AcDbVertex
100
AcDb2dVertex
 10
14.01499294354486
 20
13.44345160254191
 30
0.0
  0
VERTEX
  5
108
330
106
100
AcDbEntity
  8
cuerpo
 62
     7
420
 16777215
370
     9
100
AcDbVertex
100
AcDb2dVertex
 10
16.85633544500467
 20
13.44345160254191
 30
0.0
  0
SEQEND
  5
109
330
106
100
AcDbEntity
  8
cuerpo
370
     9
  0
POLYLINE
  5
10A
330
1F
100
AcDbEntity
  8
cuerpo
 62
     7
420
 16777215
370
     9
100
AcDb2dPolyline
 66
     1
 10
0.0
 20
0.0
 30
0.0
  0
VERTEX
  5
10B
330
10A
100
AcDbEntity
  8
cuerpo
 62
     7
420
 16777215
370
     9
100
AcDbVertex
100
AcDb2dVertex
 10
16.85633544500467
 20
13.44345160254191
 30
0.0
  0
VERTEX
  5
10C
330
10A
100
AcDbEntity
  8
cuerpo
 62
     7
420
 16777215
370
     9
100
AcDbVertex
100
AcDb2dVertex
 10
16.85633544500467
 20
13.34836696714902
 30
0.0
  0
SEQEND
  5
10D
330
10A
100
AcDbEntity
  8
cuerpo
370
     9
  0
POLYLINE
  5
10E
330
1F
100
AcDbEntity
  8
cuerpo
 62
     7
420
 16777215
370
     9
100
AcDb2dPolyline
 66
     1
 10
0.0
 20
0.0
 30
0.0
  0
VERTEX
  5
10F
330
10E
100
AcDbEntity
  8
cuerpo
 62
     7
420
 16777215
370
     9
100
AcDbVertex
100
AcDb2dVertex
 10
16.85633544500467
 20
13.34836696714902
 30
0.0
  0
VERTEX
  5
110
330
10E
100
AcDbEntity
  8
cuerpo
 62
     7
420
 16777215
370
     9
100
AcDbVertex
100
AcDb2dVertex
 10
14.01499294354486
 20
13.34836696714902
 30
0.0
  0
SEQEND
  5
111
330
10E
100
AcDbEntity
  8
cuerpo
370
     9
  0
POLYLINE
  5
112
330
1F
100
AcDbEntity
  8
cuerpo
 62
     7
420
 16777215
370
     9
100
AcDb2dPolyline
 66
     1
 10
0.0
 20
0.0
 30
0.0
  0
VERTEX
  5
113
330
112
100
AcDbEntity
  8
cuerpo
 62
     7
420
 16777215
370
     9
100
AcDbVertex
100
AcDb2dVertex
 10
14.01499294354486
 20
13.34836696714902
 30
0.0
  0
VERTEX
  5
114
330
112
100
AcDbEntity
  8
cuerpo
 62
     7
420
 16777215
370
     9
100
AcDbVertex
100
AcDb2dVertex
 10
14.01499294354486
 20
13.44345160254191
 30
0.0
  0
SEQEND
  5
115
330
112
100
AcDbEntity
  8
cuerpo
370
     9
  0
POLYLINE
  5
116
330
1F
100
AcDbEntity
  8
cuerpo
 62
     7
420
 16777215
370
     9
100
AcDb2dPolyline
 66
     1
 10
0.0
 20
0.0
 30
0.0
  0
VERTEX
  5
117
330
116
100
AcDbEntity
  8
cuerpo
 62
     7
420
 16777215
370
     9
100
AcDbVertex
100
AcDb2dVertex
 10
14.64716796508821
 20
13.64326714068641
 30
0.0
  0
VERTEX
  5
118
330
116
100
AcDbEntity
  8
cuerpo
 62
     7
420
 16777215
370
     9
100
AcDbVertex
100
AcDb2dVertex
 10
14.64716796508821
 20
13.44345160254191
 30
0.0
  0
SEQEND
  5
119
330
116
100
AcDbEntity
  8
cuerpo
370
     9
  0
POLYLINE
  5
11A
330
1F
100
AcDbEntity
  8
cuerpo
 62
     7
420
 16777215
370
     9
100
AcDb2dPolyline
 66
     1
 10
0.0
 20
0.0
 30
0.0
  0
VERTEX
  5
11B
330
11A
100
AcDbEntity
  8
cuerpo
 62
     7
420
 16777215
370
     9
100
AcDbVertex
100
AcDb2dVertex
 10
16.25723334011972
 20
13.64326714068641
 30
0.0
  0
VERTEX
  5
11C
330
11A
100
AcDbEntity
  8
cuerpo
 62
     7
420
 16777215
370
     9
100
AcDbVertex
100
AcDb2dVertex
 10
16.25723334011972
 20
13.44345160254191
 30
0.0
  0
SEQEND
  5
11D
330
11A
100
AcDbEntity
  8
cuerpo
370
     9
  0
POLYLINE
  5
11E
330
1F
100
AcDbEntity
  8
cuerpo
 62
     7
420
 16777215
370
     9
100
AcDb2dPolyline
 66
     1
 10
0.0
 20
0.0
 30
0.0
  0
VERTEX
  5
11F
330
11E
100
AcDbEntity
  8
cuerpo
 62
     7
420
 16777215
370
     9
100
AcDbVertex
100
AcDb2dVertex
 10
16.43017713347926
 20
13.34836696714902
 30
0.0
  0
VERTEX
  5
120
330
11E
100
AcDbEntity
  8
cuerpo
 62
     7
420
 16777215
370
     9
100
AcDbVertex
100
AcDb2dVertex
 10
16.43017713347926
 20
12.96975097332006
 30
0.0
  0
SEQEND
  5
121
330
11E
100
AcDbEntity
  8
cuerpo
370
     9
  0
POLYLINE
  5
122
330
1F
100
AcDbEntity
  8
cuerpo
 62
     7
420
 16777215
370
     9
100
AcDb2dPolyline
 66
     1
 10
0.0
 20
0.0
 30
0.0
  0
VERTEX
  5
123
330
122
100
AcDbEntity
  8
cuerpo
 62
     7
420
 16777215
370
     9
100
AcDbVertex
100
AcDb2dVertex
 10
16.43017713347926
 20
12.96975097332006
 30
0.0
  0
VERTEX
  5
124
330
122
100
AcDbEntity
  8
cuerpo
 62
     7
420
 16777215
370
     9
100
AcDbVertex
100
AcDb2dVertex
 10
14.44115125507027
 20
12.96975097332006
 30
0.0
  0
SEQEND
  5
125
330
122
100
AcDbEntity
  8
cuerpo
370
     9
  0
POLYLINE
  5
126
330
1F
100
AcDbEntity
  8
cuerpo
 62
     7
420
 16777215
370
     9
100
AcDb2dPolyline
 66
     1
 10
0.0
 20
0.0
 30
0.0
  0
VERTEX
  5
127
330
126
100
AcDbEntity
  8
cuerpo
 62
     7
420
 16777215
370
     9
100
AcDbVertex
100
AcDb2dVertex
 10
14.44115125507027
 20
12.96975097332006
 30
0.0
  0
VERTEX
  5
128
330
126
100
AcDbEntity
  8
cuerpo
 62
     7
420
 16777215
370
     9
100
AcDbVertex
100
AcDb2dVertex
 10
14.44115125507027
 20
13.34836696714902
 30
0.0
  0
SEQEND
  5
129
330
126
100
AcDbEntity
  8
cuerpo
370
     9
  0
POLYLINE
  5
12A
330
1F
100
AcDbEntity
  8
cuerpo
 62
     7
420
 16777215
370
     9
100
AcDb2dPolyline
 66
     1
 10
0.0
 20
0.0
 30
0.0
  0
VERTEX
  5
12B
330
12A
100
AcDbEntity
  8
cuerpo
 62
     7
420
 16777215
370
     9
100
AcDbVertex
100
AcDb2dVertex
 10
15.00321858348878
 20
12.96975097332006
 30
0.0
  0
VERTEX
  5
12C
330
12A
100
AcDbEntity
  8
cuerpo
 62
     7
420
 16777215
370
     9
100
AcDbVertex
100
AcDb2dVertex
 10
15.00321858348878
 20
13.34836696714902
 30
0.0
  0
SEQEND
  5
12D
330
12A
100
AcDbEntity
  8
cuerpo
370
     9
  0
POLYLINE
  5
12E
330
1F
100
AcDbEntity
  8
cuerpo
 62
     7
420
 16777215
370
     9
100
AcDb2dPolyline
 66
     1
 10
0.0
 20
0.0
 30
0.0
  0
VERTEX
  5
12F
330
12E
100
AcDbEntity
  8
cuerpo
 62
     7
420
 16777215
370
     9
100
AcDbVertex
100
AcDb2dVertex
 10
15.885335282487
 20
12.96975097332006
 30
0.0
  0
VERTEX
  5
130
330
12E
100
AcDbEntity
  8
cuerpo
 62
     7
420
 16777215
370
     9
100
AcDbVertex
100
AcDb2dVertex
 10
15.885335282487
 20
13.34836696714902
 30
0.0
  0
SEQEND
  5
131
330
12E
100
AcDbEntity
  8
cuerpo
370
     9
  0
POLYLINE
  5
132
330
1F
100
AcDbEntity
  8
cuerpo
 62
     7
420
 16777215
370
     9
100
AcDb2dPolyline
 66
     1
 10
0.0
 20
0.0
 30
0.0
  0
VERTEX
  5
133
330
132
100
AcDbEntity
  8
cuerpo
 62
     7
420
 16777215
370
     9
100
AcDbVertex
100
AcDb2dVertex
 10
14.64716796508821
 20
12.96975097332006
 30
0.0
  0
VERTEX
  5
134
330
132
100
AcDbEntity
  8
cuerpo
 62
     7
420
 16777215
370
     9
100
AcDbVertex
100
AcDb2dVertex
 10
14.64716796508821
 20
12.60147026594685
 30
0.0
  0
SEQEND
  5
135
330
132
100
AcDbEntity
  8
cuerpo
370
     9
  0
POLYLINE
  5
136
330
1F
100
AcDbEntity
  8
cuerpo
 62
     7
420
 16777215
370
     9
100
AcDb2dPolyline
 66
     1
 10
0.0
 20
0.0
 30
0.0
  0
VERTEX
  5
137
330
136
100
AcDbEntity
  8
cuerpo
 62
     7
420
 16777215
370
     9
100
AcDbVertex
100
AcDb2dVertex
 10
16.25723334011972
 20
12.96975097332006
 30
0.0
  0
VERTEX
  5
138
330
136
100
AcDbEntity
  8
cuerpo
 62
     7
420
 16777215
370
     9
100
AcDbVertex
100
AcDb2dVertex
 10
16.25723334011972
 20
12.60147026594685
 30
0.0
  0
SEQEND
  5
139
330
136
100
AcDbEntity
  8
cuerpo
370
     9
  0
POLYLINE
  5
13A
330
1F
100
AcDbEntity
  8
cuerpo
 62
     7
420
 16777215
370
     9
100
AcDb2dPolyline
 66
     1
 10
0.0
 20
0.0
 30
0.0
  0
VERTEX
  5
13B
330
13A
100
AcDbEntity
  8
cuerpo
 62
     7
420
 16777215
370
     9
100
AcDbVertex
100
AcDb2dVertex
 10
14.64716796508821
 20
12.60147026594685
 30
0.0
  0
VERTEX
  5
13C
330
13A
100
AcDbEntity
  8
cuerpo
 62
     7
420
 16777215
370
     9
100
AcDbVertex
100
AcDb2dVertex
 10
16.25723334011972
 20
12.60147026594685
 30
0.0
  0
SEQEND
  5
13D
330
13A
100
AcDbEntity
  8
cuerpo
370
     9
  0
SPLINE
  5
13E
330
1F
100
AcDbEntity
  8
cuerpo
 62
     7
420
 16777215
370
     9
100
AcDbSpline
210
0.0
220
0.0
230
1.0
 70
     8
 71
     3
 72
    11
 73
     7
 74
     0
 42
0.0000000001
 43
0.0000000001
 40
0.0
 40
0.0
 40
0.0
 40
0.0
 40
1.0
 40
1.0
 40
1.0
 40
2.0
 40
2.0
 40
2.0
 40
2.0
 10
15.23972438855118
 20
12.13293727995288
 30
0.0
 10
15.25591633733186
 20
12.16532117751423
 30
0.0
 10
15.24282497448791
 20
12.20459526604607
 30
0.0
 10
15.21061333170082
 20
12.22078721482675
 30
0.0
 10
15.20303412163327
 20
12.22457681986052
 30
0.0
 10
15.19476589246867
 20
12.22664387715167
 30
0.0
 10
15.18632540852981
 20
12.22733289624872
 30
0.0
  0
SPLINE
  5
13F
330
1F
100
AcDbEntity
  8
cuerpo
 62
     7
420
 16777215
370
     9
100
AcDbSpline
210
0.0
220
0.0
230
1.0
 70
     8
 71
     3
 72
    11
 73
     7
 74
     0
 42
0.0000000001
 43
0.0000000001
 40
0.0
 40
0.0
 40
0.0
 40
0.0
 40
1.0
 40
1.0
 40
1.0
 40
2.0
 40
2.0
 40
2.0
 40
2.0
 10
14.82407361825579
 20
12.22733289624872
 30
0.0
 10
14.78807237043493
 20
12.22457681986052
 30
0.0
 10
14.76102837087572
 20
12.19322645094475
 30
0.0
 10
14.76378444726392
 20
12.15739745789815
 30
0.0
 10
14.76447346636097
 20
12.14878471918503
 30
0.0
 10
14.76671277842638
 20
12.14051649002043
 30
0.0
 10
14.77050238346015
 20
12.13293727995288
 30
0.0
  0
POLYLINE
  5
140
330
1F
100
AcDbEntity
  8
cuerpo
 62
     7
420
 16777215
370
     9
100
AcDb2dPolyline
 66
     1
 10
0.0
 20
0.0
 30
0.0
  0
VERTEX
  5
141
330
140
100
AcDbEntity
  8
cuerpo
 62
     7
420
 16777215
370
     9
100
AcDbVertex
100
AcDb2dVertex
 10
14.76361219248965
 20
11.56311848669255
 30
0.0
  0
VERTEX
  5
142
330
140
100
AcDbEntity
  8
cuerpo
 62
     7
420
 16777215
370
     9
100
AcDbVertex
100
AcDb2dVertex
 10
15.24661457952168
 20
11.56311848669255
 30
0.0
  0
SEQEND
  5
143
330
140
100
AcDbEntity
  8
cuerpo
370
     9
  0
POLYLINE
  5
144
330
1F
100
AcDbEntity
  8
cuerpo
 62
     7
420
 16777215
370
     9
100
AcDb2dPolyline
 66
     1
 10
0.0
 20
0.0
 30
0.0
  0
VERTEX
  5
145
330
144
100
AcDbEntity
  8
cuerpo
 62
     7
420
 16777215
370
     9
100
AcDbVertex
100
AcDb2dVertex
 10
15.20647921711852
 20
12.06644693708756
 30
0.0
  0
VERTEX
  5
146
330
144
100
AcDbEntity
  8
cuerpo
 62
     7
420
 16777215
370
     9
100
AcDbVertex
100
AcDb2dVertex
 10
15.20647921711852
 20
11.78463812639412
 30
0.0
  0
SEQEND
  5
147
330
144
100
AcDbEntity
  8
cuerpo
370
     9
  0
POLYLINE
  5
148
330
1F
100
AcDbEntity
  8
cuerpo
 62
     7
420
 16777215
370
     9
100
AcDb2dPolyline
 66
     1
 10
0.0
 20
0.0
 30
0.0
  0
VERTEX
  5
149
330
148
100
AcDbEntity
  8
cuerpo
 62
     7
420
 16777215
370
     9
100
AcDbVertex
100
AcDb2dVertex
 10
15.24661457952168
 20
11.6285753009123
 30
0.0
  0
VERTEX
  5
14A
330
148
100
AcDbEntity
  8
cuerpo
 62
     7
420
 16777215
370
     9
100
AcDbVertex
100
AcDb2dVertex
 10
15.24661457952168
 20
11.56311848669255
 30
0.0
  0
SEQEND
  5
14B
330
148
100
AcDbEntity
  8
cuerpo
370
     9
  0
SPLINE
  5
14C
330
1F
100
AcDbEntity
  8
cuerpo
 62
     7
420
 16777215
370
     9
100
AcDbSpline
210
0.0
220
0.0
230
1.0
 70
     8
 71
     3
 72
     8
 73
     4
 74
     0
 42
0.0000000001
 43
0.0000000001
 40
0.0
 40
0.0
 40
0.0
 40
0.0
 40
1.0
 40
1.0
 40
1.0
 40
1.0
 10
15.24661457952168
 20
11.6285753009123
 30
0.0
 10
15.24661457952168
 20
11.68335231912777
 30
0.0
 10
15.23283419758068
 20
11.73675129914915
 30
0.0
 10
15.20647921711852
 20
11.78463812639412
 30
0.0
  0
POLYLINE
  5
14D
330
1F
100
AcDbEntity
  8
cuerpo
 62
     7
420
 16777215
370
     9
100
AcDb2dPolyline
 66
     1
 10
0.0
 20
0.0
 30
0.0
  0
VERTEX
  5
14E
330
14D
100
AcDbEntity
  8
cuerpo
 62
     7
420
 16777215
370
     9
100
AcDbVertex
100
AcDb2dVertex
 10
15.20647921711852
 20
12.06644693708756
 30
0.0
  0
VERTEX
  5
14F
330
14D
100
AcDbEntity
  8
cuerpo
 62
     7
420
 16777215
370
     9
100
AcDbVertex
100
AcDb2dVertex
 10
15.23972438855118
 20
12.13293727995288
 30
0.0
  0
SEQEND
  5
150
330
14D
100
AcDbEntity
  8
cuerpo
370
     9
  0
POLYLINE
  5
151
330
1F
100
AcDbEntity
  8
cuerpo
 62
     7
420
 16777215
370
     9
100
AcDb2dPolyline
 66
     1
 10
0.0
 20
0.0
 30
0.0
  0
VERTEX
  5
152
330
151
100
AcDbEntity
  8
cuerpo
 62
     7
420
 16777215
370
     9
100
AcDbVertex
100
AcDb2dVertex
 10
15.17616237684832
 20
12.06644693708756
 30
0.0
  0
VERTEX
  5
153
330
151
100
AcDbEntity
  8
cuerpo
 62
     7
420
 16777215
370
     9
100
AcDbVertex
100
AcDb2dVertex
 10
15.17616237684832
 20
11.78463812639412
 30
0.0
  0
SEQEND
  5
154
330
151
100
AcDbEntity
  8
cuerpo
370
     9
  0
POLYLINE
  5
155
330
1F
100
AcDbEntity
  8
cuerpo
 62
     7
420
 16777215
370
     9
100
AcDb2dPolyline
 66
     1
 10
0.0
 20
0.0
 30
0.0
  0
VERTEX
  5
156
330
155
100
AcDbEntity
  8
cuerpo
 62
     7
420
 16777215
370
     9
100
AcDbVertex
100
AcDb2dVertex
 10
15.05541178009031
 20
12.06644693708756
 30
0.0
  0
VERTEX
  5
157
330
155
100
AcDbEntity
  8
cuerpo
 62
     7
420
 16777215
370
     9
100
AcDbVertex
100
AcDb2dVertex
 10
15.05541178009031
 20
11.78463812639412
 30
0.0
  0
SEQEND
  5
158
330
155
100
AcDbEntity
  8
cuerpo
370
     9
  0
POLYLINE
  5
159
330
1F
100
AcDbEntity
  8
cuerpo
 62
     7
420
 16777215
370
     9
100
AcDb2dPolyline
 66
     1
 10
0.0
 20
0.0
 30
0.0
  0
VERTEX
  5
15A
330
159
100
AcDbEntity
  8
cuerpo
 62
     7
420
 16777215
370
     9
100
AcDbVertex
100
AcDb2dVertex
 10
14.95481499192102
 20
12.06644693708756
 30
0.0
  0
VERTEX
  5
15B
330
159
100
AcDbEntity
  8
cuerpo
 62
     7
420
 16777215
370
     9
100
AcDbVertex
100
AcDb2dVertex
 10
14.95481499192102
 20
11.78463812639412
 30
0.0
  0
SEQEND
  5
15C
330
159
100
AcDbEntity
  8
cuerpo
370
     9
  0
POLYLINE
  5
15D
330
1F
100
AcDbEntity
  8
cuerpo
 62
     7
420
 16777215
370
     9
100
AcDb2dPolyline
 66
     1
 10
0.0
 20
0.0
 30
0.0
  0
VERTEX
  5
15E
330
15D
100
AcDbEntity
  8
cuerpo
 62
     7
420
 16777215
370
     9
100
AcDbVertex
100
AcDb2dVertex
 10
15.10571017417496
 20
12.06644693708756
 30
0.0
  0
VERTEX
  5
15F
330
15D
100
AcDbEntity
  8
cuerpo
 62
     7
420
 16777215
370
     9
100
AcDbVertex
100
AcDb2dVertex
 10
15.10571017417496
 20
11.78463812639412
 30
0.0
  0
SEQEND
  5
160
330
15D
100
AcDbEntity
  8
cuerpo
370
     9
  0
SPLINE
  5
161
330
1F
100
AcDbEntity
  8
cuerpo
 62
     7
420
 16777215
370
     9
100
AcDbSpline
210
0.0
220
0.0
230
1.0
 70
     8
 71
     3
 72
    11
 73
     7
 74
     0
 42
0.0000000001
 43
0.0000000001
 40
0.0
 40
0.0
 40
0.0
 40
0.0
 40
1.0
 40
1.0
 40
1.0
 40
2.0
 40
2.0
 40
2.0
 40
2.0
 10
15.05541178009031
 20
12.06644693708756
 30
0.0
 10
15.05541178009031
 20
12.09400770096955
 30
0.0
 10
15.03301865943619
 20
12.1167453311722
 30
0.0
 10
15.00511338600567
 20
12.1167453311722
 30
0.0
 10
14.97738036734941
 20
12.1167453311722
 30
0.0
 10
14.95481499192102
 20
12.09400770096955
 30
0.0
 10
14.95481499192102
 20
12.06644693708756
 30
0.0
  0
SPLINE
  5
162
330
1F
100
AcDbEntity
  8
cuerpo
 62
     7
420
 16777215
370
     9
100
AcDbSpline
210
0.0
220
0.0
230
1.0
 70
     8
 71
     3
 72
    11
 73
     7
 74
     0
 42
0.0000000001
 43
0.0000000001
 40
0.0
 40
0.0
 40
0.0
 40
0.0
 40
1.0
 40
1.0
 40
1.0
 40
2.0
 40
2.0
 40
2.0
 40
2.0
 10
15.10571017417496
 20
12.06644693708756
 30
0.0
 10
15.10571017417496
 20
12.09400770096955
 30
0.0
 10
15.12155761340711
 20
12.1167453311722
 30
0.0
 10
15.14102240289877
 20
12.1167453311722
 30
0.0
 10
15.16048719239043
 20
12.1167453311722
 30
0.0
 10
15.17616237684832
 20
12.09400770096955
 30
0.0
 10
15.17616237684832
 20
12.06644693708756
 30
0.0
  0
SPLINE
  5
163
330
1F
100
AcDbEntity
  8
cuerpo
 62
     7
420
 16777215
370
     9
100
AcDbSpline
210
0.0
220
0.0
230
1.0
 70
     8
 71
     3
 72
    11
 73
     7
 74
     0
 42
0.0000000001
 43
0.0000000001
 40
0.0
 40
0.0
 40
0.0
 40
0.0
 40
1.0
 40
1.0
 40
1.0
 40
2.0
 40
2.0
 40
2.0
 40
2.0
 10
15.17616237684832
 20
11.78463812639412
 30
0.0
 10
15.17616237684832
 20
11.75673285296359
 30
0.0
 10
15.16048719239043
 20
11.73433973230947
 30
0.0
 10
15.14102240289877
 20
11.73433973230947
 30
0.0
 10
15.12155761340711
 20
11.73433973230947
 30
0.0
 10
15.10571017417496
 20
11.75673285296359
 30
0.0
 10
15.10571017417496
 20
11.78463812639412
 30
0.0
  0
SPLINE
  5
164
330
1F
100
AcDbEntity
  8
cuerpo
 62
     7
420
 16777215
370
     9
100
AcDbSpline
210
0.0
220
0.0
230
1.0
 70
     8
 71
     3
 72
    11
 73
     7
 74
     0
 42
0.0000000001
 43
0.0000000001
 40
0.0
 40
0.0
 40
0.0
 40
0.0
 40
1.0
 40
1.0
 40
1.0
 40
2.0
 40
2.0
 40
2.0
 40
2.0
 10
14.95481499192102
 20
11.78463812639412
 30
0.0
 10
14.95481499192102
 20
11.75673285296359
 30
0.0
 10
14.97738036734941
 20
11.73433973230947
 30
0.0
 10
15.00511338600567
 20
11.73433973230947
 30
0.0
 10
15.03301865943619
 20
11.73433973230947
 30
0.0
 10
15.05541178009031
 20
11.75673285296359
 30
0.0
 10
15.05541178009031
 20
11.78463812639412
 30
0.0
  0
POLYLINE
  5
165
330
1F
100
AcDbEntity
  8
cuerpo
 62
     7
420
 16777215
370
     9
100
AcDb2dPolyline
 66
     1
 10
0.0
 20
0.0
 30
0.0
  0
VERTEX
  5
166
330
165
100
AcDbEntity
  8
cuerpo
 62
     7
420
 16777215
370
     9
100
AcDbVertex
100
AcDb2dVertex
 10
14.76361219248965
 20
11.6285753009123
 30
0.0
  0
VERTEX
  5
167
330
165
100
AcDbEntity
  8
cuerpo
 62
     7
420
 16777215
370
     9
100
AcDbVertex
100
AcDb2dVertex
 10
14.76361219248965
 20
11.56311848669255
 30
0.0
  0
SEQEND
  5
168
330
165
100
AcDbEntity
  8
cuerpo
370
     9
  0
SPLINE
  5
169
330
1F
100
AcDbEntity
  8
cuerpo
 62
     7
420
 16777215
370
     9
100
AcDbSpline
210
0.0
220
0.0
230
1.0
 70
     8
 71
     3
 72
     8
 73
     4
 74
     0
 42
0.0000000001
 43
0.0000000001
 40
0.0
 40
0.0
 40
0.0
 40
0.0
 40
1.0
 40
1.0
 40
1.0
 40
1.0
 10
14.80391980966708
 20
11.78463812639412
 30
0.0
 10
14.77739257443065
 20
11.73675129914915
 30
0.0
 10
14.76361219248965
 20
11.68335231912777
 30
0.0
 10
14.76361219248965
 20
11.6285753009123
 30
0.0
  0
POLYLINE
  5
16A
330
1F
100
AcDbEntity
  8
cuerpo
 62
     7
420
 16777215
370
     9
100
AcDb2dPolyline
 66
     1
 10
0.0
 20
0.0
 30
0.0
  0
VERTEX
  5
16B
330
16A
100
AcDbEntity
  8
cuerpo
 62
     7
420
 16777215
370
     9
100
AcDbVertex
100
AcDb2dVertex
 10
14.80391980966708
 20
12.06644693708756
 30
0.0
  0
VERTEX
  5
16C
330
16A
100
AcDbEntity
  8
cuerpo
 62
     7
420
 16777215
370
     9
100
AcDbVertex
100
AcDb2dVertex
 10
14.77050238346015
 20
12.13293727995288
 30
0.0
  0
SEQEND
  5
16D
330
16A
100
AcDbEntity
  8
cuerpo
370
     9
  0
POLYLINE
  5
16E
330
1F
100
AcDbEntity
  8
cuerpo
 62
     7
420
 16777215
370
     9
100
AcDb2dPolyline
 66
     1
 10
0.0
 20
0.0
 30
0.0
  0
VERTEX
  5
16F
330
16E
100
AcDbEntity
  8
cuerpo
 62
     7
420
 16777215
370
     9
100
AcDbVertex
100
AcDb2dVertex
 10
14.83406439516301
 20
12.06644693708756
 30
0.0
  0
VERTEX
  5
170
330
16E
100
AcDbEntity
  8
cuerpo
 62
     7
420
 16777215
370
     9
100
AcDbVertex
100
AcDb2dVertex
 10
14.83406439516301
 20
11.78463812639412
 30
0.0
  0
SEQEND
  5
171
330
16E
100
AcDbEntity
  8
cuerpo
370
     9
  0
POLYLINE
  5
172
330
1F
100
AcDbEntity
  8
cuerpo
 62
     7
420
 16777215
370
     9
100
AcDb2dPolyline
 66
     1
 10
0.0
 20
0.0
 30
0.0
  0
VERTEX
  5
173
330
172
100
AcDbEntity
  8
cuerpo
 62
     7
420
 16777215
370
     9
100
AcDbVertex
100
AcDb2dVertex
 10
14.90451659783637
 20
12.06644693708756
 30
0.0
  0
VERTEX
  5
174
330
172
100
AcDbEntity
  8
cuerpo
 62
     7
420
 16777215
370
     9
100
AcDbVertex
100
AcDb2dVertex
 10
14.90451659783637
 20
11.78463812639412
 30
0.0
  0
SEQEND
  5
175
330
172
100
AcDbEntity
  8
cuerpo
370
     9
  0
SPLINE
  5
176
330
1F
100
AcDbEntity
  8
cuerpo
 62
     7
420
 16777215
370
     9
100
AcDbSpline
210
0.0
220
0.0
230
1.0
 70
     8
 71
     3
 72
    11
 73
     7
 74
     0
 42
0.0000000001
 43
0.0000000001
 40
0.0
 40
0.0
 40
0.0
 40
0.0
 40
1.0
 40
1.0
 40
1.0
 40
2.0
 40
2.0
 40
2.0
 40
2.0
 10
14.83406439516301
 20
12.06644693708756
 30
0.0
 10
14.83406439516301
 20
12.09400770096955
 30
0.0
 10
14.84991183439516
 20
12.1167453311722
 30
0.0
 10
14.86937662388682
 20
12.1167453311722
 30
0.0
 10
14.88866915860422
 20
12.1167453311722
 30
0.0
 10
14.90451659783637
 20
12.09400770096955
 30
0.0
 10
14.90451659783637
 20
12.06644693708756
 30
0.0
  0
SPLINE
  5
177
330
1F
100
AcDbEntity
  8
cuerpo
 62
     7
420
 16777215
370
     9
100
AcDbSpline
210
0.0
220
0.0
230
1.0
 70
     8
 71
     3
 72
    11
 73
     7
 74
     0
 42
0.0000000001
 43
0.0000000001
 40
0.0
 40
0.0
 40
0.0
 40
0.0
 40
1.0
 40
1.0
 40
1.0
 40
2.0
 40
2.0
 40
2.0
 40
2.0
 10
14.90451659783637
 20
11.78463812639412
 30
0.0
 10
14.90451659783637
 20
11.75673285296359
 30
0.0
 10
14.88866915860422
 20
11.73433973230947
 30
0.0
 10
14.86937662388682
 20
11.73433973230947
 30
0.0
 10
14.84991183439516
 20
11.73433973230947
 30
0.0
 10
14.83406439516301
 20
11.75673285296359
 30
0.0
 10
14.83406439516301
 20
11.78463812639412
 30
0.0
  0
POLYLINE
  5
178
330
1F
100
AcDbEntity
  8
cuerpo
 62
     7
420
 16777215
370
     9
100
AcDb2dPolyline
 66
     1
 10
0.0
 20
0.0
 30
0.0
  0
VERTEX
  5
179
330
178
100
AcDbEntity
  8
cuerpo
 62
     7
420
 16777215
370
     9
100
AcDbVertex
100
AcDb2dVertex
 10
14.80391980966708
 20
12.06644693708756
 30
0.0
  0
VERTEX
  5
17A
330
178
100
AcDbEntity
  8
cuerpo
 62
     7
420
 16777215
370
     9
100
AcDbVertex
100
AcDb2dVertex
 10
14.80391980966708
 20
11.78463812639412
 30
0.0
  0
SEQEND
  5
17B
330
178
100
AcDbEntity
  8
cuerpo
370
     9
  0
POLYLINE
  5
17C
330
1F
100
AcDbEntity
  8
cuerpo
 62
     7
420
 16777215
370
     9
100
AcDb2dPolyline
 66
     1
 10
0.0
 20
0.0
 30
0.0
  0
VERTEX
  5
17D
330
17C
100
AcDbEntity
  8
cuerpo
 62
     7
420
 16777215
370
     9
100
AcDbVertex
100
AcDb2dVertex
 10
14.82407361825579
 20
12.22733289624872
 30
0.0
  0
VERTEX
  5
17E
330
17C
100
AcDbEntity
  8
cuerpo
 62
     7
420
 16777215
370
     9
100
AcDbVertex
100
AcDb2dVertex
 10
15.18632540852981
 20
12.22733289624872
 30
0.0
  0
SEQEND
  5
17F
330
17C
100
AcDbEntity
  8
cuerpo
370
     9
  0
SPLINE
  5
180
330
1F
100
AcDbEntity
  8
cuerpo
 62
     7
420
 16777215
370
     9
100
AcDbSpline
210
0.0
220
0.0
230
1.0
 70
     8
 71
     3
 72
    11
 73
     7
 74
     0
 42
0.0000000001
 43
0.0000000001
 40
0.0
 40
0.0
 40
0.0
 40
0.0
 40
1.0
 40
1.0
 40
1.0
 40
2.0
 40
2.0
 40
2.0
 40
2.0
 10
16.13613823381319
 20
12.05059949785541
 30
0.0
 10
16.15508625898206
 20
12.08849554819315
 30
0.0
 10
16.1397555840727
 20
12.1346598276955
 30
0.0
 10
16.10185953373495
 20
12.15360785286438
 30
0.0
 10
16.0929022854733
 20
12.1580864769952
 30
0.0
 10
16.08308376334034
 20
12.16049804383488
 30
0.0
 10
16.07326524120738
 20
12.16153157248045
 30
0.0
  0
SPLINE
  5
181
330
1F
100
AcDbEntity
  8
cuerpo
 62
     7
420
 16777215
370
     9
100
AcDbSpline
210
0.0
220
0.0
230
1.0
 70
     8
 71
     3
 72
    11
 73
     7
 74
     0
 42
0.0000000001
 43
0.0000000001
 40
0.0
 40
0.0
 40
0.0
 40
0.0
 40
1.0
 40
1.0
 40
1.0
 40
2.0
 40
2.0
 40
2.0
 40
2.0
 10
15.64693467490771
 20
12.16153157248045
 30
0.0
 10
15.6047322552134
 20
12.1580864769952
 30
0.0
 10
15.5730373767491
 20
12.12122395530303
 30
0.0
 10
15.57613796268583
 20
12.07884928083445
 30
0.0
 10
15.57699923655714
 20
12.06920301347576
 30
0.0
 10
15.57958305817108
 20
12.05921223656853
 30
0.0
 10
15.5840616823019
 20
12.05059949785541
 30
0.0
  0
POLYLINE
  5
182
330
1F
100
AcDbEntity
  8
cuerpo
 62
     7
420
 16777215
370
     9
100
AcDb2dPolyline
 66
     1
 10
0.0
 20
0.0
 30
0.0
  0
VERTEX
  5
183
330
182
100
AcDbEntity
  8
cuerpo
 62
     7
420
 16777215
370
     9
100
AcDbVertex
100
AcDb2dVertex
 10
15.57596570791156
 20
11.37983940687726
 30
0.0
  0
VERTEX
  5
184
330
182
100
AcDbEntity
  8
cuerpo
 62
     7
420
 16777215
370
     9
100
AcDbVertex
100
AcDb2dVertex
 10
16.14423420820352
 20
11.37983940687726
 30
0.0
  0
SEQEND
  5
185
330
182
100
AcDbEntity
  8
cuerpo
370
     9
  0
POLYLINE
  5
186
330
1F
100
AcDbEntity
  8
cuerpo
 62
     7
420
 16777215
370
     9
100
AcDb2dPolyline
 66
     1
 10
0.0
 20
0.0
 30
0.0
  0
VERTEX
  5
187
330
186
100
AcDbEntity
  8
cuerpo
 62
     7
420
 16777215
370
     9
100
AcDbVertex
100
AcDb2dVertex
 10
16.09686414528134
 20
11.97205132079171
 30
0.0
  0
VERTEX
  5
188
330
186
100
AcDbEntity
  8
cuerpo
 62
     7
420
 16777215
370
     9
100
AcDbVertex
100
AcDb2dVertex
 10
16.09686414528134
 20
11.64028862556215
 30
0.0
  0
SEQEND
  5
189
330
186
100
AcDbEntity
  8
cuerpo
370
     9
  0
POLYLINE
  5
18A
330
1F
100
AcDbEntity
  8
cuerpo
 62
     7
420
 16777215
370
     9
100
AcDb2dPolyline
 66
     1
 10
0.0
 20
0.0
 30
0.0
  0
VERTEX
  5
18B
330
18A
100
AcDbEntity
  8
cuerpo
 62
     7
420
 16777215
370
     9
100
AcDbVertex
100
AcDb2dVertex
 10
16.14423420820352
 20
11.45700954574686
 30
0.0
  0
VERTEX
  5
18C
330
18A
100
AcDbEntity
  8
cuerpo
 62
     7
420
 16777215
370
     9
100
AcDbVertex
100
AcDb2dVertex
 10
16.14423420820352
 20
11.37983940687726
 30
0.0
  0
SEQEND
  5
18D
330
18A
100
AcDbEntity
  8
cuerpo
370
     9
  0
SPLINE
  5
18E
330
1F
100
AcDbEntity
  8
cuerpo
 62
     7
420
 16777215
370
     9
100
AcDbSpline
210
0.0
220
0.0
230
1.0
 70
     8
 71
     3
 72
     8
 73
     4
 74
     0
 42
0.0000000001
 43
0.0000000001
 40
0.0
 40
0.0
 40
0.0
 40
0.0
 40
1.0
 40
1.0
 40
1.0
 40
1.0
 10
16.14423420820352
 20
11.45700954574686
 30
0.0
 10
16.14423420820352
 20
11.52108832177251
 30
0.0
 10
16.12787000464859
 20
11.58413356915258
 30
0.0
 10
16.09686414528134
 20
11.64028862556215
 30
0.0
  0
POLYLINE
  5
18F
330
1F
100
AcDbEntity
  8
cuerpo
 62
     7
420
 16777215
370
     9
100
AcDb2dPolyline
 66
     1
 10
0.0
 20
0.0
 30
0.0
  0
VERTEX
  5
190
330
18F
100
AcDbEntity
  8
cuerpo
 62
     7
420
 16777215
370
     9
100
AcDbVertex
100
AcDb2dVertex
 10
16.09686414528134
 20
11.97205132079171
 30
0.0
  0
VERTEX
  5
191
330
18F
100
AcDbEntity
  8
cuerpo
 62
     7
420
 16777215
370
     9
100
AcDbVertex
100
AcDb2dVertex
 10
16.13613823381319
 20
12.05059949785541
 30
0.0
  0
SEQEND
  5
192
330
18F
100
AcDbEntity
  8
cuerpo
370
     9
  0
POLYLINE
  5
193
330
1F
100
AcDbEntity
  8
cuerpo
 62
     7
420
 16777215
370
     9
100
AcDb2dPolyline
 66
     1
 10
0.0
 20
0.0
 30
0.0
  0
VERTEX
  5
194
330
193
100
AcDbEntity
  8
cuerpo
 62
     7
420
 16777215
370
     9
100
AcDbVertex
100
AcDb2dVertex
 10
16.06137966178327
 20
11.97205132079171
 30
0.0
  0
VERTEX
  5
195
330
193
100
AcDbEntity
  8
cuerpo
 62
     7
420
 16777215
370
     9
100
AcDbVertex
100
AcDb2dVertex
 10
16.06137966178327
 20
11.64028862556215
 30
0.0
  0
SEQEND
  5
196
330
193
100
AcDbEntity
  8
cuerpo
370
     9
  0
POLYLINE
  5
197
330
1F
100
AcDbEntity
  8
cuerpo
 62
     7
420
 16777215
370
     9
100
AcDb2dPolyline
 66
     1
 10
0.0
 20
0.0
 30
0.0
  0
VERTEX
  5
198
330
197
100
AcDbEntity
  8
cuerpo
 62
     7
420
 16777215
370
     9
100
AcDbVertex
100
AcDb2dVertex
 10
15.91926947301671
 20
11.97205132079171
 30
0.0
  0
VERTEX
  5
199
330
197
100
AcDbEntity
  8
cuerpo
 62
     7
420
 16777215
370
     9
100
AcDbVertex
100
AcDb2dVertex
 10
15.91926947301671
 20
11.64028862556215
 30
0.0
  0
SEQEND
  5
19A
330
197
100
AcDbEntity
  8
cuerpo
370
     9
  0
POLYLINE
  5
19B
330
1F
100
AcDbEntity
  8
cuerpo
 62
     7
420
 16777215
370
     9
100
AcDb2dPolyline
 66
     1
 10
0.0
 20
0.0
 30
0.0
  0
VERTEX
  5
19C
330
19B
100
AcDbEntity
  8
cuerpo
 62
     7
420
 16777215
370
     9
100
AcDbVertex
100
AcDb2dVertex
 10
15.80093044309838
 20
11.97205132079171
 30
0.0
  0
VERTEX
  5
19D
330
19B
100
AcDbEntity
  8
cuerpo
 62
     7
420
 16777215
370
     9
100
AcDbVertex
100
AcDb2dVertex
 10
15.80093044309838
 20
11.64028862556215
 30
0.0
  0
SEQEND
  5
19E
330
19B
100
AcDbEntity
  8
cuerpo
370
     9
  0
POLYLINE
  5
19F
330
1F
100
AcDbEntity
  8
cuerpo
 62
     7
420
 16777215
370
     9
100
AcDb2dPolyline
 66
     1
 10
0.0
 20
0.0
 30
0.0
  0
VERTEX
  5
1A0
330
19F
100
AcDbEntity
  8
cuerpo
 62
     7
420
 16777215
370
     9
100
AcDbVertex
100
AcDb2dVertex
 10
15.97852511536301
 20
11.97205132079171
 30
0.0
  0
VERTEX
  5
1A1
330
19F
100
AcDbEntity
  8
cuerpo
 62
     7
420
 16777215
370
     9
100
AcDbVertex
100
AcDb2dVertex
 10
15.97852511536301
 20
11.64028862556215
 30
0.0
  0
SEQEND
  5
1A2
330
19F
100
AcDbEntity
  8
cuerpo
370
     9
  0
SPLINE
  5
1A3
330
1F
100
AcDbEntity
  8
cuerpo
 62
     7
420
 16777215
370
     9
100
AcDbSpline
210
0.0
220
0.0
230
1.0
 70
     8
 71
     3
 72
    11
 73
     7
 74
     0
 42
0.0000000001
 43
0.0000000001
 40
0.0
 40
0.0
 40
0.0
 40
0.0
 40
1.0
 40
1.0
 40
1.0
 40
2.0
 40
2.0
 40
2.0
 40
2.0
 10
15.91926947301671
 20
11.97205132079171
 30
0.0
 10
15.91926947301671
 20
12.00477972790158
 30
0.0
 10
15.89274223778029
 20
12.03096245358948
 30
0.0
 10
15.86018608544468
 20
12.03096245358948
 30
0.0
 10
15.8274576783348
 20
12.03096245358948
 30
0.0
 10
15.80093044309838
 20
12.00477972790158
 30
0.0
 10
15.80093044309838
 20
11.97205132079171
 30
0.0
  0
SPLINE
  5
1A4
330
1F
100
AcDbEntity
  8
cuerpo
 62
     7
420
 16777215
370
     9
100
AcDbSpline
210
0.0
220
0.0
230
1.0
 70
     8
 71
     3
 72
    11
 73
     7
 74
     0
 42
0.0000000001
 43
0.0000000001
 40
0.0
 40
0.0
 40
0.0
 40
0.0
 40
1.0
 40
1.0
 40
1.0
 40
2.0
 40
2.0
 40
2.0
 40
2.0
 10
15.97852511536301
 20
11.97205132079171
 30
0.0
 10
15.97852511536301
 20
12.00477972790158
 30
0.0
 10
15.99695637620909
 20
12.03096245358948
 30
0.0
 10
16.01986626118601
 20
12.03096245358948
 30
0.0
 10
16.04277614616292
 20
12.03096245358948
 30
0.0
 10
16.06137966178327
 20
12.00477972790158
 30
0.0
 10
16.06137966178327
 20
11.97205132079171
 30
0.0
  0
SPLINE
  5
1A5
330
1F
100
AcDbEntity
  8
cuerpo
 62
     7
420
 16777215
370
     9
100
AcDbSpline
210
0.0
220
0.0
230
1.0
 70
     8
 71
     3
 72
    11
 73
     7
 74
     0
 42
0.0000000001
 43
0.0000000001
 40
0.0
 40
0.0
 40
0.0
 40
0.0
 40
1.0
 40
1.0
 40
1.0
 40
2.0
 40
2.0
 40
2.0
 40
2.0
 10
16.06137966178327
 20
11.64028862556215
 30
0.0
 10
16.06137966178327
 20
11.60756021845228
 30
0.0
 10
16.04277614616292
 20
11.58137749276438
 30
0.0
 10
16.01986626118601
 20
11.58137749276438
 30
0.0
 10
15.99695637620909
 20
11.58137749276438
 30
0.0
 10
15.97852511536301
 20
11.60756021845228
 30
0.0
 10
15.97852511536301
 20
11.64028862556215
 30
0.0
  0
SPLINE
  5
1A6
330
1F
100
AcDbEntity
  8
cuerpo
 62
     7
420
 16777215
370
     9
100
AcDbSpline
210
0.0
220
0.0
230
1.0
 70
     8
 71
     3
 72
    11
 73
     7
 74
     0
 42
0.0000000001
 43
0.0000000001
 40
0.0
 40
0.0
 40
0.0
 40
0.0
 40
1.0
 40
1.0
 40
1.0
 40
2.0
 40
2.0
 40
2.0
 40
2.0
 10
15.80093044309838
 20
11.64028862556215
 30
0.0
 10
15.80093044309838
 20
11.60756021845228
 30
0.0
 10
15.8274576783348
 20
11.58137749276438
 30
0.0
 10
15.86018608544468
 20
11.58137749276438
 30
0.0
 10
15.89274223778029
 20
11.58137749276438
 30
0.0
 10
15.91926947301671
 20
11.60756021845228
 30
0.0
 10
15.91926947301671
 20
11.64028862556215
 30
0.0
  0
POLYLINE
  5
1A7
330
1F
100
AcDbEntity
  8
cuerpo
 62
     7
420
 16777215
370
     9
100
AcDb2dPolyline
 66
     1
 10
0.0
 20
0.0
 30
0.0
  0
VERTEX
  5
1A8
330
1A7
100
AcDbEntity
  8
cuerpo
 62
     7
420
 16777215
370
     9
100
AcDbVertex
100
AcDb2dVertex
 10
15.57596570791156
 20
11.45700954574686
 30
0.0
  0
VERTEX
  5
1A9
330
1A7
100
AcDbEntity
  8
cuerpo
 62
     7
420
 16777215
370
     9
100
AcDbVertex
100
AcDb2dVertex
 10
15.57596570791156
 20
11.37983940687726
 30
0.0
  0
SEQEND
  5
1AA
330
1A7
100
AcDbEntity
  8
cuerpo
370
     9
  0
SPLINE
  5
1AB
330
1F
100
AcDbEntity
  8
cuerpo
 62
     7
420
 16777215
370
     9
100
AcDbSpline
210
0.0
220
0.0
230
1.0
 70
     8
 71
     3
 72
     8
 73
     4
 74
     0
 42
0.0000000001
 43
0.0000000001
 40
0.0
 40
0.0
 40
0.0
 40
0.0
 40
1.0
 40
1.0
 40
1.0
 40
1.0
 10
15.62333577083375
 20
11.64028862556215
 30
0.0
 10
15.59215765669224
 20
11.58413356915258
 30
0.0
 10
15.57596570791156
 20
11.52108832177251
 30
0.0
 10
15.57596570791156
 20
11.45700954574686
 30
0.0
  0
POLYLINE
  5
1AC
330
1F
100
AcDbEntity
  8
cuerpo
 62
     7
420
 16777215
370
     9
100
AcDb2dPolyline
 66
     1
 10
0.0
 20
0.0
 30
0.0
  0
VERTEX
  5
1AD
330
1AC
100
AcDbEntity
  8
cuerpo
 62
     7
420
 16777215
370
     9
100
AcDbVertex
100
AcDb2dVertex
 10
15.62333577083375
 20
11.97205132079171
 30
0.0
  0
VERTEX
  5
1AE
330
1AC
100
AcDbEntity
  8
cuerpo
 62
     7
420
 16777215
370
     9
100
AcDbVertex
100
AcDb2dVertex
 10
15.5840616823019
 20
12.05059949785541
 30
0.0
  0
SEQEND
  5
1AF
330
1AC
100
AcDbEntity
  8
cuerpo
370
     9
  0
POLYLINE
  5
1B0
330
1F
100
AcDbEntity
  8
cuerpo
 62
     7
420
 16777215
370
     9
100
AcDb2dPolyline
 66
     1
 10
0.0
 20
0.0
 30
0.0
  0
VERTEX
  5
1B1
330
1B0
100
AcDbEntity
  8
cuerpo
 62
     7
420
 16777215
370
     9
100
AcDbVertex
100
AcDb2dVertex
 10
15.65882025433182
 20
11.97205132079171
 30
0.0
  0
VERTEX
  5
1B2
330
1B0
100
AcDbEntity
  8
cuerpo
 62
     7
420
 16777215
370
     9
100
AcDbVertex
100
AcDb2dVertex
 10
15.65882025433182
 20
11.64028862556215
 30
0.0
  0
SEQEND
  5
1B3
330
1B0
100
AcDbEntity
  8
cuerpo
370
     9
  0
POLYLINE
  5
1B4
330
1F
100
AcDbEntity
  8
cuerpo
 62
     7
420
 16777215
370
     9
100
AcDb2dPolyline
 66
     1
 10
0.0
 20
0.0
 30
0.0
  0
VERTEX
  5
1B5
330
1B4
100
AcDbEntity
  8
cuerpo
 62
     7
420
 16777215
370
     9
100
AcDbVertex
100
AcDb2dVertex
 10
15.74167480075208
 20
11.97205132079171
 30
0.0
  0
VERTEX
  5
1B6
330
1B4
100
AcDbEntity
  8
cuerpo
 62
     7
420
 16777215
370
     9
100
AcDbVertex
100
AcDb2dVertex
 10
15.74167480075208
 20
11.64028862556215
 30
0.0
  0
SEQEND
  5
1B7
330
1B4
100
AcDbEntity
  8
cuerpo
370
     9
  0
SPLINE
  5
1B8
330
1F
100
AcDbEntity
  8
cuerpo
 62
     7
420
 16777215
370
     9
100
AcDbSpline
210
0.0
220
0.0
230
1.0
 70
     8
 71
     3
 72
    11
 73
     7
 74
     0
 42
0.0000000001
 43
0.0000000001
 40
0.0
 40
0.0
 40
0.0
 40
0.0
 40
1.0
 40
1.0
 40
1.0
 40
2.0
 40
2.0
 40
2.0
 40
2.0
 10
15.65882025433182
 20
11.97205132079171
 30
0.0
 10
15.65882025433182
 20
12.00477972790158
 30
0.0
 10
15.67742376995217
 20
12.03096245358948
 30
0.0
 10
15.70033365492908
 20
12.03096245358948
 30
0.0
 10
15.72307128513173
 20
12.03096245358948
 30
0.0
 10
15.74167480075208
 20
12.00477972790158
 30
0.0
 10
15.74167480075208
 20
11.97205132079171
 30
0.0
  0
SPLINE
  5
1B9
330
1F
100
AcDbEntity
  8
cuerpo
 62
     7
420
 16777215
370
     9
100
AcDbSpline
210
0.0
220
0.0
230
1.0
 70
     8
 71
     3
 72
    11
 73
     7
 74
     0
 42
0.0000000001
 43
0.0000000001
 40
0.0
 40
0.0
 40
0.0
 40
0.0
 40
1.0
 40
1.0
 40
1.0
 40
2.0
 40
2.0
 40
2.0
 40
2.0
 10
15.74167480075208
 20
11.64028862556215
 30
0.0
 10
15.74167480075208
 20
11.60756021845228
 30
0.0
 10
15.72307128513173
 20
11.58137749276438
 30
0.0
 10
15.70033365492908
 20
11.58137749276438
 30
0.0
 10
15.67742376995217
 20
11.58137749276438
 30
0.0
 10
15.65882025433182
 20
11.60756021845228
 30
0.0
 10
15.65882025433182
 20
11.64028862556215
 30
0.0
  0
POLYLINE
  5
1BA
330
1F
100
AcDbEntity
  8
cuerpo
 62
     7
420
 16777215
370
     9
100
AcDb2dPolyline
 66
     1
 10
0.0
 20
0.0
 30
0.0
  0
VERTEX
  5
1BB
330
1BA
100
AcDbEntity
  8
cuerpo
 62
     7
420
 16777215
370
     9
100
AcDbVertex
100
AcDb2dVertex
 10
15.62333577083375
 20
11.97205132079171
 30
0.0
  0
VERTEX
  5
1BC
330
1BA
100
AcDbEntity
  8
cuerpo
 62
     7
420
 16777215
370
     9
100
AcDbVertex
100
AcDb2dVertex
 10
15.62333577083375
 20
11.64028862556215
 30
0.0
  0
SEQEND
  5
1BD
330
1BA
100
AcDbEntity
  8
cuerpo
370
     9
  0
POLYLINE
  5
1BE
330
1F
100
AcDbEntity
  8
cuerpo
 62
     7
420
 16777215
370
     9
100
AcDb2dPolyline
 66
     1
 10
0.0
 20
0.0
 30
0.0
  0
VERTEX
  5
1BF
330
1BE
100
AcDbEntity
  8
cuerpo
 62
     7
420
 16777215
370
     9
100
AcDbVertex
100
AcDb2dVertex
 10
15.64693467490771
 20
12.16153157248045
 30
0.0
  0
VERTEX
  5
1C0
330
1BE
100
AcDbEntity
  8
cuerpo
 62
     7
420
 16777215
370
     9
100
AcDbVertex
100
AcDb2dVertex
 10
16.07326524120738
 20
12.16153157248045
 30
0.0
  0
SEQEND
  5
1C1
330
1BE
100
AcDbEntity
  8
cuerpo
370
     9
  0
POLYLINE
  5
1C2
330
1F
100
AcDbEntity
  8
cuerpo
 62
     7
420
 16777215
370
     9
100
AcDb2dPolyline
 66
     1
 10
0.0
 20
0.0
 30
0.0
  0
VERTEX
  5
1C3
330
1C2
100
AcDbEntity
  8
cuerpo
 62
     7
420
 16777215
370
     9
100
AcDbVertex
100
AcDb2dVertex
 10
15.64693467490771
 20
12.16153157248045
 30
0.0
  0
VERTEX
  5
1C4
330
1C2
100
AcDbEntity
  8
cuerpo
 62
     7
420
 16777215
370
     9
100
AcDbVertex
100
AcDb2dVertex
 10
15.64693467490771
 20
12.52877875120808
 30
0.0
  0
SEQEND
  5
1C5
330
1C2
100
AcDbEntity
  8
cuerpo
370
     9
  0
POLYLINE
  5
1C6
330
1F
100
AcDbEntity
  8
cuerpo
 62
     7
420
 16777215
370
     9
100
AcDb2dPolyline
 66
     1
 10
0.0
 20
0.0
 30
0.0
  0
VERTEX
  5
1C7
330
1C6
100
AcDbEntity
  8
cuerpo
 62
     7
420
 16777215
370
     9
100
AcDbVertex
100
AcDb2dVertex
 10
15.64693467490771
 20
12.52877875120808
 30
0.0
  0
VERTEX
  5
1C8
330
1C6
100
AcDbEntity
  8
cuerpo
 62
     7
420
 16777215
370
     9
100
AcDbVertex
100
AcDb2dVertex
 10
16.07326524120738
 20
12.52877875120808
 30
0.0
  0
SEQEND
  5
1C9
330
1C6
100
AcDbEntity
  8
cuerpo
370
     9
  0
POLYLINE
  5
1CA
330
1F
100
AcDbEntity
  8
cuerpo
 62
     7
420
 16777215
370
     9
100
AcDb2dPolyline
 66
     1
 10
0.0
 20
0.0
 30
0.0
  0
VERTEX
  5
1CB
330
1CA
100
AcDbEntity
  8
cuerpo
 62
     7
420
 16777215
370
     9
100
AcDbVertex
100
AcDb2dVertex
 10
16.07326524120738
 20
12.52877875120808
 30
0.0
  0
VERTEX
  5
1CC
330
1CA
100
AcDbEntity
  8
cuerpo
 62
     7
420
 16777215
370
     9
100
AcDbVertex
100
AcDb2dVertex
 10
16.07326524120738
 20
12.16153157248045
 30
0.0
  0
SEQEND
  5
1CD
330
1CA
100
AcDbEntity
  8
cuerpo
370
     9
  0
POLYLINE
  5
1CE
330
1F
100
AcDbEntity
  8
cuerpo
 62
     7
420
 16777215
370
     9
100
AcDb2dPolyline
 66
     1
 10
0.0
 20
0.0
 30
0.0
  0
VERTEX
  5
1CF
330
1CE
100
AcDbEntity
  8
cuerpo
 62
     7
420
 16777215
370
     9
100
AcDbVertex
100
AcDb2dVertex
 10
15.96009385451692
 20
12.52877875120808
 30
0.0
  0
VERTEX
  5
1D0
330
1CE
100
AcDbEntity
  8
cuerpo
 62
     7
420
 16777215
370
     9
100
AcDbVertex
100
AcDb2dVertex
 10
15.96009385451692
 20
12.16153157248045
 30
0.0
  0
SEQEND
  5
1D1
330
1CE
100
AcDbEntity
  8
cuerpo
370
     9
  0
POLYLINE
  5
1D2
330
1F
100
AcDbEntity
  8
cuerpo
 62
     7
420
 16777215
370
     9
100
AcDb2dPolyline
 66
     1
 10
0.0
 20
0.0
 30
0.0
  0
VERTEX
  5
1D3
330
1D2
100
AcDbEntity
  8
cuerpo
 62
     7
420
 16777215
370
     9
100
AcDbVertex
100
AcDb2dVertex
 10
15.78870035412574
 20
12.52877875120808
 30
0.0
  0
VERTEX
  5
1D4
330
1D2
100
AcDbEntity
  8
cuerpo
 62
     7
420
 16777215
370
     9
100
AcDbVertex
100
AcDb2dVertex
 10
15.78870035412574
 20
12.16153157248045
 30
0.0
  0
SEQEND
  5
1D5
330
1D2
100
AcDbEntity
  8
cuerpo
370
     9
  0
POLYLINE
  5
1D6
330
1F
100
AcDbEntity
  8
cuerpo
 62
     7
420
 16777215
370
     9
100
AcDb2dPolyline
 66
     1
 10
0.0
 20
0.0
 30
0.0
  0
VERTEX
  5
1D7
330
1D6
100
AcDbEntity
  8
cuerpo
 62
     7
420
 16777215
370
     9
100
AcDbVertex
100
AcDb2dVertex
 10
15.72083197306632
 20
12.52877875120808
 30
0.0
  0
VERTEX
  5
1D8
330
1D6
100
AcDbEntity
  8
cuerpo
 62
     7
420
 16777215
370
     9
100
AcDbVertex
100
AcDb2dVertex
 10
15.72083197306632
 20
12.60147026594685
 30
0.0
  0
SEQEND
  5
1D9
330
1D6
100
AcDbEntity
  8
cuerpo
370
     9
  0
POLYLINE
  5
1DA
330
1F
100
AcDbEntity
  8
cuerpo
 62
     7
420
 16777215
370
     9
100
AcDb2dPolyline
 66
     1
 10
0.0
 20
0.0
 30
0.0
  0
VERTEX
  5
1DB
330
1DA
100
AcDbEntity
  8
cuerpo
 62
     7
420
 16777215
370
     9
100
AcDbVertex
100
AcDb2dVertex
 10
15.99471706414368
 20
12.52877875120808
 30
0.0
  0
VERTEX
  5
1DC
330
1DA
100
AcDbEntity
  8
cuerpo
 62
     7
420
 16777215
370
     9
100
AcDbVertex
100
AcDb2dVertex
 10
15.99471706414368
 20
12.60147026594685
 30
0.0
  0
SEQEND
  5
1DD
330
1DA
100
AcDbEntity
  8
cuerpo
370
     9
  0
POLYLINE
  5
1DE
330
1F
100
AcDbEntity
  8
cuerpo
 62
     7
420
 16777215
370
     9
100
AcDb2dPolyline
 66
     1
 10
0.0
 20
0.0
 30
0.0
  0
VERTEX
  5
1DF
330
1DE
100
AcDbEntity
  8
cuerpo
 62
     7
420
 16777215
370
     9
100
AcDbVertex
100
AcDb2dVertex
 10
14.82407361825579
 20
12.22733289624872
 30
0.0
  0
VERTEX
  5
1E0
330
1DE
100
AcDbEntity
  8
cuerpo
 62
     7
420
 16777215
370
     9
100
AcDbVertex
100
AcDb2dVertex
 10
14.82407361825579
 20
12.53945854721236
 30
0.0
  0
SEQEND
  5
1E1
330
1DE
100
AcDbEntity
  8
cuerpo
370
     9
  0
POLYLINE
  5
1E2
330
1F
100
AcDbEntity
  8
cuerpo
 62
     7
420
 16777215
370
     9
100
AcDb2dPolyline
 66
     1
 10
0.0
 20
0.0
 30
0.0
  0
VERTEX
  5
1E3
330
1E2
100
AcDbEntity
  8
cuerpo
 62
     7
420
 16777215
370
     9
100
AcDbVertex
100
AcDb2dVertex
 10
14.82407361825579
 20
12.53945854721236
 30
0.0
  0
VERTEX
  5
1E4
330
1E2
100
AcDbEntity
  8
cuerpo
 62
     7
420
 16777215
370
     9
100
AcDbVertex
100
AcDb2dVertex
 10
15.18632540852981
 20
12.53945854721236
 30
0.0
  0
SEQEND
  5
1E5
330
1E2
100
AcDbEntity
  8
cuerpo
370
     9
  0
POLYLINE
  5
1E6
330
1F
100
AcDbEntity
  8
cuerpo
 62
     7
420
 16777215
370
     9
100
AcDb2dPolyline
 66
     1
 10
0.0
 20
0.0
 30
0.0
  0
VERTEX
  5
1E7
330
1E6
100
AcDbEntity
  8
cuerpo
 62
     7
420
 16777215
370
     9
100
AcDbVertex
100
AcDb2dVertex
 10
15.18632540852981
 20
12.53945854721236
 30
0.0
  0
VERTEX
  5
1E8
330
1E6
100
AcDbEntity
  8
cuerpo
 62
     7
420
 16777215
370
     9
100
AcDbVertex
100
AcDb2dVertex
 10
15.18632540852981
 20
12.22733289624872
 30
0.0
  0
SEQEND
  5
1E9
330
1E6
100
AcDbEntity
  8
cuerpo
370
     9
  0
POLYLINE
  5
1EA
330
1F
100
AcDbEntity
  8
cuerpo
 62
     7
420
 16777215
370
     9
100
AcDb2dPolyline
 66
     1
 10
0.0
 20
0.0
 30
0.0
  0
VERTEX
  5
1EB
330
1EA
100
AcDbEntity
  8
cuerpo
 62
     7
420
 16777215
370
     9
100
AcDbVertex
100
AcDb2dVertex
 10
15.09020724449134
 20
12.53945854721236
 30
0.0
  0
VERTEX
  5
1EC
330
1EA
100
AcDbEntity
  8
cuerpo
 62
     7
420
 16777215
370
     9
100
AcDbVertex
100
AcDb2dVertex
 10
15.09020724449134
 20
12.22733289624872
 30
0.0
  0
SEQEND
  5
1ED
330
1EA
100
AcDbEntity
  8
cuerpo
370
     9
  0
POLYLINE
  5
1EE
330
1F
100
AcDbEntity
  8
cuerpo
 62
     7
420
 16777215
370
     9
100
AcDb2dPolyline
 66
     1
 10
0.0
 20
0.0
 30
0.0
  0
VERTEX
  5
1EF
330
1EE
100
AcDbEntity
  8
cuerpo
 62
     7
420
 16777215
370
     9
100
AcDbVertex
100
AcDb2dVertex
 10
14.94447970546527
 20
12.53945854721236
 30
0.0
  0
VERTEX
  5
1F0
330
1EE
100
AcDbEntity
  8
cuerpo
 62
     7
420
 16777215
370
     9
100
AcDbVertex
100
AcDb2dVertex
 10
14.94447970546527
 20
12.22733289624872
 30
0.0
  0
SEQEND
  5
1F1
330
1EE
100
AcDbEntity
  8
cuerpo
370
     9
  0
POLYLINE
  5
1F2
330
1F
100
AcDbEntity
  8
cuerpo
 62
     7
420
 16777215
370
     9
100
AcDb2dPolyline
 66
     1
 10
0.0
 20
0.0
 30
0.0
  0
VERTEX
  5
1F3
330
1F2
100
AcDbEntity
  8
cuerpo
 62
     7
420
 16777215
370
     9
100
AcDbVertex
100
AcDb2dVertex
 10
14.88677435608733
 20
12.53945854721236
 30
0.0
  0
VERTEX
  5
1F4
330
1F2
100
AcDbEntity
  8
cuerpo
 62
     7
420
 16777215
370
     9
100
AcDbVertex
100
AcDb2dVertex
 10
14.88677435608733
 20
12.60147026594685
 30
0.0
  0
SEQEND
  5
1F5
330
1F2
100
AcDbEntity
  8
cuerpo
370
     9
  0
POLYLINE
  5
1F6
330
1F
100
AcDbEntity
  8
cuerpo
 62
     7
420
 16777215
370
     9
100
AcDb2dPolyline
 66
     1
 10
0.0
 20
0.0
 30
0.0
  0
VERTEX
  5
1F7
330
1F6
100
AcDbEntity
  8
cuerpo
 62
     7
420
 16777215
370
     9
100
AcDbVertex
100
AcDb2dVertex
 10
15.11949055611596
 20
12.53945854721236
 30
0.0
  0
VERTEX
  5
1F8
330
1F6
100
AcDbEntity
  8
cuerpo
 62
     7
420
 16777215
370
     9
100
AcDbVertex
100
AcDb2dVertex
 10
15.11949055611596
 20
12.60147026594685
 30
0.0
  0
SEQEND
  5
1F9
330
1F6
100
AcDbEntity
  8
cuerpo
370
     9
  0
POLYLINE
  5
1FA
330
1F
100
AcDbEntity
  8
cuerpo
 62
     7
420
 16777215
370
     9
100
AcDb2dPolyline
 66
     1
 10
0.0
 20
0.0
 30
0.0
  0
VERTEX
  5
1FB
330
1FA
100
AcDbEntity
  8
cuerpo
 62
     7
420
 16777215
370
     9
100
AcDbVertex
100
AcDb2dVertex
 10
15.16289875923011
 20
11.56311848669255
 30
0.0
  0
VERTEX
  5
1FC
330
1FA
100
AcDbEntity
  8
cuerpo
 62
     7
420
 16777215
370
     9
100
AcDbVertex
100
AcDb2dVertex
 10
15.16289875923011
 20
10.06002332647805
 30
0.0
  0
SEQEND
  5
1FD
330
1FA
100
AcDbEntity
  8
cuerpo
370
     9
  0
POLYLINE
  5
1FE
330
1F
100
AcDbEntity
  8
cuerpo
 62
     7
420
 16777215
370
     9
100
AcDb2dPolyline
 66
     1
 10
0.0
 20
0.0
 30
0.0
  0
VERTEX
  5
1FF
330
1FE
100
AcDbEntity
  8
cuerpo
 62
     7
420
 16777215
370
     9
100
AcDbVertex
100
AcDb2dVertex
 10
14.66301540432036
 20
9.850217011426334
 30
0.0
  0
VERTEX
  5
200
330
1FE
100
AcDbEntity
  8
cuerpo
 62
     7
420
 16777215
370
     9
100
AcDbVertex
100
AcDb2dVertex
 10
15.39561495925874
 20
10.15786403825915
 30
0.0
  0
SEQEND
  5
201
330
1FE
100
AcDbEntity
  8
cuerpo
370
     9
  0
POLYLINE
  5
202
330
1F
100
AcDbEntity
  8
cuerpo
 62
     7
420
 16777215
370
     9
100
AcDb2dPolyline
 66
     1
 10
0.0
 20
0.0
 30
0.0
  0
VERTEX
  5
203
330
202
100
AcDbEntity
  8
cuerpo
 62
     7
420
 16777215
370
     9
100
AcDbVertex
100
AcDb2dVertex
 10
14.8607638851737
 20
11.56311848669255
 30
0.0
  0
VERTEX
  5
204
330
202
100
AcDbEntity
  8
cuerpo
 62
     7
420
 16777215
370
     9
100
AcDbVertex
100
AcDb2dVertex
 10
14.8607638851737
 20
9.933243812620857
 30
0.0
  0
SEQEND
  5
205
330
202
100
AcDbEntity
  8
cuerpo
370
     9
  0
POLYLINE
  5
206
330
1F
100
AcDbEntity
  8
cuerpo
 62
     7
420
 16777215
370
     9
100
AcDb2dPolyline
 66
     1
 10
0.0
 20
0.0
 30
0.0
  0
VERTEX
  5
207
330
206
100
AcDbEntity
  8
cuerpo
 62
     7
420
 16777215
370
     9
100
AcDbVertex
100
AcDb2dVertex
 10
24.13909504604856
 20
15.61351724870079
 30
0.0
  0
VERTEX
  5
208
330
206
100
AcDbEntity
  8
cuerpo
 62
     7
420
 16777215
370
     9
100
AcDbVertex
100
AcDb2dVertex
 10
24.9917561786479
 20
15.61351724870079
 30
0.0
  0
SEQEND
  5
209
330
206
100
AcDbEntity
  8
cuerpo
370
     9
  0
POLYLINE
  5
20A
330
1F
100
AcDbEntity
  8
cuerpo
 62
     7
420
 16777215
370
     9
100
AcDb2dPolyline
 66
     1
 10
0.0
 20
0.0
 30
0.0
  0
VERTEX
  5
20B
330
20A
100
AcDbEntity
  8
cuerpo
 62
     7
420
 16777215
370
     9
100
AcDbVertex
100
AcDb2dVertex
 10
24.9917561786479
 20
15.61351724870079
 30
0.0
  0
VERTEX
  5
20C
330
20A
100
AcDbEntity
  8
cuerpo
 62
     7
420
 16777215
370
     9
100
AcDbVertex
100
AcDb2dVertex
 10
24.9917561786479
 20
15.51877712285642
 30
0.0
  0
SEQEND
  5
20D
330
20A
100
AcDbEntity
  8
cuerpo
370
     9
  0
POLYLINE
  5
20E
330
1F
100
AcDbEntity
  8
cuerpo
 62
     7
420
 16777215
370
     9
100
AcDb2dPolyline
 66
     1
 10
0.0
 20
0.0
 30
0.0
  0
VERTEX
  5
20F
330
20E
100
AcDbEntity
  8
cuerpo
 62
     7
420
 16777215
370
     9
100
AcDbVertex
100
AcDb2dVertex
 10
24.13909504604856
 20
15.51877712285642
 30
0.0
  0
VERTEX
  5
210
330
20E
100
AcDbEntity
  8
cuerpo
 62
     7
420
 16777215
370
     9
100
AcDbVertex
100
AcDb2dVertex
 10
24.13909504604856
 20
15.61351724870079
 30
0.0
  0
SEQEND
  5
211
330
20E
100
AcDbEntity
  8
cuerpo
370
     9
  0
POLYLINE
  5
212
330
1F
100
AcDbEntity
  8
cuerpo
 62
     7
420
 16777215
370
     9
100
AcDb2dPolyline
 66
     1
 10
0.0
 20
0.0
 30
0.0
  0
VERTEX
  5
213
330
212
100
AcDbEntity
  8
cuerpo
 62
     7
420
 16777215
370
     9
100
AcDbVertex
100
AcDb2dVertex
 10
23.99715711205627
 20
15.51877712285642
 30
0.0
  0
VERTEX
  5
214
330
212
100
AcDbEntity
  8
cuerpo
 62
     7
420
 16777215
370
     9
100
AcDbVertex
100
AcDb2dVertex
 10
25.13369411264019
 20
15.51877712285642
 30
0.0
  0
SEQEND
  5
215
330
212
100
AcDbEntity
  8
cuerpo
370
     9
  0
POLYLINE
  5
216
330
1F
100
AcDbEntity
  8
cuerpo
 62
     7
420
 16777215
370
     9
100
AcDb2dPolyline
 66
     1
 10
0.0
 20
0.0
 30
0.0
  0
VERTEX
  5
217
330
216
100
AcDbEntity
  8
cuerpo
 62
     7
420
 16777215
370
     9
100
AcDbVertex
100
AcDb2dVertex
 10
23.47625867468649
 20
15.18735893717538
 30
0.0
  0
VERTEX
  5
218
330
216
100
AcDbEntity
  8
cuerpo
 62
     7
420
 16777215
370
     9
100
AcDbVertex
100
AcDb2dVertex
 10
25.65459255000997
 20
15.18735893717538
 30
0.0
  0
SEQEND
  5
219
330
216
100
AcDbEntity
  8
cuerpo
370
     9
  0
SPLINE
  5
21A
330
1F
100
AcDbEntity
  8
cuerpo
 62
     7
420
 16777215
370
     9
100
AcDbSpline
210
0.0
220
0.0
230
1.0
 70
     8
 71
     3
 72
     8
 73
     4
 74
     0
 42
0.0000000001
 43
0.0000000001
 40
0.0
 40
0.0
 40
0.0
 40
0.0
 40
1.0
 40
1.0
 40
1.0
 40
1.0
 10
25.65459255000997
 20
15.18735893717538
 30
0.0
 10
25.56157497190822
 20
15.39061957080512
 30
0.0
 10
25.35762531918143
 20
15.52049967059904
 30
0.0
 10
25.13369411264019
 20
15.51877712285642
 30
0.0
  0
SPLINE
  5
21B
330
1F
100
AcDbEntity
  8
cuerpo
 62
     7
420
 16777215
370
     9
100
AcDbSpline
210
0.0
220
0.0
230
1.0
 70
     8
 71
     3
 72
     8
 73
     4
 74
     0
 42
0.0000000001
 43
0.0000000001
 40
0.0
 40
0.0
 40
0.0
 40
0.0
 40
1.0
 40
1.0
 40
1.0
 40
1.0
 10
23.99715711205627
 20
15.51877712285642
 30
0.0
 10
23.77357041506355
 20
15.52049967059904
 30
0.0
 10
23.56927625278824
 20
15.39061957080512
 30
0.0
 10
23.47625867468649
 20
15.18735893717538
 30
0.0
  0
POLYLINE
  5
21C
330
1F
100
AcDbEntity
  8
cuerpo
 62
     7
420
 16777215
370
     9
100
AcDb2dPolyline
 66
     1
 10
0.0
 20
0.0
 30
0.0
  0
VERTEX
  5
21D
330
21C
100
AcDbEntity
  8
cuerpo
 62
     7
420
 16777215
370
     9
100
AcDbVertex
100
AcDb2dVertex
 10
24.9917561786479
 20
15.18735893717538
 30
0.0
  0
VERTEX
  5
21E
330
21C
100
AcDbEntity
  8
cuerpo
 62
     7
420
 16777215
370
     9
100
AcDbVertex
100
AcDb2dVertex
 10
24.9917561786479
 20
14.71365830795353
 30
0.0
  0
SEQEND
  5
21F
330
21C
100
AcDbEntity
  8
cuerpo
370
     9
  0
POLYLINE
  5
220
330
1F
100
AcDbEntity
  8
cuerpo
 62
     7
420
 16777215
370
     9
100
AcDb2dPolyline
 66
     1
 10
0.0
 20
0.0
 30
0.0
  0
VERTEX
  5
221
330
220
100
AcDbEntity
  8
cuerpo
 62
     7
420
 16777215
370
     9
100
AcDbVertex
100
AcDb2dVertex
 10
24.9917561786479
 20
14.71365830795353
 30
0.0
  0
VERTEX
  5
222
330
220
100
AcDbEntity
  8
cuerpo
 62
     7
420
 16777215
370
     9
100
AcDbVertex
100
AcDb2dVertex
 10
24.13909504604856
 20
14.71365830795353
 30
0.0
  0
SEQEND
  5
223
330
220
100
AcDbEntity
  8
cuerpo
370
     9
  0
POLYLINE
  5
224
330
1F
100
AcDbEntity
  8
cuerpo
 62
     7
420
 16777215
370
     9
100
AcDb2dPolyline
 66
     1
 10
0.0
 20
0.0
 30
0.0
  0
VERTEX
  5
225
330
224
100
AcDbEntity
  8
cuerpo
 62
     7
420
 16777215
370
     9
100
AcDbVertex
100
AcDb2dVertex
 10
24.13909504604856
 20
14.71365830795353
 30
0.0
  0
VERTEX
  5
226
330
224
100
AcDbEntity
  8
cuerpo
 62
     7
420
 16777215
370
     9
100
AcDbVertex
100
AcDb2dVertex
 10
24.13909504604856
 20
15.18735893717538
 30
0.0
  0
SEQEND
  5
227
330
224
100
AcDbEntity
  8
cuerpo
370
     9
  0
POLYLINE
  5
228
330
1F
100
AcDbEntity
  8
cuerpo
 62
     7
420
 16777215
370
     9
100
AcDb2dPolyline
 66
     1
 10
0.0
 20
0.0
 30
0.0
  0
VERTEX
  5
229
330
228
100
AcDbEntity
  8
cuerpo
 62
     7
420
 16777215
370
     9
100
AcDbVertex
100
AcDb2dVertex
 10
25.4179144901733
 20
14.71365830795353
 30
0.0
  0
VERTEX
  5
22A
330
228
100
AcDbEntity
  8
cuerpo
 62
     7
420
 16777215
370
     9
100
AcDbVertex
100
AcDb2dVertex
 10
23.71293673452315
 20
14.71365830795353
 30
0.0
  0
SEQEND
  5
22B
330
228
100
AcDbEntity
  8
cuerpo
370
     9
  0
POLYLINE
  5
22C
330
1F
100
AcDbEntity
  8
cuerpo
 62
     7
420
 16777215
370
     9
100
AcDb2dPolyline
 66
     1
 10
0.0
 20
0.0
 30
0.0
  0
VERTEX
  5
22D
330
22C
100
AcDbEntity
  8
cuerpo
 62
     7
420
 16777215
370
     9
100
AcDbVertex
100
AcDb2dVertex
 10
23.71293673452315
 20
14.71365830795353
 30
0.0
  0
VERTEX
  5
22E
330
22C
100
AcDbEntity
  8
cuerpo
 62
     7
420
 16777215
370
     9
100
AcDbVertex
100
AcDb2dVertex
 10
23.71293673452315
 20
14.57172037396124
 30
0.0
  0
SEQEND
  5
22F
330
22C
100
AcDbEntity
  8
cuerpo
370
     9
  0
POLYLINE
  5
230
330
1F
100
AcDbEntity
  8
cuerpo
 62
     7
420
 16777215
370
     9
100
AcDb2dPolyline
 66
     1
 10
0.0
 20
0.0
 30
0.0
  0
VERTEX
  5
231
330
230
100
AcDbEntity
  8
cuerpo
 62
     7
420
 16777215
370
     9
100
AcDbVertex
100
AcDb2dVertex
 10
25.4179144901733
 20
14.57172037396124
 30
0.0
  0
VERTEX
  5
232
330
230
100
AcDbEntity
  8
cuerpo
 62
     7
420
 16777215
370
     9
100
AcDbVertex
100
AcDb2dVertex
 10
25.4179144901733
 20
14.71365830795353
 30
0.0
  0
SEQEND
  5
233
330
230
100
AcDbEntity
  8
cuerpo
370
     9
  0
POLYLINE
  5
234
330
1F
100
AcDbEntity
  8
cuerpo
 62
     7
420
 16777215
370
     9
100
AcDb2dPolyline
 66
     1
 10
0.0
 20
0.0
 30
0.0
  0
VERTEX
  5
235
330
234
100
AcDbEntity
  8
cuerpo
 62
     7
420
 16777215
370
     9
100
AcDbVertex
100
AcDb2dVertex
 10
25.51265461601767
 20
14.57172037396124
 30
0.0
  0
VERTEX
  5
236
330
234
100
AcDbEntity
  8
cuerpo
 62
     7
420
 16777215
370
     9
100
AcDbVertex
100
AcDb2dVertex
 10
23.61819660867879
 20
14.57172037396124
 30
0.0
  0
SEQEND
  5
237
330
234
100
AcDbEntity
  8
cuerpo
370
     9
  0
POLYLINE
  5
238
330
1F
100
AcDbEntity
  8
cuerpo
 62
     7
420
 16777215
370
     9
100
AcDb2dPolyline
 66
     1
 10
0.0
 20
0.0
 30
0.0
  0
VERTEX
  5
239
330
238
100
AcDbEntity
  8
cuerpo
 62
     7
420
 16777215
370
     9
100
AcDbVertex
100
AcDb2dVertex
 10
25.51265461601767
 20
14.57172037396124
 30
0.0
  0
VERTEX
  5
23A
330
238
100
AcDbEntity
  8
cuerpo
 62
     7
420
 16777215
370
     9
100
AcDbVertex
100
AcDb2dVertex
 10
25.51265461601767
 20
14.47698024811687
 30
0.0
  0
SEQEND
  5
23B
330
238
100
AcDbEntity
  8
cuerpo
370
     9
  0
POLYLINE
  5
23C
330
1F
100
AcDbEntity
  8
cuerpo
 62
     7
420
 16777215
370
     9
100
AcDb2dPolyline
 66
     1
 10
0.0
 20
0.0
 30
0.0
  0
VERTEX
  5
23D
330
23C
100
AcDbEntity
  8
cuerpo
 62
     7
420
 16777215
370
     9
100
AcDbVertex
100
AcDb2dVertex
 10
25.51265461601767
 20
14.47698024811687
 30
0.0
  0
VERTEX
  5
23E
330
23C
100
AcDbEntity
  8
cuerpo
 62
     7
420
 16777215
370
     9
100
AcDbVertex
100
AcDb2dVertex
 10
23.61819660867879
 20
14.47698024811687
 30
0.0
  0
SEQEND
  5
23F
330
23C
100
AcDbEntity
  8
cuerpo
370
     9
  0
POLYLINE
  5
240
330
1F
100
AcDbEntity
  8
cuerpo
 62
     7
420
 16777215
370
     9
100
AcDb2dPolyline
 66
     1
 10
0.0
 20
0.0
 30
0.0
  0
VERTEX
  5
241
330
240
100
AcDbEntity
  8
cuerpo
 62
     7
420
 16777215
370
     9
100
AcDbVertex
100
AcDb2dVertex
 10
23.61819660867879
 20
14.47698024811687
 30
0.0
  0
VERTEX
  5
242
330
240
100
AcDbEntity
  8
cuerpo
 62
     7
420
 16777215
370
     9
100
AcDbVertex
100
AcDb2dVertex
 10
23.61819660867879
 20
14.57172037396124
 30
0.0
  0
SEQEND
  5
243
330
240
100
AcDbEntity
  8
cuerpo
370
     9
  0
POLYLINE
  5
244
330
1F
100
AcDbEntity
  8
cuerpo
 62
     7
420
 16777215
370
     9
100
AcDb2dPolyline
 66
     1
 10
0.0
 20
0.0
 30
0.0
  0
VERTEX
  5
245
330
244
100
AcDbEntity
  8
cuerpo
 62
     7
420
 16777215
370
     9
100
AcDbVertex
100
AcDb2dVertex
 10
24.9917561786479
 20
14.47698024811687
 30
0.0
  0
VERTEX
  5
246
330
244
100
AcDbEntity
  8
cuerpo
 62
     7
420
 16777215
370
     9
100
AcDbVertex
100
AcDb2dVertex
 10
24.9917561786479
 20
14.27578667177828
 30
0.0
  0
SEQEND
  5
247
330
244
100
AcDbEntity
  8
cuerpo
370
     9
  0
POLYLINE
  5
248
330
1F
100
AcDbEntity
  8
cuerpo
 62
     7
420
 16777215
370
     9
100
AcDb2dPolyline
 66
     1
 10
0.0
 20
0.0
 30
0.0
  0
VERTEX
  5
249
330
248
100
AcDbEntity
  8
cuerpo
 62
     7
420
 16777215
370
     9
100
AcDbVertex
100
AcDb2dVertex
 10
24.9917561786479
 20
14.08630642008954
 30
0.0
  0
VERTEX
  5
24A
330
248
100
AcDbEntity
  8
cuerpo
 62
     7
420
 16777215
370
     9
100
AcDbVertex
100
AcDb2dVertex
 10
24.9917561786479
 20
13.8141438767548
 30
0.0
  0
SEQEND
  5
24B
330
248
100
AcDbEntity
  8
cuerpo
370
     9
  0
POLYLINE
  5
24C
330
1F
100
AcDbEntity
  8
cuerpo
 62
     7
420
 16777215
370
     9
100
AcDb2dPolyline
 66
     1
 10
0.0
 20
0.0
 30
0.0
  0
VERTEX
  5
24D
330
24C
100
AcDbEntity
  8
cuerpo
 62
     7
420
 16777215
370
     9
100
AcDbVertex
100
AcDb2dVertex
 10
24.13909504604856
 20
13.8141438767548
 30
0.0
  0
VERTEX
  5
24E
330
24C
100
AcDbEntity
  8
cuerpo
 62
     7
420
 16777215
370
     9
100
AcDbVertex
100
AcDb2dVertex
 10
24.13909504604856
 20
14.08630642008954
 30
0.0
  0
SEQEND
  5
24F
330
24C
100
AcDbEntity
  8
cuerpo
370
     9
  0
POLYLINE
  5
250
330
1F
100
AcDbEntity
  8
cuerpo
 62
     7
420
 16777215
370
     9
100
AcDb2dPolyline
 66
     1
 10
0.0
 20
0.0
 30
0.0
  0
VERTEX
  5
251
330
250
100
AcDbEntity
  8
cuerpo
 62
     7
420
 16777215
370
     9
100
AcDbVertex
100
AcDb2dVertex
 10
24.13909504604856
 20
14.27578667177828
 30
0.0
  0
VERTEX
  5
252
330
250
100
AcDbEntity
  8
cuerpo
 62
     7
420
 16777215
370
     9
100
AcDbVertex
100
AcDb2dVertex
 10
24.13909504604856
 20
14.47698024811687
 30
0.0
  0
SEQEND
  5
253
330
250
100
AcDbEntity
  8
cuerpo
370
     9
  0
POLYLINE
  5
254
330
1F
100
AcDbEntity
  8
cuerpo
 62
     7
420
 16777215
370
     9
100
AcDb2dPolyline
 66
     1
 10
0.0
 20
0.0
 30
0.0
  0
VERTEX
  5
255
330
254
100
AcDbEntity
  8
cuerpo
 62
     7
420
 16777215
370
     9
100
AcDbVertex
100
AcDb2dVertex
 10
24.56559786712249
 20
14.27578667177828
 30
0.0
  0
VERTEX
  5
256
330
254
100
AcDbEntity
  8
cuerpo
 62
     7
420
 16777215
370
     9
100
AcDbVertex
100
AcDb2dVertex
 10
25.10992295379197
 20
14.27578667177828
 30
0.0
  0
SEQEND
  5
257
330
254
100
AcDbEntity
  8
cuerpo
370
     9
  0
POLYLINE
  5
258
330
1F
100
AcDbEntity
  8
cuerpo
 62
     7
420
 16777215
370
     9
100
AcDb2dPolyline
 66
     1
 10
0.0
 20
0.0
 30
0.0
  0
VERTEX
  5
259
330
258
100
AcDbEntity
  8
cuerpo
 62
     7
420
 16777215
370
     9
100
AcDbVertex
100
AcDb2dVertex
 10
25.10992295379197
 20
14.27578667177828
 30
0.0
  0
VERTEX
  5
25A
330
258
100
AcDbEntity
  8
cuerpo
 62
     7
420
 16777215
370
     9
100
AcDbVertex
100
AcDb2dVertex
 10
25.10992295379197
 20
14.08630642008954
 30
0.0
  0
SEQEND
  5
25B
330
258
100
AcDbEntity
  8
cuerpo
370
     9
  0
POLYLINE
  5
25C
330
1F
100
AcDbEntity
  8
cuerpo
 62
     7
420
 16777215
370
     9
100
AcDb2dPolyline
 66
     1
 10
0.0
 20
0.0
 30
0.0
  0
VERTEX
  5
25D
330
25C
100
AcDbEntity
  8
cuerpo
 62
     7
420
 16777215
370
     9
100
AcDbVertex
100
AcDb2dVertex
 10
25.10992295379197
 20
14.08630642008954
 30
0.0
  0
VERTEX
  5
25E
330
25C
100
AcDbEntity
  8
cuerpo
 62
     7
420
 16777215
370
     9
100
AcDbVertex
100
AcDb2dVertex
 10
24.02092827090449
 20
14.08630642008954
 30
0.0
  0
SEQEND
  5
25F
330
25C
100
AcDbEntity
  8
cuerpo
370
     9
  0
POLYLINE
  5
260
330
1F
100
AcDbEntity
  8
cuerpo
 62
     7
420
 16777215
370
     9
100
AcDb2dPolyline
 66
     1
 10
0.0
 20
0.0
 30
0.0
  0
VERTEX
  5
261
330
260
100
AcDbEntity
  8
cuerpo
 62
     7
420
 16777215
370
     9
100
AcDbVertex
100
AcDb2dVertex
 10
24.02092827090449
 20
14.08630642008954
 30
0.0
  0
VERTEX
  5
262
330
260
100
AcDbEntity
  8
cuerpo
 62
     7
420
 16777215
370
     9
100
AcDbVertex
100
AcDb2dVertex
 10
24.02092827090449
 20
14.27578667177828
 30
0.0
  0
SEQEND
  5
263
330
260
100
AcDbEntity
  8
cuerpo
370
     9
  0
POLYLINE
  5
264
330
1F
100
AcDbEntity
  8
cuerpo
 62
     7
420
 16777215
370
     9
100
AcDb2dPolyline
 66
     1
 10
0.0
 20
0.0
 30
0.0
  0
VERTEX
  5
265
330
264
100
AcDbEntity
  8
cuerpo
 62
     7
420
 16777215
370
     9
100
AcDbVertex
100
AcDb2dVertex
 10
24.02092827090449
 20
14.27578667177828
 30
0.0
  0
VERTEX
  5
266
330
264
100
AcDbEntity
  8
cuerpo
 62
     7
420
 16777215
370
     9
100
AcDbVertex
100
AcDb2dVertex
 10
24.56559786712249
 20
14.27578667177828
 30
0.0
  0
SEQEND
  5
267
330
264
100
AcDbEntity
  8
cuerpo
370
     9
  0
POLYLINE
  5
268
330
1F
100
AcDbEntity
  8
cuerpo
 62
     7
420
 16777215
370
     9
100
AcDb2dPolyline
 66
     1
 10
0.0
 20
0.0
 30
0.0
  0
VERTEX
  5
269
330
268
100
AcDbEntity
  8
cuerpo
 62
     7
420
 16777215
370
     9
100
AcDbVertex
100
AcDb2dVertex
 10
24.13909504604856
 20
13.8141438767548
 30
0.0
  0
VERTEX
  5
26A
330
268
100
AcDbEntity
  8
cuerpo
 62
     7
420
 16777215
370
     9
100
AcDbVertex
100
AcDb2dVertex
 10
24.9917561786479
 20
13.8141438767548
 30
0.0
  0
SEQEND
  5
26B
330
268
100
AcDbEntity
  8
cuerpo
370
     9
  0
POLYLINE
  5
26C
330
1F
100
AcDbEntity
  8
cuerpo
 62
     7
420
 16777215
370
     9
100
AcDb2dPolyline
 66
     1
 10
0.0
 20
0.0
 30
0.0
  0
VERTEX
  5
26D
330
26C
100
AcDbEntity
  8
cuerpo
 62
     7
420
 16777215
370
     9
100
AcDbVertex
100
AcDb2dVertex
 10
24.35165743748848
 20
14.08630642008954
 30
0.0
  0
VERTEX
  5
26E
330
26C
100
AcDbEntity
  8
cuerpo
 62
     7
420
 16777215
370
     9
100
AcDbVertex
100
AcDb2dVertex
 10
24.35165743748848
 20
14.27578667177828
 30
0.0
  0
SEQEND
  5
26F
330
26C
100
AcDbEntity
  8
cuerpo
370
     9
  0
POLYLINE
  5
270
330
1F
100
AcDbEntity
  8
cuerpo
 62
     7
420
 16777215
370
     9
100
AcDb2dPolyline
 66
     1
 10
0.0
 20
0.0
 30
0.0
  0
VERTEX
  5
271
330
270
100
AcDbEntity
  8
cuerpo
 62
     7
420
 16777215
370
     9
100
AcDbVertex
100
AcDb2dVertex
 10
24.7643798766214
 20
14.08630642008954
 30
0.0
  0
VERTEX
  5
272
330
270
100
AcDbEntity
  8
cuerpo
 62
     7
420
 16777215
370
     9
100
AcDbVertex
100
AcDb2dVertex
 10
24.7643798766214
 20
14.27578667177828
 30
0.0
  0
SEQEND
  5
273
330
270
100
AcDbEntity
  8
cuerpo
370
     9
  0
POLYLINE
  5
274
330
1F
100
AcDbEntity
  8
cuerpo
 62
     7
420
 16777215
370
     9
100
AcDb2dPolyline
 66
     1
 10
0.0
 20
0.0
 30
0.0
  0
VERTEX
  5
275
330
274
100
AcDbEntity
  8
cuerpo
 62
     7
420
 16777215
370
     9
100
AcDbVertex
100
AcDb2dVertex
 10
24.88185763266842
 20
15.61351724870079
 30
0.0
  0
VERTEX
  5
276
330
274
100
AcDbEntity
  8
cuerpo
 62
     7
420
 16777215
370
     9
100
AcDbVertex
100
AcDb2dVertex
 10
24.88185763266842
 20
15.51877712285642
 30
0.0
  0
SEQEND
  5
277
330
274
100
AcDbEntity
  8
cuerpo
370
     9
  0
POLYLINE
  5
278
330
1F
100
AcDbEntity
  8
cuerpo
 62
     7
420
 16777215
370
     9
100
AcDb2dPolyline
 66
     1
 10
0.0
 20
0.0
 30
0.0
  0
VERTEX
  5
279
330
278
100
AcDbEntity
  8
cuerpo
 62
     7
420
 16777215
370
     9
100
AcDbVertex
100
AcDb2dVertex
 10
24.77195908668896
 20
15.61351724870079
 30
0.0
  0
VERTEX
  5
27A
330
278
100
AcDbEntity
  8
cuerpo
 62
     7
420
 16777215
370
     9
100
AcDbVertex
100
AcDb2dVertex
 10
24.77195908668896
 20
15.51877712285642
 30
0.0
  0
SEQEND
  5
27B
330
278
100
AcDbEntity
  8
cuerpo
370
     9
  0
POLYLINE
  5
27C
330
1F
100
AcDbEntity
  8
cuerpo
 62
     7
420
 16777215
370
     9
100
AcDb2dPolyline
 66
     1
 10
0.0
 20
0.0
 30
0.0
  0
VERTEX
  5
27D
330
27C
100
AcDbEntity
  8
cuerpo
 62
     7
420
 16777215
370
     9
100
AcDbVertex
100
AcDb2dVertex
 10
24.66206054070949
 20
15.61351724870079
 30
0.0
  0
VERTEX
  5
27E
330
27C
100
AcDbEntity
  8
cuerpo
 62
     7
420
 16777215
370
     9
100
AcDbVertex
100
AcDb2dVertex
 10
24.66206054070949
 20
15.51877712285642
 30
0.0
  0
SEQEND
  5
27F
330
27C
100
AcDbEntity
  8
cuerpo
370
     9
  0
POLYLINE
  5
280
330
1F
100
AcDbEntity
  8
cuerpo
 62
     7
420
 16777215
370
     9
100
AcDb2dPolyline
 66
     1
 10
0.0
 20
0.0
 30
0.0
  0
VERTEX
  5
281
330
280
100
AcDbEntity
  8
cuerpo
 62
     7
420
 16777215
370
     9
100
AcDbVertex
100
AcDb2dVertex
 10
24.33236490277108
 20
15.61351724870079
 30
0.0
  0
VERTEX
  5
282
330
280
100
AcDbEntity
  8
cuerpo
 62
     7
420
 16777215
370
     9
100
AcDbVertex
100
AcDb2dVertex
 10
24.33236490277108
 20
15.51877712285642
 30
0.0
  0
SEQEND
  5
283
330
280
100
AcDbEntity
  8
cuerpo
370
     9
  0
POLYLINE
  5
284
330
1F
100
AcDbEntity
  8
cuerpo
 62
     7
420
 16777215
370
     9
100
AcDb2dPolyline
 66
     1
 10
0.0
 20
0.0
 30
0.0
  0
VERTEX
  5
285
330
284
100
AcDbEntity
  8
cuerpo
 62
     7
420
 16777215
370
     9
100
AcDbVertex
100
AcDb2dVertex
 10
24.22246635679161
 20
15.61351724870079
 30
0.0
  0
VERTEX
  5
286
330
284
100
AcDbEntity
  8
cuerpo
 62
     7
420
 16777215
370
     9
100
AcDbVertex
100
AcDb2dVertex
 10
24.22246635679161
 20
15.51877712285642
 30
0.0
  0
SEQEND
  5
287
330
284
100
AcDbEntity
  8
cuerpo
370
     9
  0
POLYLINE
  5
288
330
1F
100
AcDbEntity
  8
cuerpo
 62
     7
420
 16777215
370
     9
100
AcDb2dPolyline
 66
     1
 10
0.0
 20
0.0
 30
0.0
  0
VERTEX
  5
289
330
288
100
AcDbEntity
  8
cuerpo
 62
     7
420
 16777215
370
     9
100
AcDbVertex
100
AcDb2dVertex
 10
24.44226344875054
 20
15.61351724870079
 30
0.0
  0
VERTEX
  5
28A
330
288
100
AcDbEntity
  8
cuerpo
 62
     7
420
 16777215
370
     9
100
AcDbVertex
100
AcDb2dVertex
 10
24.44226344875054
 20
15.51877712285642
 30
0.0
  0
SEQEND
  5
28B
330
288
100
AcDbEntity
  8
cuerpo
370
     9
  0
POLYLINE
  5
28C
330
1F
100
AcDbEntity
  8
cuerpo
 62
     7
420
 16777215
370
     9
100
AcDb2dPolyline
 66
     1
 10
0.0
 20
0.0
 30
0.0
  0
VERTEX
  5
28D
330
28C
100
AcDbEntity
  8
cuerpo
 62
     7
420
 16777215
370
     9
100
AcDbVertex
100
AcDb2dVertex
 10
24.55216199473002
 20
15.61351724870079
 30
0.0
  0
VERTEX
  5
28E
330
28C
100
AcDbEntity
  8
cuerpo
 62
     7
420
 16777215
370
     9
100
AcDbVertex
100
AcDb2dVertex
 10
24.55216199473002
 20
15.51877712285642
 30
0.0
  0
SEQEND
  5
28F
330
28C
100
AcDbEntity
  8
cuerpo
370
     9
  0
POLYLINE
  5
290
330
1F
100
AcDbEntity
  8
cuerpo
 62
     7
420
 16777215
370
     9
100
AcDb2dPolyline
 66
     1
 10
0.0
 20
0.0
 30
0.0
  0
VERTEX
  5
291
330
290
100
AcDbEntity
  8
cuerpo
 62
     7
420
 16777215
370
     9
100
AcDbVertex
100
AcDb2dVertex
 10
14.82803547806382
 20
8.671649845922365
 30
0.0
  0
VERTEX
  5
292
330
290
100
AcDbEntity
  8
cuerpo
 62
     7
420
 16777215
370
     9
100
AcDbVertex
100
AcDb2dVertex
 10
14.82803547806382
 20
8.711612953551263
 30
0.0
  0
SEQEND
  5
293
330
290
100
AcDbEntity
  8
cuerpo
370
     9
  0
SPLINE
  5
294
330
1F
100
AcDbEntity
  8
cuerpo
 62
     7
420
 16777215
370
     9
100
AcDbSpline
210
0.0
220
0.0
230
1.0
 70
     8
 71
     3
 72
    11
 73
     7
 74
     0
 42
0.0000000001
 43
0.0000000001
 40
0.0
 40
0.0
 40
0.0
 40
0.0
 40
1.0
 40
1.0
 40
1.0
 40
2.0
 40
2.0
 40
2.0
 40
2.0
 10
15.21044107692656
 20
8.731939016914238
 30
0.0
 10
15.24644232474742
 20
8.734695093302438
 30
0.0
 10
15.27331406953237
 20
8.76604546221821
 30
0.0
 10
15.27073024791843
 20
8.801874455264809
 30
0.0
 10
15.27004122882138
 20
8.810487193977934
 30
0.0
 10
15.26780191675597
 20
8.818755423142534
 30
0.0
 10
15.26401231172219
 20
8.826334633210083
 30
0.0
  0
SPLINE
  5
295
330
1F
100
AcDbEntity
  8
cuerpo
 62
     7
420
 16777215
370
     9
100
AcDbSpline
210
0.0
220
0.0
230
1.0
 70
     8
 71
     3
 72
    11
 73
     7
 74
     0
 42
0.0000000001
 43
0.0000000001
 40
0.0
 40
0.0
 40
0.0
 40
0.0
 40
1.0
 40
1.0
 40
1.0
 40
2.0
 40
2.0
 40
2.0
 40
2.0
 10
14.7946180518569
 20
8.826334633210083
 30
0.0
 10
14.77859835785049
 20
8.793950735648735
 30
0.0
 10
14.79168972069444
 20
8.754676647116886
 30
0.0
 10
14.82390136348153
 20
8.738484698336213
 30
0.0
 10
14.83148057354908
 20
8.734695093302438
 30
0.0
 10
14.83974880271368
 20
8.732628036011288
 30
0.0
 10
14.84818928665254
 20
8.731939016914238
 30
0.0
  0
POLYLINE
  5
296
330
1F
100
AcDbEntity
  8
cuerpo
 62
     7
420
 16777215
370
     9
100
AcDb2dPolyline
 66
     1
 10
0.0
 20
0.0
 30
0.0
  0
VERTEX
  5
297
330
296
100
AcDbEntity
  8
cuerpo
 62
     7
420
 16777215
370
     9
100
AcDbVertex
100
AcDb2dVertex
 10
14.7877278608864
 20
9.396153426470406
 30
0.0
  0
VERTEX
  5
298
330
296
100
AcDbEntity
  8
cuerpo
 62
     7
420
 16777215
370
     9
100
AcDbVertex
100
AcDb2dVertex
 10
15.27090250269269
 20
9.396153426470406
 30
0.0
  0
SEQEND
  5
299
330
296
100
AcDbEntity
  8
cuerpo
370
     9
  0
POLYLINE
  5
29A
330
1F
100
AcDbEntity
  8
cuerpo
 62
     7
420
 16777215
370
     9
100
AcDb2dPolyline
 66
     1
 10
0.0
 20
0.0
 30
0.0
  0
VERTEX
  5
29B
330
29A
100
AcDbEntity
  8
cuerpo
 62
     7
420
 16777215
370
     9
100
AcDbVertex
100
AcDb2dVertex
 10
15.23059488551527
 20
8.892824976075405
 30
0.0
  0
VERTEX
  5
29C
330
29A
100
AcDbEntity
  8
cuerpo
 62
     7
420
 16777215
370
     9
100
AcDbVertex
100
AcDb2dVertex
 10
15.23059488551527
 20
9.174633786768842
 30
0.0
  0
SEQEND
  5
29D
330
29A
100
AcDbEntity
  8
cuerpo
370
     9
  0
POLYLINE
  5
29E
330
1F
100
AcDbEntity
  8
cuerpo
 62
     7
420
 16777215
370
     9
100
AcDb2dPolyline
 66
     1
 10
0.0
 20
0.0
 30
0.0
  0
VERTEX
  5
29F
330
29E
100
AcDbEntity
  8
cuerpo
 62
     7
420
 16777215
370
     9
100
AcDbVertex
100
AcDb2dVertex
 10
15.27090250269269
 20
9.33069661225066
 30
0.0
  0
VERTEX
  5
2A0
330
29E
100
AcDbEntity
  8
cuerpo
 62
     7
420
 16777215
370
     9
100
AcDbVertex
100
AcDb2dVertex
 10
15.27090250269269
 20
9.396153426470406
 30
0.0
  0
SEQEND
  5
2A1
330
29E
100
AcDbEntity
  8
cuerpo
370
     9
  0
SPLINE
  5
2A2
330
1F
100
AcDbEntity
  8
cuerpo
 62
     7
420
 16777215
370
     9
100
AcDbSpline
210
0.0
220
0.0
230
1.0
 70
     8
 71
     3
 72
     8
 73
     4
 74
     0
 42
0.0000000001
 43
0.0000000001
 40
0.0
 40
0.0
 40
0.0
 40
0.0
 40
1.0
 40
1.0
 40
1.0
 40
1.0
 10
15.23059488551527
 20
9.174633786768842
 30
0.0
 10
15.25694986597743
 20
9.222520614013815
 30
0.0
 10
15.27090250269269
 20
9.275919594035187
 30
0.0
 10
15.27090250269269
 20
9.33069661225066
 30
0.0
  0
POLYLINE
  5
2A3
330
1F
100
AcDbEntity
  8
cuerpo
 62
     7
420
 16777215
370
     9
100
AcDb2dPolyline
 66
     1
 10
0.0
 20
0.0
 30
0.0
  0
VERTEX
  5
2A4
330
2A3
100
AcDbEntity
  8
cuerpo
 62
     7
420
 16777215
370
     9
100
AcDbVertex
100
AcDb2dVertex
 10
15.23059488551527
 20
8.892824976075405
 30
0.0
  0
VERTEX
  5
2A5
330
2A3
100
AcDbEntity
  8
cuerpo
 62
     7
420
 16777215
370
     9
100
AcDbVertex
100
AcDb2dVertex
 10
15.26401231172219
 20
8.826334633210083
 30
0.0
  0
SEQEND
  5
2A6
330
2A3
100
AcDbEntity
  8
cuerpo
370
     9
  0
POLYLINE
  5
2A7
330
1F
100
AcDbEntity
  8
cuerpo
 62
     7
420
 16777215
370
     9
100
AcDb2dPolyline
 66
     1
 10
0.0
 20
0.0
 30
0.0
  0
VERTEX
  5
2A8
330
2A7
100
AcDbEntity
  8
cuerpo
 62
     7
420
 16777215
370
     9
100
AcDbVertex
100
AcDb2dVertex
 10
15.20045030001933
 20
8.892824976075405
 30
0.0
  0
VERTEX
  5
2A9
330
2A7
100
AcDbEntity
  8
cuerpo
 62
     7
420
 16777215
370
     9
100
AcDbVertex
100
AcDb2dVertex
 10
15.20045030001933
 20
9.174633786768842
 30
0.0
  0
SEQEND
  5
2AA
330
2A7
100
AcDbEntity
  8
cuerpo
370
     9
  0
POLYLINE
  5
2AB
330
1F
100
AcDbEntity
  8
cuerpo
 62
     7
420
 16777215
370
     9
100
AcDb2dPolyline
 66
     1
 10
0.0
 20
0.0
 30
0.0
  0
VERTEX
  5
2AC
330
2AB
100
AcDbEntity
  8
cuerpo
 62
     7
420
 16777215
370
     9
100
AcDbVertex
100
AcDb2dVertex
 10
15.07969970326133
 20
8.892824976075405
 30
0.0
  0
VERTEX
  5
2AD
330
2AB
100
AcDbEntity
  8
cuerpo
 62
     7
420
 16777215
370
     9
100
AcDbVertex
100
AcDb2dVertex
 10
15.07969970326133
 20
9.174633786768842
 30
0.0
  0
SEQEND
  5
2AE
330
2AB
100
AcDbEntity
  8
cuerpo
370
     9
  0
POLYLINE
  5
2AF
330
1F
100
AcDbEntity
  8
cuerpo
 62
     7
420
 16777215
370
     9
100
AcDb2dPolyline
 66
     1
 10
0.0
 20
0.0
 30
0.0
  0
VERTEX
  5
2B0
330
2AF
100
AcDbEntity
  8
cuerpo
 62
     7
420
 16777215
370
     9
100
AcDbVertex
100
AcDb2dVertex
 10
14.97893066031777
 20
8.892824976075405
 30
0.0
  0
VERTEX
  5
2B1
330
2AF
100
AcDbEntity
  8
cuerpo
 62
     7
420
 16777215
370
     9
100
AcDbVertex
100
AcDb2dVertex
 10
14.97893066031777
 20
9.174633786768842
 30
0.0
  0
SEQEND
  5
2B2
330
2AF
100
AcDbEntity
  8
cuerpo
370
     9
  0
POLYLINE
  5
2B3
330
1F
100
AcDbEntity
  8
cuerpo
 62
     7
420
 16777215
370
     9
100
AcDb2dPolyline
 66
     1
 10
0.0
 20
0.0
 30
0.0
  0
VERTEX
  5
2B4
330
2B3
100
AcDbEntity
  8
cuerpo
 62
     7
420
 16777215
370
     9
100
AcDbVertex
100
AcDb2dVertex
 10
15.12999809734597
 20
8.892824976075405
 30
0.0
  0
VERTEX
  5
2B5
330
2B3
100
AcDbEntity
  8
cuerpo
 62
     7
420
 16777215
370
     9
100
AcDbVertex
100
AcDb2dVertex
 10
15.12999809734597
 20
9.174633786768842
 30
0.0
  0
SEQEND
  5
2B6
330
2B3
100
AcDbEntity
  8
cuerpo
370
     9
  0
SPLINE
  5
2B7
330
1F
100
AcDbEntity
  8
cuerpo
 62
     7
420
 16777215
370
     9
100
AcDbSpline
210
0.0
220
0.0
230
1.0
 70
     8
 71
     3
 72
    11
 73
     7
 74
     0
 42
0.0000000001
 43
0.0000000001
 40
0.0
 40
0.0
 40
0.0
 40
0.0
 40
1.0
 40
1.0
 40
1.0
 40
2.0
 40
2.0
 40
2.0
 40
2.0
 10
14.97893066031777
 20
8.892824976075405
 30
0.0
 10
14.97893066031777
 20
8.865264212193406
 30
0.0
 10
15.00149603574615
 20
8.842526581990757
 30
0.0
 10
15.02922905440242
 20
8.842526581990757
 30
0.0
 10
15.05713432783294
 20
8.842526581990757
 30
0.0
 10
15.07969970326133
 20
8.865264212193406
 30
0.0
 10
15.07969970326133
 20
8.892824976075405
 30
0.0
  0
SPLINE
  5
2B8
330
1F
100
AcDbEntity
  8
cuerpo
 62
     7
420
 16777215
370
     9
100
AcDbSpline
210
0.0
220
0.0
230
1.0
 70
     8
 71
     3
 72
    11
 73
     7
 74
     0
 42
0.0000000001
 43
0.0000000001
 40
0.0
 40
0.0
 40
0.0
 40
0.0
 40
1.0
 40
1.0
 40
1.0
 40
2.0
 40
2.0
 40
2.0
 40
2.0
 10
15.12999809734597
 20
8.892824976075405
 30
0.0
 10
15.12999809734597
 20
8.865264212193406
 30
0.0
 10
15.14567328180386
 20
8.842526581990757
 30
0.0
 10
15.16513807129552
 20
8.842526581990757
 30
0.0
 10
15.18460286078718
 20
8.842526581990757
 30
0.0
 10
15.20045030001933
 20
8.865264212193406
 30
0.0
 10
15.20045030001933
 20
8.892824976075405
 30
0.0
  0
SPLINE
  5
2B9
330
1F
100
AcDbEntity
  8
cuerpo
 62
     7
420
 16777215
370
     9
100
AcDbSpline
210
0.0
220
0.0
230
1.0
 70
     8
 71
     3
 72
    11
 73
     7
 74
     0
 42
0.0000000001
 43
0.0000000001
 40
0.0
 40
0.0
 40
0.0
 40
0.0
 40
1.0
 40
1.0
 40
1.0
 40
2.0
 40
2.0
 40
2.0
 40
2.0
 10
15.20045030001933
 20
9.174633786768842
 30
0.0
 10
15.20045030001933
 20
9.202539060199365
 30
0.0
 10
15.18460286078718
 20
9.22493218085349
 30
0.0
 10
15.16513807129552
 20
9.22493218085349
 30
0.0
 10
15.14567328180386
 20
9.22493218085349
 30
0.0
 10
15.12999809734597
 20
9.202539060199365
 30
0.0
 10
15.12999809734597
 20
9.174633786768842
 30
0.0
  0
SPLINE
  5
2BA
330
1F
100
AcDbEntity
  8
cuerpo
 62
     7
420
 16777215
370
     9
100
AcDbSpline
210
0.0
220
0.0
230
1.0
 70
     8
 71
     3
 72
    11
 73
     7
 74
     0
 42
0.0000000001
 43
0.0000000001
 40
0.0
 40
0.0
 40
0.0
 40
0.0
 40
1.0
 40
1.0
 40
1.0
 40
2.0
 40
2.0
 40
2.0
 40
2.0
 10
15.07969970326133
 20
9.174633786768842
 30
0.0
 10
15.07969970326133
 20
9.202539060199365
 30
0.0
 10
15.05713432783294
 20
9.22493218085349
 30
0.0
 10
15.02922905440242
 20
9.22493218085349
 30
0.0
 10
15.00149603574615
 20
9.22493218085349
 30
0.0
 10
14.97893066031777
 20
9.202539060199365
 30
0.0
 10
14.97893066031777
 20
9.174633786768842
 30
0.0
  0
POLYLINE
  5
2BB
330
1F
100
AcDbEntity
  8
cuerpo
 62
     7
420
 16777215
370
     9
100
AcDb2dPolyline
 66
     1
 10
0.0
 20
0.0
 30
0.0
  0
VERTEX
  5
2BC
330
2BB
100
AcDbEntity
  8
cuerpo
 62
     7
420
 16777215
370
     9
100
AcDbVertex
100
AcDb2dVertex
 10
14.7877278608864
 20
9.33069661225066
 30
0.0
  0
VERTEX
  5
2BD
330
2BB
100
AcDbEntity
  8
cuerpo
 62
     7
420
 16777215
370
     9
100
AcDbVertex
100
AcDb2dVertex
 10
14.7877278608864
 20
9.396153426470406
 30
0.0
  0
SEQEND
  5
2BE
330
2BB
100
AcDbEntity
  8
cuerpo
370
     9
  0
SPLINE
  5
2BF
330
1F
100
AcDbEntity
  8
cuerpo
 62
     7
420
 16777215
370
     9
100
AcDbSpline
210
0.0
220
0.0
230
1.0
 70
     8
 71
     3
 72
     8
 73
     4
 74
     0
 42
0.0000000001
 43
0.0000000001
 40
0.0
 40
0.0
 40
0.0
 40
0.0
 40
1.0
 40
1.0
 40
1.0
 40
1.0
 10
14.7877278608864
 20
9.33069661225066
 30
0.0
 10
14.7877278608864
 20
9.275919594035187
 30
0.0
 10
14.80168049760166
 20
9.222520614013815
 30
0.0
 10
14.82803547806382
 20
9.174633786768842
 30
0.0
  0
POLYLINE
  5
2C0
330
1F
100
AcDbEntity
  8
cuerpo
 62
     7
420
 16777215
370
     9
100
AcDb2dPolyline
 66
     1
 10
0.0
 20
0.0
 30
0.0
  0
VERTEX
  5
2C1
330
2C0
100
AcDbEntity
  8
cuerpo
 62
     7
420
 16777215
370
     9
100
AcDbVertex
100
AcDb2dVertex
 10
14.82803547806382
 20
8.892824976075405
 30
0.0
  0
VERTEX
  5
2C2
330
2C0
100
AcDbEntity
  8
cuerpo
 62
     7
420
 16777215
370
     9
100
AcDbVertex
100
AcDb2dVertex
 10
14.7946180518569
 20
8.826334633210083
 30
0.0
  0
SEQEND
  5
2C3
330
2C0
100
AcDbEntity
  8
cuerpo
370
     9
  0
POLYLINE
  5
2C4
330
1F
100
AcDbEntity
  8
cuerpo
 62
     7
420
 16777215
370
     9
100
AcDb2dPolyline
 66
     1
 10
0.0
 20
0.0
 30
0.0
  0
VERTEX
  5
2C5
330
2C4
100
AcDbEntity
  8
cuerpo
 62
     7
420
 16777215
370
     9
100
AcDbVertex
100
AcDb2dVertex
 10
14.85818006355976
 20
8.892824976075405
 30
0.0
  0
VERTEX
  5
2C6
330
2C4
100
AcDbEntity
  8
cuerpo
 62
     7
420
 16777215
370
     9
100
AcDbVertex
100
AcDb2dVertex
 10
14.85818006355976
 20
9.174633786768842
 30
0.0
  0
SEQEND
  5
2C7
330
2C4
100
AcDbEntity
  8
cuerpo
370
     9
  0
POLYLINE
  5
2C8
330
1F
100
AcDbEntity
  8
cuerpo
 62
     7
420
 16777215
370
     9
100
AcDb2dPolyline
 66
     1
 10
0.0
 20
0.0
 30
0.0
  0
VERTEX
  5
2C9
330
2C8
100
AcDbEntity
  8
cuerpo
 62
     7
420
 16777215
370
     9
100
AcDbVertex
100
AcDb2dVertex
 10
14.92863226623312
 20
8.892824976075405
 30
0.0
  0
VERTEX
  5
2CA
330
2C8
100
AcDbEntity
  8
cuerpo
 62
     7
420
 16777215
370
     9
100
AcDbVertex
100
AcDb2dVertex
 10
14.92863226623312
 20
9.174633786768842
 30
0.0
  0
SEQEND
  5
2CB
330
2C8
100
AcDbEntity
  8
cuerpo
370
     9
  0
SPLINE
  5
2CC
330
1F
100
AcDbEntity
  8
cuerpo
 62
     7
420
 16777215
370
     9
100
AcDbSpline
210
0.0
220
0.0
230
1.0
 70
     8
 71
     3
 72
    11
 73
     7
 74
     0
 42
0.0000000001
 43
0.0000000001
 40
0.0
 40
0.0
 40
0.0
 40
0.0
 40
1.0
 40
1.0
 40
1.0
 40
2.0
 40
2.0
 40
2.0
 40
2.0
 10
14.85818006355976
 20
8.892824976075405
 30
0.0
 10
14.85818006355976
 20
8.865264212193406
 30
0.0
 10
14.87402750279191
 20
8.842526581990757
 30
0.0
 10
14.89349229228357
 20
8.842526581990757
 30
0.0
 10
14.91295708177523
 20
8.842526581990757
 30
0.0
 10
14.92863226623312
 20
8.865264212193406
 30
0.0
 10
14.92863226623312
 20
8.892824976075405
 30
0.0
  0
SPLINE
  5
2CD
330
1F
100
AcDbEntity
  8
cuerpo
 62
     7
420
 16777215
370
     9
100
AcDbSpline
210
0.0
220
0.0
230
1.0
 70
     8
 71
     3
 72
    11
 73
     7
 74
     0
 42
0.0000000001
 43
0.0000000001
 40
0.0
 40
0.0
 40
0.0
 40
0.0
 40
1.0
 40
1.0
 40
1.0
 40
2.0
 40
2.0
 40
2.0
 40
2.0
 10
14.92863226623312
 20
9.174633786768842
 30
0.0
 10
14.92863226623312
 20
9.202539060199365
 30
0.0
 10
14.91295708177523
 20
9.22493218085349
 30
0.0
 10
14.89349229228357
 20
9.22493218085349
 30
0.0
 10
14.87402750279191
 20
9.22493218085349
 30
0.0
 10
14.85818006355976
 20
9.202539060199365
 30
0.0
 10
14.85818006355976
 20
9.174633786768842
 30
0.0
  0
POLYLINE
  5
2CE
330
1F
100
AcDbEntity
  8
cuerpo
 62
     7
420
 16777215
370
     9
100
AcDb2dPolyline
 66
     1
 10
0.0
 20
0.0
 30
0.0
  0
VERTEX
  5
2CF
330
2CE
100
AcDbEntity
  8
cuerpo
 62
     7
420
 16777215
370
     9
100
AcDbVertex
100
AcDb2dVertex
 10
14.82803547806382
 20
8.892824976075405
 30
0.0
  0
VERTEX
  5
2D0
330
2CE
100
AcDbEntity
  8
cuerpo
 62
     7
420
 16777215
370
     9
100
AcDbVertex
100
AcDb2dVertex
 10
14.82803547806382
 20
9.174633786768842
 30
0.0
  0
SEQEND
  5
2D1
330
2CE
100
AcDbEntity
  8
cuerpo
370
     9
  0
POLYLINE
  5
2D2
330
1F
100
AcDbEntity
  8
cuerpo
 62
     7
420
 16777215
370
     9
100
AcDb2dPolyline
 66
     1
 10
0.0
 20
0.0
 30
0.0
  0
VERTEX
  5
2D3
330
2D2
100
AcDbEntity
  8
cuerpo
 62
     7
420
 16777215
370
     9
100
AcDbVertex
100
AcDb2dVertex
 10
14.84818928665254
 20
8.731939016914238
 30
0.0
  0
VERTEX
  5
2D4
330
2D2
100
AcDbEntity
  8
cuerpo
 62
     7
420
 16777215
370
     9
100
AcDbVertex
100
AcDb2dVertex
 10
15.21044107692656
 20
8.731939016914238
 30
0.0
  0
SEQEND
  5
2D5
330
2D2
100
AcDbEntity
  8
cuerpo
370
     9
  0
POLYLINE
  5
2D6
330
1F
100
AcDbEntity
  8
cuerpo
 62
     7
420
 16777215
370
     9
100
AcDb2dPolyline
 66
     1
 10
0.0
 20
0.0
 30
0.0
  0
VERTEX
  5
2D7
330
2D6
100
AcDbEntity
  8
cuerpo
 62
     7
420
 16777215
370
     9
100
AcDbVertex
100
AcDb2dVertex
 10
14.72743868989453
 20
8.671649845922365
 30
0.0
  0
VERTEX
  5
2D8
330
2D6
100
AcDbEntity
  8
cuerpo
 62
     7
420
 16777215
370
     9
100
AcDbVertex
100
AcDb2dVertex
 10
15.33119167368456
 20
8.671649845922365
 30
0.0
  0
SEQEND
  5
2D9
330
2D6
100
AcDbEntity
  8
cuerpo
370
     9
  0
POLYLINE
  5
2DA
330
1F
100
AcDbEntity
  8
cuerpo
 62
     7
420
 16777215
370
     9
100
AcDb2dPolyline
 66
     1
 10
0.0
 20
0.0
 30
0.0
  0
VERTEX
  5
2DB
330
2DA
100
AcDbEntity
  8
cuerpo
 62
     7
420
 16777215
370
     9
100
AcDbVertex
100
AcDb2dVertex
 10
15.23059488551527
 20
8.671649845922365
 30
0.0
  0
VERTEX
  5
2DC
330
2DA
100
AcDbEntity
  8
cuerpo
 62
     7
420
 16777215
370
     9
100
AcDbVertex
100
AcDb2dVertex
 10
15.23059488551527
 20
8.711612953551263
 30
0.0
  0
SEQEND
  5
2DD
330
2DA
100
AcDbEntity
  8
cuerpo
370
     9
  0
SPLINE
  5
2DE
330
1F
100
AcDbEntity
  8
cuerpo
 62
     7
420
 16777215
370
     9
100
AcDbSpline
210
0.0
220
0.0
230
1.0
 70
     8
 71
     3
 72
     8
 73
     4
 74
     0
 42
0.0000000001
 43
0.0000000001
 40
0.0
 40
0.0
 40
0.0
 40
0.0
 40
1.0
 40
1.0
 40
1.0
 40
1.0
 10
15.23059488551527
 20
8.711612953551263
 30
0.0
 10
15.23059488551527
 20
8.722981768652588
 30
0.0
 10
15.22163763725362
 20
8.731939016914238
 30
0.0
 10
15.21044107692656
 20
8.731939016914238
 30
0.0
  0
POLYLINE
  5
2DF
330
1F
100
AcDbEntity
  8
cuerpo
 62
     7
420
 16777215
370
     9
100
AcDb2dPolyline
 66
     1
 10
0.0
 20
0.0
 30
0.0
  0
VERTEX
  5
2E0
330
2DF
100
AcDbEntity
  8
cuerpo
 62
     7
420
 16777215
370
     9
100
AcDbVertex
100
AcDb2dVertex
 10
15.3916530994507
 20
8.636509871972818
 30
0.0
  0
VERTEX
  5
2E1
330
2DF
100
AcDbEntity
  8
cuerpo
 62
     7
420
 16777215
370
     9
100
AcDbVertex
100
AcDb2dVertex
 10
15.3916530994507
 20
8.303713648097682
 30
0.0
  0
SEQEND
  5
2E2
330
2DF
100
AcDbEntity
  8
cuerpo
370
     9
  0
POLYLINE
  5
2E3
330
1F
100
AcDbEntity
  8
cuerpo
 62
     7
420
 16777215
370
     9
100
AcDb2dPolyline
 66
     1
 10
0.0
 20
0.0
 30
0.0
  0
VERTEX
  5
2E4
330
2E3
100
AcDbEntity
  8
cuerpo
 62
     7
420
 16777215
370
     9
100
AcDbVertex
100
AcDb2dVertex
 10
15.33119167368456
 20
8.268918183696659
 30
0.0
  0
VERTEX
  5
2E5
330
2E3
100
AcDbEntity
  8
cuerpo
 62
     7
420
 16777215
370
     9
100
AcDbVertex
100
AcDb2dVertex
 10
14.72743868989453
 20
8.268918183696659
 30
0.0
  0
SEQEND
  5
2E6
330
2E3
100
AcDbEntity
  8
cuerpo
370
     9
  0
SPLINE
  5
2E7
330
1F
100
AcDbEntity
  8
cuerpo
 62
     7
420
 16777215
370
     9
100
AcDbSpline
210
0.0
220
0.0
230
1.0
 70
     8
 71
     3
 72
     8
 73
     4
 74
     0
 42
0.0000000001
 43
0.0000000001
 40
0.0
 40
0.0
 40
0.0
 40
0.0
 40
1.0
 40
1.0
 40
1.0
 40
1.0
 10
14.84818928665254
 20
8.731939016914238
 30
0.0
 10
14.83699272632547
 20
8.731939016914238
 30
0.0
 10
14.82803547806382
 20
8.722981768652588
 30
0.0
 10
14.82803547806382
 20
8.711612953551263
 30
0.0
  0
POLYLINE
  5
2E8
330
1F
100
AcDbEntity
  8
cuerpo
 62
     7
420
 16777215
370
     9
100
AcDb2dPolyline
 66
     1
 10
0.0
 20
0.0
 30
0.0
  0
VERTEX
  5
2E9
330
2E8
100
AcDbEntity
  8
cuerpo
 62
     7
420
 16777215
370
     9
100
AcDbVertex
100
AcDb2dVertex
 10
15.33119167368456
 20
8.671649845922365
 30
0.0
  0
VERTEX
  5
2EA
330
2E8
100
AcDbEntity
  8
cuerpo
 62
     7
420
 16777215
370
     9
100
AcDbVertex
100
AcDb2dVertex
 10
15.3916530994507
 20
8.636509871972818
 30
0.0
  0
SEQEND
  5
2EB
330
2E8
100
AcDbEntity
  8
cuerpo
370
     9
  0
POLYLINE
  5
2EC
330
1F
100
AcDbEntity
  8
cuerpo
 62
     7
420
 16777215
370
     9
100
AcDb2dPolyline
 66
     1
 10
0.0
 20
0.0
 30
0.0
  0
VERTEX
  5
2ED
330
2EC
100
AcDbEntity
  8
cuerpo
 62
     7
420
 16777215
370
     9
100
AcDbVertex
100
AcDb2dVertex
 10
15.33119167368456
 20
8.268918183696659
 30
0.0
  0
VERTEX
  5
2EE
330
2EC
100
AcDbEntity
  8
cuerpo
 62
     7
420
 16777215
370
     9
100
AcDbVertex
100
AcDb2dVertex
 10
15.3916530994507
 20
8.303713648097682
 30
0.0
  0
SEQEND
  5
2EF
330
2EC
100
AcDbEntity
  8
cuerpo
370
     9
  0
POLYLINE
  5
2F0
330
1F
100
AcDbEntity
  8
cuerpo
 62
     7
420
 16777215
370
     9
100
AcDb2dPolyline
 66
     1
 10
0.0
 20
0.0
 30
0.0
  0
VERTEX
  5
2F1
330
2F0
100
AcDbEntity
  8
cuerpo
 62
     7
420
 16777215
370
     9
100
AcDbVertex
100
AcDb2dVertex
 10
14.82803547806382
 20
8.636509871972818
 30
0.0
  0
VERTEX
  5
2F2
330
2F0
100
AcDbEntity
  8
cuerpo
 62
     7
420
 16777215
370
     9
100
AcDbVertex
100
AcDb2dVertex
 10
14.82803547806382
 20
8.303713648097682
 30
0.0
  0
SEQEND
  5
2F3
330
2F0
100
AcDbEntity
  8
cuerpo
370
     9
  0
POLYLINE
  5
2F4
330
1F
100
AcDbEntity
  8
cuerpo
 62
     7
420
 16777215
370
     9
100
AcDb2dPolyline
 66
     1
 10
0.0
 20
0.0
 30
0.0
  0
VERTEX
  5
2F5
330
2F4
100
AcDbEntity
  8
cuerpo
 62
     7
420
 16777215
370
     9
100
AcDbVertex
100
AcDb2dVertex
 10
15.23059488551527
 20
8.636509871972818
 30
0.0
  0
VERTEX
  5
2F6
330
2F4
100
AcDbEntity
  8
cuerpo
 62
     7
420
 16777215
370
     9
100
AcDbVertex
100
AcDb2dVertex
 10
15.23059488551527
 20
8.303713648097682
 30
0.0
  0
SEQEND
  5
2F7
330
2F4
100
AcDbEntity
  8
cuerpo
370
     9
  0
SPLINE
  5
2F8
330
1F
100
AcDbEntity
  8
cuerpo
 62
     7
420
 16777215
370
     9
100
AcDbSpline
210
0.0
220
0.0
230
1.0
 70
     8
 71
     3
 72
     8
 73
     4
 74
     0
 42
0.0000000001
 43
0.0000000001
 40
0.0
 40
0.0
 40
0.0
 40
0.0
 40
1.0
 40
1.0
 40
1.0
 40
1.0
 10
15.23059488551527
 20
8.636509871972818
 30
0.0
 10
15.10037027617282
 20
8.68301866102369
 30
0.0
 10
14.95826008740627
 20
8.68301866102369
 30
0.0
 10
14.82803547806382
 20
8.636509871972818
 30
0.0
  0
SPLINE
  5
2F9
330
1F
100
AcDbEntity
  8
cuerpo
 62
     7
420
 16777215
370
     9
100
AcDbSpline
210
0.0
220
0.0
230
1.0
 70
     8
 71
     3
 72
     8
 73
     4
 74
     0
 42
0.0000000001
 43
0.0000000001
 40
0.0
 40
0.0
 40
0.0
 40
0.0
 40
1.0
 40
1.0
 40
1.0
 40
1.0
 10
14.82803547806382
 20
8.303713648097682
 30
0.0
 10
14.95826008740627
 20
8.25720485904681
 30
0.0
 10
15.10037027617282
 20
8.25720485904681
 30
0.0
 10
15.23059488551527
 20
8.303713648097682
 30
0.0
  0
SPLINE
  5
2FA
330
1F
100
AcDbEntity
  8
cuerpo
 62
     7
420
 16777215
370
     9
100
AcDbSpline
210
0.0
220
0.0
230
1.0
 70
     8
 71
     3
 72
     8
 73
     4
 74
     0
 42
0.0000000001
 43
0.0000000001
 40
0.0
 40
0.0
 40
0.0
 40
0.0
 40
1.0
 40
1.0
 40
1.0
 40
1.0
 10
14.72743868989453
 20
8.268918183696659
 30
0.0
 10
14.76412895681244
 20
8.26754014550256
 30
0.0
 10
14.8001302046333
 20
8.279942489249459
 30
0.0
 10
14.82803547806382
 20
8.303713648097682
 30
0.0
  0
SPLINE
  5
2FB
330
1F
100
AcDbEntity
  8
cuerpo
 62
     7
420
 16777215
370
     9
100
AcDbSpline
210
0.0
220
0.0
230
1.0
 70
     8
 71
     3
 72
     8
 73
     4
 74
     0
 42
0.0000000001
 43
0.0000000001
 40
0.0
 40
0.0
 40
0.0
 40
0.0
 40
1.0
 40
1.0
 40
1.0
 40
1.0
 10
14.82803547806382
 20
8.636509871972818
 30
0.0
 10
14.8001302046333
 20
8.660625540369566
 30
0.0
 10
14.76412895681244
 20
8.673027884116467
 30
0.0
 10
14.72743868989453
 20
8.671649845922365
 30
0.0
  0
SPLINE
  5
2FC
330
1F
100
AcDbEntity
  8
cuerpo
 62
     7
420
 16777215
370
     9
100
AcDbSpline
210
0.0
220
0.0
230
1.0
 70
     8
 71
     3
 72
     8
 73
     4
 74
     0
 42
0.0000000001
 43
0.0000000001
 40
0.0
 40
0.0
 40
0.0
 40
0.0
 40
1.0
 40
1.0
 40
1.0
 40
1.0
 10
15.33119167368456
 20
8.671649845922365
 30
0.0
 10
15.29450140676665
 20
8.673027884116467
 30
0.0
 10
15.25850015894579
 20
8.660625540369566
 30
0.0
 10
15.23059488551527
 20
8.636509871972818
 30
0.0
  0
SPLINE
  5
2FD
330
1F
100
AcDbEntity
  8
cuerpo
 62
     7
420
 16777215
370
     9
100
AcDbSpline
210
0.0
220
0.0
230
1.0
 70
     8
 71
     3
 72
     8
 73
     4
 74
     0
 42
0.0000000001
 43
0.0000000001
 40
0.0
 40
0.0
 40
0.0
 40
0.0
 40
1.0
 40
1.0
 40
1.0
 40
1.0
 10
15.23059488551527
 20
8.303713648097682
 30
0.0
 10
15.25850015894579
 20
8.279942489249459
 30
0.0
 10
15.29450140676665
 20
8.26754014550256
 30
0.0
 10
15.33119167368456
 20
8.268918183696659
 30
0.0
  0
POLYLINE
  5
2FE
330
1F
100
AcDbEntity
  8
cuerpo
 62
     7
420
 16777215
370
     9
100
AcDb2dPolyline
 66
     1
 10
0.0
 20
0.0
 30
0.0
  0
VERTEX
  5
2FF
330
2FE
100
AcDbEntity
  8
cuerpo
 62
     7
420
 16777215
370
     9
100
AcDbVertex
100
AcDb2dVertex
 10
14.66697726412839
 20
8.636509871972818
 30
0.0
  0
VERTEX
  5
300
330
2FE
100
AcDbEntity
  8
cuerpo
 62
     7
420
 16777215
370
     9
100
AcDbVertex
100
AcDb2dVertex
 10
14.66697726412839
 20
8.303713648097682
 30
0.0
  0
SEQEND
  5
301
330
2FE
100
AcDbEntity
  8
cuerpo
370
     9
  0
POLYLINE
  5
302
330
1F
100
AcDbEntity
  8
cuerpo
 62
     7
420
 16777215
370
     9
100
AcDb2dPolyline
 66
     1
 10
0.0
 20
0.0
 30
0.0
  0
VERTEX
  5
303
330
302
100
AcDbEntity
  8
cuerpo
 62
     7
420
 16777215
370
     9
100
AcDbVertex
100
AcDb2dVertex
 10
14.72743868989453
 20
8.671649845922365
 30
0.0
  0
VERTEX
  5
304
330
302
100
AcDbEntity
  8
cuerpo
 62
     7
420
 16777215
370
     9
100
AcDbVertex
100
AcDb2dVertex
 10
14.66697726412839
 20
8.636509871972818
 30
0.0
  0
SEQEND
  5
305
330
302
100
AcDbEntity
  8
cuerpo
370
     9
  0
POLYLINE
  5
306
330
1F
100
AcDbEntity
  8
cuerpo
 62
     7
420
 16777215
370
     9
100
AcDb2dPolyline
 66
     1
 10
0.0
 20
0.0
 30
0.0
  0
VERTEX
  5
307
330
306
100
AcDbEntity
  8
cuerpo
 62
     7
420
 16777215
370
     9
100
AcDbVertex
100
AcDb2dVertex
 10
14.72743868989453
 20
8.268918183696659
 30
0.0
  0
VERTEX
  5
308
330
306
100
AcDbEntity
  8
cuerpo
 62
     7
420
 16777215
370
     9
100
AcDbVertex
100
AcDb2dVertex
 10
14.66697726412839
 20
8.303713648097682
 30
0.0
  0
SEQEND
  5
309
330
306
100
AcDbEntity
  8
cuerpo
370
     9
  0
POLYLINE
  5
30A
330
1F
100
AcDbEntity
  8
cuerpo
 62
     7
420
 16777215
370
     9
100
AcDb2dPolyline
 66
     1
 10
0.0
 20
0.0
 30
0.0
  0
VERTEX
  5
30B
330
30A
100
AcDbEntity
  8
cuerpo
 62
     7
420
 16777215
370
     9
100
AcDbVertex
100
AcDb2dVertex
 10
14.66301540432036
 20
9.624563257142471
 30
0.0
  0
VERTEX
  5
30C
330
30A
100
AcDbEntity
  8
cuerpo
 62
     7
420
 16777215
370
     9
100
AcDbVertex
100
AcDb2dVertex
 10
15.39561495925874
 20
9.932210283975282
 30
0.0
  0
SEQEND
  5
30D
330
30A
100
AcDbEntity
  8
cuerpo
370
     9
  0
POLYLINE
  5
30E
330
1F
100
AcDbEntity
  8
cuerpo
 62
     7
420
 16777215
370
     9
100
AcDb2dPolyline
 66
     1
 10
0.0
 20
0.0
 30
0.0
  0
VERTEX
  5
30F
330
30E
100
AcDbEntity
  8
cuerpo
 62
     7
420
 16777215
370
     9
100
AcDbVertex
100
AcDb2dVertex
 10
15.16289875923011
 20
9.834369572194186
 30
0.0
  0
VERTEX
  5
310
330
30E
100
AcDbEntity
  8
cuerpo
 62
     7
420
 16777215
370
     9
100
AcDbVertex
100
AcDb2dVertex
 10
15.16289875923011
 20
9.396153426470406
 30
0.0
  0
SEQEND
  5
311
330
30E
100
AcDbEntity
  8
cuerpo
370
     9
  0
POLYLINE
  5
312
330
1F
100
AcDbEntity
  8
cuerpo
 62
     7
420
 16777215
370
     9
100
AcDb2dPolyline
 66
     1
 10
0.0
 20
0.0
 30
0.0
  0
VERTEX
  5
313
330
312
100
AcDbEntity
  8
cuerpo
 62
     7
420
 16777215
370
     9
100
AcDbVertex
100
AcDb2dVertex
 10
14.8607638851737
 20
9.707590058336992
 30
0.0
  0
VERTEX
  5
314
330
312
100
AcDbEntity
  8
cuerpo
 62
     7
420
 16777215
370
     9
100
AcDbVertex
100
AcDb2dVertex
 10
14.8607638851737
 20
9.396153426470406
 30
0.0
  0
SEQEND
  5
315
330
312
100
AcDbEntity
  8
cuerpo
370
     9
  0
POLYLINE
  5
316
330
1F
100
AcDbEntity
  8
cuerpo
 62
     7
420
 16777215
370
     9
100
AcDb2dPolyline
 66
     1
 10
0.0
 20
0.0
 30
0.0
  0
VERTEX
  5
317
330
316
100
AcDbEntity
  8
cuerpo
 62
     7
420
 16777215
370
     9
100
AcDbVertex
100
AcDb2dVertex
 10
14.13333197346319
 20
15.06402451880344
 30
0.0
  0
VERTEX
  5
318
330
316
100
AcDbEntity
  8
cuerpo
 62
     7
420
 16777215
370
     9
100
AcDbVertex
100
AcDb2dVertex
 10
14.13333197346319
 20
15.06402451880344
 30
0.0
  0
SEQEND
  5
319
330
316
100
AcDbEntity
  8
cuerpo
370
     9
  0
POLYLINE
  5
31A
330
1F
100
AcDbEntity
  8
cuerpo
 62
     7
420
 16777215
370
     9
100
AcDb2dPolyline
 66
     1
 10
0.0
 20
0.0
 30
0.0
  0
VERTEX
  5
31B
330
31A
100
AcDbEntity
  8
cuerpo
 62
     7
420
 16777215
370
     9
100
AcDbVertex
100
AcDb2dVertex
 10
14.13333197346319
 20
15.06402451880344
 30
0.0
  0
VERTEX
  5
31C
330
31A
100
AcDbEntity
  8
cuerpo
 62
     7
420
 16777215
370
     9
100
AcDbVertex
100
AcDb2dVertex
 10
14.13333197346319
 20
15.77440320786195
 30
0.0
  0
SEQEND
  5
31D
330
31A
100
AcDbEntity
  8
cuerpo
370
     9
  0
POLYLINE
  5
31E
330
1F
100
AcDbEntity
  8
cuerpo
 62
     7
420
 16777215
370
     9
100
AcDb2dPolyline
 66
     1
 10
0.0
 20
0.0
 30
0.0
  0
VERTEX
  5
31F
330
31E
100
AcDbEntity
  8
cuerpo
 62
     7
420
 16777215
370
     9
100
AcDbVertex
100
AcDb2dVertex
 10
16.73799641508634
 20
15.06402451880344
 30
0.0
  0
VERTEX
  5
320
330
31E
100
AcDbEntity
  8
cuerpo
 62
     7
420
 16777215
370
     9
100
AcDbVertex
100
AcDb2dVertex
 10
16.73799641508634
 20
15.77440320786195
 30
0.0
  0
SEQEND
  5
321
330
31E
100
AcDbEntity
  8
cuerpo
370
     9
  0
SPLINE
  5
322
330
1F
100
AcDbEntity
  8
cuerpo
 62
     7
420
 16777215
370
     9
100
AcDbSpline
210
0.0
220
0.0
230
1.0
 70
    11
 71
     3
 72
    20
 73
    16
 74
     0
 42
0.0000000001
 43
0.0000000001
 40
0.0
 40
0.0
 40
0.0
 40
0.0
 40
1.0
 40
1.0
 40
1.0
 40
2.0
 40
2.0
 40
2.0
 40
3.0
 40
3.0
 40
3.0
 40
4.0
 40
4.0
 40
4.0
 40
5.0
 40
5.0
 40
5.0
 40
5.0
 10
15.71979844442075
 20
15.68586425389103
 30
0.0
 10
15.71979844442075
 20
15.8426160984699
 30
0.0
 10
15.59250216624076
 20
15.97008463142415
 30
0.0
 10
15.4357503216619
 20
15.97008463142415
 30
0.0
 10
15.2786539675345
 20
15.97008463142415
 30
0.0
 10
15.15152994412878
 20
15.8426160984699
 30
0.0
 10
15.15152994412878
 20
15.68586425389103
 30
0.0
 10
15.15152994412878
 20
15.52911240931217
 30
0.0
 10
15.2786539675345
 20
15.40164387635792
 30
0.0
 10
15.4357503216619
 20
15.40164387635792
 30
0.0
 10
15.59250216624076
 20
15.40164387635792
 30
0.0
 10
15.71979844442075
 20
15.52911240931217
 30
0.0
 10
15.71979844442075
 20
15.68586425389103
 30
0.0
 10
15.71979844442075
 20
15.68586425389103
 30
0.0
 10
15.71979844442075
 20
15.68586425389103
 30
0.0
 10
15.71979844442075
 20
15.68586425389103
 30
0.0
  0
SPLINE
  5
323
330
1F
100
AcDbEntity
  8
cuerpo
 62
     7
420
 16777215
370
     9
100
AcDbSpline
210
0.0
220
0.0
230
1.0
 70
    11
 71
     3
 72
    20
 73
    16
 74
     0
 42
0.0000000001
 43
0.0000000001
 40
0.0
 40
0.0
 40
0.0
 40
0.0
 40
1.0
 40
1.0
 40
1.0
 40
2.0
 40
2.0
 40
2.0
 40
3.0
 40
3.0
 40
3.0
 40
4.0
 40
4.0
 40
4.0
 40
5.0
 40
5.0
 40
5.0
 40
5.0
 10
15.50671928865804
 20
15.68586425389103
 30
0.0
 10
15.50671928865804
 20
15.72513834242288
 30
0.0
 10
15.47485215541948
 20
15.75717773043571
 30
0.0
 10
15.4357503216619
 20
15.75717773043571
 30
0.0
 10
15.39647623313005
 20
15.75717773043571
 30
0.0
 10
15.36460909989149
 20
15.72513834242288
 30
0.0
 10
15.36460909989149
 20
15.68586425389103
 30
0.0
 10
15.36460909989149
 20
15.64659016535919
 30
0.0
 10
15.39647623313005
 20
15.61489528689489
 30
0.0
 10
15.4357503216619
 20
15.61489528689489
 30
0.0
 10
15.47485215541948
 20
15.61489528689489
 30
0.0
 10
15.50671928865804
 20
15.64659016535919
 30
0.0
 10
15.50671928865804
 20
15.68586425389103
 30
0.0
 10
15.50671928865804
 20
15.68586425389103
 30
0.0
 10
15.50671928865804
 20
15.68586425389103
 30
0.0
 10
15.50671928865804
 20
15.68586425389103
 30
0.0
  0
POLYLINE
  5
324
330
1F
100
AcDbEntity
  8
cuerpo
 62
     7
420
 16777215
370
     9
100
AcDb2dPolyline
 66
     1
 10
0.0
 20
0.0
 30
0.0
  0
VERTEX
  5
325
330
324
100
AcDbEntity
  8
cuerpo
 62
     7
420
 16777215
370
     9
100
AcDbVertex
100
AcDb2dVertex
 10
14.22807209930757
 20
19.029329422326
 30
0.0
  0
VERTEX
  5
326
330
324
100
AcDbEntity
  8
cuerpo
 62
     7
420
 16777215
370
     9
100
AcDbVertex
100
AcDb2dVertex
 10
14.28508842958845
 20
19.02450628864665
 30
0.0
  0
SEQEND
  5
327
330
324
100
AcDbEntity
  8
cuerpo
370
     9
  0
POLYLINE
  5
328
330
1F
100
AcDbEntity
  8
cuerpo
 62
     7
420
 16777215
370
     9
100
AcDb2dPolyline
 66
     1
 10
0.0
 20
0.0
 30
0.0
  0
VERTEX
  5
329
330
328
100
AcDbEntity
  8
cuerpo
 62
     7
420
 16777215
370
     9
100
AcDbVertex
100
AcDb2dVertex
 10
15.4357503216619
 20
18.92390950047736
 30
0.0
  0
VERTEX
  5
32A
330
328
100
AcDbEntity
  8
cuerpo
 62
     7
420
 16777215
370
     9
100
AcDbVertex
100
AcDb2dVertex
 10
14.28508842958845
 20
19.02450628864665
 30
0.0
  0
SEQEND
  5
32B
330
328
100
AcDbEntity
  8
cuerpo
370
     9
  0
POLYLINE
  5
32C
330
1F
100
AcDbEntity
  8
cuerpo
 62
     7
420
 16777215
370
     9
100
AcDb2dPolyline
 66
     1
 10
0.0
 20
0.0
 30
0.0
  0
VERTEX
  5
32D
330
32C
100
AcDbEntity
  8
cuerpo
 62
     7
420
 16777215
370
     9
100
AcDbVertex
100
AcDb2dVertex
 10
16.64325628924196
 20
18.92390950047736
 30
0.0
  0
VERTEX
  5
32E
330
32C
100
AcDbEntity
  8
cuerpo
 62
     7
420
 16777215
370
     9
100
AcDbVertex
100
AcDb2dVertex
 10
16.58882378057502
 20
18.92390950047736
 30
0.0
  0
SEQEND
  5
32F
330
32C
100
AcDbEntity
  8
cuerpo
370
     9
  0
POLYLINE
  5
330
330
1F
100
AcDbEntity
  8
cuerpo
 62
     7
420
 16777215
370
     9
100
AcDb2dPolyline
 66
     1
 10
0.0
 20
0.0
 30
0.0
  0
VERTEX
  5
331
330
330
100
AcDbEntity
  8
cuerpo
 62
     7
420
 16777215
370
     9
100
AcDbVertex
100
AcDb2dVertex
 10
16.58882378057502
 20
18.92390950047736
 30
0.0
  0
VERTEX
  5
332
330
330
100
AcDbEntity
  8
cuerpo
 62
     7
420
 16777215
370
     9
100
AcDbVertex
100
AcDb2dVertex
 10
15.4357503216619
 20
18.92390950047736
 30
0.0
  0
SEQEND
  5
333
330
330
100
AcDbEntity
  8
cuerpo
370
     9
  0
POLYLINE
  5
334
330
1F
100
AcDbEntity
  8
cuerpo
 62
     7
420
 16777215
370
     9
100
AcDb2dPolyline
 66
     1
 10
0.0
 20
0.0
 30
0.0
  0
VERTEX
  5
335
330
334
100
AcDbEntity
  8
cuerpo
 62
     7
420
 16777215
370
     9
100
AcDbVertex
100
AcDb2dVertex
 10
19.86355929407925
 20
20.32089571974617
 30
0.0
  0
VERTEX
  5
336
330
334
100
AcDbEntity
  8
cuerpo
 62
     7
420
 16777215
370
     9
100
AcDbVertex
100
AcDb2dVertex
 10
19.86355929407925
 20
19.94227972591721
 30
0.0
  0
SEQEND
  5
337
330
334
100
AcDbEntity
  8
cuerpo
370
     9
  0
POLYLINE
  5
338
330
1F
100
AcDbEntity
  8
cuerpo
 62
     7
420
 16777215
370
     9
100
AcDb2dPolyline
 66
     1
 10
0.0
 20
0.0
 30
0.0
  0
VERTEX
  5
339
330
338
100
AcDbEntity
  8
cuerpo
 62
     7
420
 16777215
370
     9
100
AcDbVertex
100
AcDb2dVertex
 10
14.22807209930757
 20
20.32089571974617
 30
0.0
  0
VERTEX
  5
33A
330
338
100
AcDbEntity
  8
cuerpo
 62
     7
420
 16777215
370
     9
100
AcDbVertex
100
AcDb2dVertex
 10
19.86355929407925
 20
20.32089571974617
 30
0.0
  0
SEQEND
  5
33B
330
338
100
AcDbEntity
  8
cuerpo
370
     9
  0
POLYLINE
  5
33C
330
1F
100
AcDbEntity
  8
cuerpo
 62
     7
420
 16777215
370
     9
100
AcDb2dPolyline
 66
     1
 10
0.0
 20
0.0
 30
0.0
  0
VERTEX
  5
33D
330
33C
100
AcDbEntity
  8
cuerpo
 62
     7
420
 16777215
370
     9
100
AcDbVertex
100
AcDb2dVertex
 10
16.64325628924196
 20
19.94227972591721
 30
0.0
  0
VERTEX
  5
33E
330
33C
100
AcDbEntity
  8
cuerpo
 62
     7
420
 16777215
370
     9
100
AcDbVertex
100
AcDb2dVertex
 10
16.64325628924196
 20
18.92390950047736
 30
0.0
  0
SEQEND
  5
33F
330
33C
100
AcDbEntity
  8
cuerpo
370
     9
  0
POLYLINE
  5
340
330
1F
100
AcDbEntity
  8
cuerpo
 62
     7
420
 16777215
370
     9
100
AcDb2dPolyline
 66
     1
 10
0.0
 20
0.0
 30
0.0
  0
VERTEX
  5
341
330
340
100
AcDbEntity
  8
cuerpo
 62
     7
420
 16777215
370
     9
100
AcDbVertex
100
AcDb2dVertex
 10
14.22807209930757
 20
19.029329422326
 30
0.0
  0
VERTEX
  5
342
330
340
100
AcDbEntity
  8
cuerpo
 62
     7
420
 16777215
370
     9
100
AcDbVertex
100
AcDb2dVertex
 10
14.22807209930757
 20
20.32089571974617
 30
0.0
  0
SEQEND
  5
343
330
340
100
AcDbEntity
  8
cuerpo
370
     9
  0
POLYLINE
  5
344
330
1F
100
AcDbEntity
  8
cuerpo
 62
     7
420
 16777215
370
     9
100
AcDb2dPolyline
 66
     1
 10
0.0
 20
0.0
 30
0.0
  0
VERTEX
  5
345
330
344
100
AcDbEntity
  8
cuerpo
 62
     7
420
 16777215
370
     9
100
AcDbVertex
100
AcDb2dVertex
 10
19.86355929407925
 20
19.94227972591721
 30
0.0
  0
VERTEX
  5
346
330
344
100
AcDbEntity
  8
cuerpo
 62
     7
420
 16777215
370
     9
100
AcDbVertex
100
AcDb2dVertex
 10
16.64325628924196
 20
19.94227972591721
 30
0.0
  0
SEQEND
  5
347
330
344
100
AcDbEntity
  8
cuerpo
370
     9
  0
SPLINE
  5
348
330
1F
100
AcDbEntity
  8
cuerpo
 62
     7
420
 16777215
370
     9
100
AcDbSpline
210
0.0
220
0.0
230
1.0
 70
     8
 71
     3
 72
     8
 73
     4
 74
     0
 42
0.0000000001
 43
0.0000000001
 40
0.0
 40
0.0
 40
0.0
 40
0.0
 40
1.0
 40
1.0
 40
1.0
 40
1.0
 10
14.38620198208053
 20
19.015549040385
 30
0.0
 10
14.34727240309721
 20
18.90220539892028
 30
0.0
 10
14.32591281108866
 20
18.78334960467916
 30
0.0
 10
14.32281222515194
 20
18.66346028179247
 30
0.0
  0
SPLINE
  5
349
330
1F
100
AcDbEntity
  8
cuerpo
 62
     7
420
 16777215
370
     9
100
AcDbSpline
210
0.0
220
0.0
230
1.0
 70
     8
 71
     3
 72
     8
 73
     4
 74
     0
 42
0.0000000001
 43
0.0000000001
 40
0.0
 40
0.0
 40
0.0
 40
0.0
 40
1.0
 40
1.0
 40
1.0
 40
1.0
 10
16.54851616339759
 20
18.66346028179247
 30
0.0
 10
16.54627685133218
 20
18.75131021666634
 30
0.0
 10
16.53421901713381
 20
18.83847113244316
 30
0.0
 10
16.51251491557673
 20
18.92390950047736
 30
0.0
  0
SPLINE
  5
34A
330
1F
100
AcDbEntity
  8
cuerpo
 62
     7
420
 16777215
370
     9
100
AcDbSpline
210
0.0
220
0.0
230
1.0
 70
     8
 71
     3
 72
     8
 73
     4
 74
     0
 42
0.0000000001
 43
0.0000000001
 40
0.0
 40
0.0
 40
0.0
 40
0.0
 40
1.0
 40
1.0
 40
1.0
 40
1.0
 10
16.59898681225651
 20
20.32089571974617
 30
0.0
 10
16.59381916902863
 20
20.1930826772434
 30
0.0
 10
16.60880533438947
 20
20.06526963474063
 30
0.0
 10
16.64325628924196
 20
19.94227972591721
 30
0.0
  0
SPLINE
  5
34B
330
1F
100
AcDbEntity
  8
cuerpo
 62
     7
420
 16777215
370
     9
100
AcDbSpline
210
0.0
220
0.0
230
1.0
 70
     8
 71
     3
 72
     8
 73
     4
 74
     0
 42
0.0000000001
 43
0.0000000001
 40
0.0
 40
0.0
 40
0.0
 40
0.0
 40
1.0
 40
1.0
 40
1.0
 40
1.0
 10
16.66168755008805
 20
19.15128580250385
 30
0.0
 10
16.68218586822529
 20
19.19917262974882
 30
0.0
 10
16.69286566422956
 20
19.25050455247904
 30
0.0
 10
16.69286566422956
 20
19.30287000385484
 30
0.0
  0
SPLINE
  5
34C
330
1F
100
AcDbEntity
  8
cuerpo
 62
     7
420
 16777215
370
     9
100
AcDbSpline
210
0.0
220
0.0
230
1.0
 70
     8
 71
     3
 72
     8
 73
     4
 74
     0
 42
0.0000000001
 43
0.0000000001
 40
0.0
 40
0.0
 40
0.0
 40
0.0
 40
1.0
 40
1.0
 40
1.0
 40
1.0
 10
16.69286566422956
 20
19.30287000385484
 30
0.0
 10
16.69286566422956
 20
19.35454643613359
 30
0.0
 10
16.68218586822529
 20
19.40622286841234
 30
0.0
 10
16.66168755008805
 20
19.45410969565731
 30
0.0
  0
SPLINE
  5
34D
330
1F
100
AcDbEntity
  8
cuerpo
 62
     7
420
 16777215
370
     9
100
AcDbSpline
210
0.0
220
0.0
230
1.0
 70
     8
 71
     3
 72
     8
 73
     4
 74
     0
 42
0.0000000001
 43
0.0000000001
 40
0.0
 40
0.0
 40
0.0
 40
0.0
 40
1.0
 40
1.0
 40
1.0
 40
1.0
 10
16.64325628924196
 20
19.13716091101432
 30
0.0
 10
16.6513522636323
 20
19.1381944396599
 30
0.0
 10
16.65841470937706
 20
19.1437065924363
 30
0.0
 10
16.66168755008805
 20
19.15128580250385
 30
0.0
  0
SPLINE
  5
34E
330
1F
100
AcDbEntity
  8
cuerpo
 62
     7
420
 16777215
370
     9
100
AcDbSpline
210
0.0
220
0.0
230
1.0
 70
     8
 71
     3
 72
     8
 73
     4
 74
     0
 42
0.0000000001
 43
0.0000000001
 40
0.0
 40
0.0
 40
0.0
 40
0.0
 40
1.0
 40
1.0
 40
1.0
 40
1.0
 10
16.66168755008805
 20
19.45410969565731
 30
0.0
 10
16.65841470937706
 20
19.46168890572486
 30
0.0
 10
16.6513522636323
 20
19.46685654895273
 30
0.0
 10
16.64325628924196
 20
19.46823458714683
 30
0.0
  0
SPLINE
  5
34F
330
1F
100
AcDbEntity
  8
cuerpo
 62
     7
420
 16777215
370
     9
100
AcDbSpline
210
0.0
220
0.0
230
1.0
 70
    24
 71
     3
 72
    29
 73
    25
 74
     0
 42
0.0000000001
 43
0.0000000001
 40
0.0
 40
0.0
 40
0.0
 40
0.0
 40
1.0
 40
1.0
 40
1.0
 40
2.0
 40
2.0
 40
2.0
 40
3.0
 40
3.0
 40
3.0
 40
4.0
 40
4.0
 40
4.0
 40
5.0
 40
5.0
 40
5.0
 40
6.0
 40
6.0
 40
6.0
 40
7.0
 40
7.0
 40
7.0
 40
8.0
 40
8.0
 40
8.0
 40
8.0
 10
15.4357503216619
 20
18.66346028179247
 30
0.0
 10
15.51343722485428
 20
18.66346028179247
 30
0.0
 10
15.59043510894961
 20
18.66346028179247
 30
0.0
 10
15.6667439739479
 20
18.66346028179247
 30
0.0
 10
15.74288058417192
 20
18.66346028179247
 30
0.0
 10
15.81695013710479
 20
18.66346028179247
 30
0.0
 10
15.88878037797225
 20
18.66346028179247
 30
0.0
 10
15.96061061883971
 20
18.66346028179247
 30
0.0
 10
16.02882350944765
 20
18.66346028179247
 30
0.0
 10
16.09341904979609
 20
18.66346028179247
 30
0.0
 10
16.15801459014452
 20
18.66346028179247
 30
0.0
 10
16.21795925158787
 20
18.66346028179247
 30
0.0
 10
16.27290852457761
 20
18.66346028179247
 30
0.0
 10
16.32785779756734
 20
18.66346028179247
 30
0.0
 10
16.37695040823215
 20
18.66346028179247
 30
0.0
 10
16.42001410179778
 20
18.66346028179247
 30
0.0
 10
16.46325005013766
 20
18.66346028179247
 30
0.0
 10
16.49976806228131
 20
18.66346028179247
 30
0.0
 10
16.52956813822872
 20
18.66346028179247
 30
0.0
 10
16.55919595940187
 20
18.66346028179247
 30
0.0
 10
16.58176133483025
 20
18.66346028179247
 30
0.0
 10
16.59691975496536
 20
18.66346028179247
 30
0.0
 10
16.61207817510045
 20
18.66346028179247
 30
0.0
 10
16.619657385168
 20
18.66346028179247
 30
0.0
 10
16.619657385168
 20
18.66346028179247
 30
0.0
  0
SPLINE
  5
350
330
1F
100
AcDbEntity
  8
cuerpo
 62
     7
420
 16777215
370
     9
100
AcDbSpline
210
0.0
220
0.0
230
1.0
 70
    24
 71
     3
 72
    62
 73
    58
 74
     0
 42
0.0000000001
 43
0.0000000001
 40
0.0
 40
0.0
 40
0.0
 40
0.0
 40
1.0
 40
1.0
 40
1.0
 40
2.0
 40
2.0
 40
2.0
 40
3.0
 40
3.0
 40
3.0
 40
4.0
 40
4.0
 40
4.0
 40
5.0
 40
5.0
 40
5.0
 40
6.0
 40
6.0
 40
6.0
 40
7.0
 40
7.0
 40
7.0
 40
8.0
 40
8.0
 40
8.0
 40
9.0
 40
9.0
 40
9.0
 40
10.0
 40
10.0
 40
10.0
 40
11.0
 40
11.0
 40
11.0
 40
12.0
 40
12.0
 40
12.0
 40
13.0
 40
13.0
 40
13.0
 40
14.0
 40
14.0
 40
14.0
 40
15.0
 40
15.0
 40
15.0
 40
16.0
 40
16.0
 40
16.0
 40
17.0
 40
17.0
 40
17.0
 40
18.0
 40
18.0
 40
18.0
 40
19.0
 40
19.0
 40
19.0
 40
19.0
 10
15.4357503216619
 20
18.66346028179247
 30
0.0
 10
15.39458143061316
 20
18.66346028179247
 30
0.0
 10
15.35358479433869
 20
18.66346028179247
 30
0.0
 10
15.31276041283848
 20
18.66346028179247
 30
0.0
 10
15.27279730520958
 20
18.66346028179247
 30
0.0
 10
15.23300645235494
 20
18.66346028179247
 30
0.0
 10
15.19373236382309
 20
18.66346028179247
 30
0.0
 10
15.15531954916256
 20
18.66346028179247
 30
0.0
 10
15.11742349882481
 20
18.66346028179247
 30
0.0
 10
15.08004421280985
 20
18.66346028179247
 30
0.0
 10
15.0435262006662
 20
18.66346028179247
 30
0.0
 10
15.00752495284534
 20
18.66346028179247
 30
0.0
 10
14.97238497889579
 20
18.66346028179247
 30
0.0
 10
14.93810627881756
 20
18.66346028179247
 30
0.0
 10
14.90434434306211
 20
18.66346028179247
 30
0.0
 10
14.87161593595224
 20
18.66346028179247
 30
0.0
 10
14.83957654793941
 20
18.66346028179247
 30
0.0
 10
14.8083984337979
 20
18.66346028179247
 30
0.0
 10
14.77825384830196
 20
18.66346028179247
 30
0.0
 10
14.74862602712882
 20
18.66346028179247
 30
0.0
 10
14.72020398937551
 20
18.66346028179247
 30
0.0
 10
14.69247097071924
 20
18.66346028179247
 30
0.0
 10
14.6655992259343
 20
18.66346028179247
 30
0.0
 10
14.63976100979492
 20
18.66346028179247
 30
0.0
 10
14.61495632230112
 20
18.66346028179247
 30
0.0
 10
14.59066839913011
 20
18.66346028179247
 30
0.0
 10
14.56758625937894
 20
18.66346028179247
 30
0.0
 10
14.54536539349908
 20
18.66346028179247
 30
0.0
 10
14.52383354671626
 20
18.66346028179247
 30
0.0
 10
14.50333522857903
 20
18.66346028179247
 30
0.0
 10
14.48404269386163
 20
18.66346028179247
 30
0.0
 10
14.46509466869276
 20
18.66346028179247
 30
0.0
 10
14.44735242694372
 20
18.66346028179247
 30
0.0
 10
14.43047145906599
 20
18.66346028179247
 30
0.0
 10
14.41427951028532
 20
18.66346028179247
 30
0.0
 10
14.39912109015022
 20
18.66346028179247
 30
0.0
 10
14.38482394388643
 20
18.66346028179247
 30
0.0
 10
14.3712158167197
 20
18.66346028179247
 30
0.0
 10
14.35846896342427
 20
18.66346028179247
 30
0.0
 10
14.34675563877442
 20
18.66346028179247
 30
0.0
 10
14.3353868236731
 20
18.66346028179247
 30
0.0
 10
14.32505153721735
 20
18.66346028179247
 30
0.0
 10
14.31574977940717
 20
18.66346028179247
 30
0.0
 10
14.30662027637126
 20
18.66346028179247
 30
0.0
 10
14.29852430198092
 20
18.66346028179247
 30
0.0
 10
14.2912896014619
 20
18.66346028179247
 30
0.0
 10
14.2843994104914
 20
18.66346028179247
 30
0.0
 10
14.27837049339221
 20
18.66346028179247
 30
0.0
 10
14.27320285016434
 20
18.66346028179247
 30
0.0
 10
14.26837971648499
 20
18.66346028179247
 30
0.0
 10
14.26424560190269
 20
18.66346028179247
 30
0.0
 10
14.2609727611917
 20
18.66346028179247
 30
0.0
 10
14.25787217525498
 20
18.66346028179247
 30
0.0
 10
14.2554606084153
 20
18.66346028179247
 30
0.0
 10
14.25391031544694
 20
18.66346028179247
 30
0.0
 10
14.25253227725284
 20
18.66346028179247
 30
0.0
 10
14.25167100338153
 20
18.66346028179247
 30
0.0
 10
14.25167100338153
 20
18.66346028179247
 30
0.0
  0
POLYLINE
  5
351
330
1F
100
AcDbEntity
  8
cuerpo
 62
     7
420
 16777215
370
     9
100
AcDb2dPolyline
 66
     1
 10
0.0
 20
0.0
 30
0.0
  0
VERTEX
  5
352
330
351
100
AcDbEntity
  8
cuerpo
 62
     7
420
 16777215
370
     9
100
AcDbVertex
100
AcDb2dVertex
 10
14.32281222515194
 20
18.66346028179247
 30
0.0
  0
VERTEX
  5
353
330
351
100
AcDbEntity
  8
cuerpo
 62
     7
420
 16777215
370
     9
100
AcDbVertex
100
AcDb2dVertex
 10
16.54851616339759
 20
18.66346028179247
 30
0.0
  0
SEQEND
  5
354
330
351
100
AcDbEntity
  8
cuerpo
370
     9
  0
POLYLINE
  5
356
330
1F
100
AcDbEntity
  8
OCULTAS
370
     0
100
AcDb2dPolyline
 66
     1
 10
0.0
 20
0.0
 30
0.0
  0
VERTEX
  5
357
330
356
100
AcDbEntity
  8
OCULTAS
370
     0
100
AcDbVertex
100
AcDb2dVertex
 10
16.09686414528134
 20
10.52166612150153
 30
0.0
  0
VERTEX
  5
358
330
356
100
AcDbEntity
  8
OCULTAS
370
     0
100
AcDbVertex
100
AcDb2dVertex
 10
15.62333577083375
 20
10.39454209809581
 30
0.0
  0
VERTEX
  5
359
330
356
100
AcDbEntity
  8
OCULTAS
370
     0
100
AcDbVertex
100
AcDb2dVertex
 10
15.62333577083375
 20
9.580466034931273
 30
0.0
  0
VERTEX
  5
35A
330
356
100
AcDbEntity
  8
OCULTAS
370
     0
100
AcDbVertex
100
AcDb2dVertex
 10
16.09686414528134
 20
9.580466034931273
 30
0.0
  0
VERTEX
  5
35B
330
356
100
AcDbEntity
  8
OCULTAS
370
     0
100
AcDbVertex
100
AcDb2dVertex
 10
16.09686414528134
 20
10.52166612150153
 30
0.0
  0
VERTEX
  5
35C
330
356
100
AcDbEntity
  8
OCULTAS
370
     0
100
AcDbVertex
100
AcDb2dVertex
 10
16.09686414528134
 20
10.52166612150153
 30
0.0
  0
SEQEND
  5
35D
330
356
100
AcDbEntity
  8
OCULTAS
370
     0
  0
POLYLINE
  5
35E
330
1F
100
AcDbEntity
  8
OCULTAS
370
     0
100
AcDb2dPolyline
 66
     1
 10
0.0
 20
0.0
 30
0.0
  0
VERTEX
  5
35F
330
35E
100
AcDbEntity
  8
OCULTAS
370
     0
100
AcDbVertex
100
AcDb2dVertex
 10
16.09686414528134
 20
10.78452690702609
 30
0.0
  0
VERTEX
  5
360
330
35E
100
AcDbEntity
  8
OCULTAS
370
     0
100
AcDbVertex
100
AcDb2dVertex
 10
16.09686414528134
 20
11.37983940687726
 30
0.0
  0
VERTEX
  5
361
330
35E
100
AcDbEntity
  8
OCULTAS
370
     0
100
AcDbVertex
100
AcDb2dVertex
 10
15.62333577083375
 20
11.37983940687726
 30
0.0
  0
VERTEX
  5
362
330
35E
100
AcDbEntity
  8
OCULTAS
370
     0
100
AcDbVertex
100
AcDb2dVertex
 10
15.62333577083375
 20
10.6577473931689
 30
0.0
  0
VERTEX
  5
363
330
35E
100
AcDbEntity
  8
OCULTAS
370
     0
100
AcDbVertex
100
AcDb2dVertex
 10
16.09686414528134
 20
10.78452690702609
 30
0.0
  0
VERTEX
  5
364
330
35E
100
AcDbEntity
  8
OCULTAS
370
     0
100
AcDbVertex
100
AcDb2dVertex
 10
16.09686414528134
 20
10.78452690702609
 30
0.0
  0
SEQEND
  5
365
330
35E
100
AcDbEntity
  8
OCULTAS
370
     0
  0
POLYLINE
  5
366
330
1F
100
AcDbEntity
  8
OCULTAS
 62
   254
420
 14079702
370
     9
100
AcDb2dPolyline
 66
     1
 10
0.0
 20
0.0
 30
0.0
  0
VERTEX
  5
367
330
366
100
AcDbEntity
  8
OCULTAS
 62
   254
420
 14079702
370
     9
100
AcDbVertex
100
AcDb2dVertex
 10
15.62333577083375
 20
11.1266248887114
 30
0.0
  0
VERTEX
  5
368
330
366
100
AcDbEntity
  8
OCULTAS
 62
   254
420
 14079702
370
     9
100
AcDbVertex
100
AcDb2dVertex
 10
15.87672254377387
 20
11.37983940687726
 30
0.0
  0
SEQEND
  5
369
330
366
100
AcDbEntity
  8
OCULTAS
370
     9
  0
POLYLINE
  5
36A
330
1F
100
AcDbEntity
  8
OCULTAS
 62
   254
420
 14079702
370
     9
100
AcDb2dPolyline
 66
     1
 10
0.0
 20
0.0
 30
0.0
  0
VERTEX
  5
36B
330
36A
100
AcDbEntity
  8
OCULTAS
 62
   254
420
 14079702
370
     9
100
AcDbVertex
100
AcDb2dVertex
 10
15.62333577083375
 20
10.74973144262507
 30
0.0
  0
VERTEX
  5
36C
330
36A
100
AcDbEntity
  8
OCULTAS
 62
   254
420
 14079702
370
     9
100
AcDbVertex
100
AcDb2dVertex
 10
16.09686414528134
 20
11.22343207184692
 30
0.0
  0
SEQEND
  5
36D
330
36A
100
AcDbEntity
  8
OCULTAS
370
     9
  0
POLYLINE
  5
36E
330
1F
100
AcDbEntity
  8
OCULTAS
 62
   254
420
 14079702
370
     9
100
AcDb2dPolyline
 66
     1
 10
0.0
 20
0.0
 30
0.0
  0
VERTEX
  5
36F
330
36E
100
AcDbEntity
  8
OCULTAS
 62
   254
420
 14079702
370
     9
100
AcDbVertex
100
AcDb2dVertex
 10
15.62333577083375
 20
10.37318250608726
 30
0.0
  0
VERTEX
  5
370
330
36E
100
AcDbEntity
  8
OCULTAS
 62
   254
420
 14079702
370
     9
100
AcDbVertex
100
AcDb2dVertex
 10
15.65261908245837
 20
10.40246581771188
 30
0.0
  0
SEQEND
  5
371
330
36E
100
AcDbEntity
  8
OCULTAS
370
     9
  0
POLYLINE
  5
372
330
1F
100
AcDbEntity
  8
OCULTAS
 62
   254
420
 14079702
370
     9
100
AcDb2dPolyline
 66
     1
 10
0.0
 20
0.0
 30
0.0
  0
VERTEX
  5
373
330
372
100
AcDbEntity
  8
OCULTAS
 62
   254
420
 14079702
370
     9
100
AcDbVertex
100
AcDb2dVertex
 10
16.01194254156993
 20
10.76178927682344
 30
0.0
  0
VERTEX
  5
374
330
372
100
AcDbEntity
  8
OCULTAS
 62
   254
420
 14079702
370
     9
100
AcDbVertex
100
AcDb2dVertex
 10
16.09686414528134
 20
10.84688313530911
 30
0.0
  0
SEQEND
  5
375
330
372
100
AcDbEntity
  8
OCULTAS
370
     9
  0
POLYLINE
  5
376
330
1F
100
AcDbEntity
  8
OCULTAS
 62
   254
420
 14079702
370
     9
100
AcDb2dPolyline
 66
     1
 10
0.0
 20
0.0
 30
0.0
  0
VERTEX
  5
377
330
376
100
AcDbEntity
  8
OCULTAS
 62
   254
420
 14079702
370
     9
100
AcDbVertex
100
AcDb2dVertex
 10
15.62333577083375
 20
9.996289060000928
 30
0.0
  0
VERTEX
  5
378
330
376
100
AcDbEntity
  8
OCULTAS
 62
   254
420
 14079702
370
     9
100
AcDbVertex
100
AcDb2dVertex
 10
16.09686414528134
 20
10.46998968922278
 30
0.0
  0
SEQEND
  5
379
330
376
100
AcDbEntity
  8
OCULTAS
370
     9
  0
POLYLINE
  5
37A
330
1F
100
AcDbEntity
  8
OCULTAS
 62
   254
420
 14079702
370
     9
100
AcDb2dPolyline
 66
     1
 10
0.0
 20
0.0
 30
0.0
  0
VERTEX
  5
37B
330
37A
100
AcDbEntity
  8
OCULTAS
 62
   254
420
 14079702
370
     9
100
AcDbVertex
100
AcDb2dVertex
 10
15.62333577083375
 20
9.61974012346312
 30
0.0
  0
VERTEX
  5
37C
330
37A
100
AcDbEntity
  8
OCULTAS
 62
   254
420
 14079702
370
     9
100
AcDbVertex
100
AcDb2dVertex
 10
16.09686414528134
 20
10.09309624313645
 30
0.0
  0
SEQEND
  5
37D
330
37A
100
AcDbEntity
  8
OCULTAS
370
     9
  0
POLYLINE
  5
37E
330
1F
100
AcDbEntity
  8
OCULTAS
 62
   254
420
 14079702
370
     9
100
AcDb2dPolyline
 66
     1
 10
0.0
 20
0.0
 30
0.0
  0
VERTEX
  5
37F
330
37E
100
AcDbEntity
  8
OCULTAS
 62
   254
420
 14079702
370
     9
100
AcDbVertex
100
AcDb2dVertex
 10
15.96078287361397
 20
9.580466034931273
 30
0.0
  0
VERTEX
  5
380
330
37E
100
AcDbEntity
  8
OCULTAS
 62
   254
420
 14079702
370
     9
100
AcDbVertex
100
AcDb2dVertex
 10
16.09686414528134
 20
9.716547306598642
 30
0.0
  0
SEQEND
  5
381
330
37E
100
AcDbEntity
  8
OCULTAS
370
     9
  0
POLYLINE
  5
382
330
1F
100
AcDbEntity
  8
OCULTAS
 62
   254
420
 14079702
370
     9
100
AcDb2dPolyline
 66
     1
 10
0.0
 20
0.0
 30
0.0
  0
VERTEX
  5
383
330
382
100
AcDbEntity
  8
OCULTAS
 62
   254
420
 14079702
370
     9
100
AcDbVertex
100
AcDb2dVertex
 10
15.83314208588546
 20
9.580466034931273
 30
0.0
  0
VERTEX
  5
384
330
382
100
AcDbEntity
  8
OCULTAS
 62
   254
420
 14079702
370
     9
100
AcDbVertex
100
AcDb2dVertex
 10
15.62333577083375
 20
9.790272349982988
 30
0.0
  0
SEQEND
  5
385
330
382
100
AcDbEntity
  8
OCULTAS
370
     9
  0
POLYLINE
  5
386
330
1F
100
AcDbEntity
  8
OCULTAS
 62
   254
420
 14079702
370
     9
100
AcDb2dPolyline
 66
     1
 10
0.0
 20
0.0
 30
0.0
  0
VERTEX
  5
387
330
386
100
AcDbEntity
  8
OCULTAS
 62
   254
420
 14079702
370
     9
100
AcDbVertex
100
AcDb2dVertex
 10
16.09686414528134
 20
9.693465166847467
 30
0.0
  0
VERTEX
  5
388
330
386
100
AcDbEntity
  8
OCULTAS
 62
   254
420
 14079702
370
     9
100
AcDbVertex
100
AcDb2dVertex
 10
15.62333577083375
 20
10.16716579606932
 30
0.0
  0
SEQEND
  5
389
330
386
100
AcDbEntity
  8
OCULTAS
370
     9
  0
POLYLINE
  5
38A
330
1F
100
AcDbEntity
  8
OCULTAS
 62
   254
420
 14079702
370
     9
100
AcDb2dPolyline
 66
     1
 10
0.0
 20
0.0
 30
0.0
  0
VERTEX
  5
38B
330
38A
100
AcDbEntity
  8
OCULTAS
 62
   254
420
 14079702
370
     9
100
AcDbVertex
100
AcDb2dVertex
 10
16.09686414528134
 20
10.0703586129338
 30
0.0
  0
VERTEX
  5
38C
330
38A
100
AcDbEntity
  8
OCULTAS
 62
   254
420
 14079702
370
     9
100
AcDbVertex
100
AcDb2dVertex
 10
15.74098578165503
 20
10.42623697656011
 30
0.0
  0
SEQEND
  5
38D
330
38A
100
AcDbEntity
  8
OCULTAS
370
     9
  0
POLYLINE
  5
38E
330
1F
100
AcDbEntity
  8
OCULTAS
 62
   254
420
 14079702
370
     9
100
AcDb2dPolyline
 66
     1
 10
0.0
 20
0.0
 30
0.0
  0
VERTEX
  5
38F
330
38E
100
AcDbEntity
  8
OCULTAS
 62
   254
420
 14079702
370
     9
100
AcDbVertex
100
AcDb2dVertex
 10
16.09686414528134
 20
10.44690754947161
 30
0.0
  0
VERTEX
  5
390
330
38E
100
AcDbEntity
  8
OCULTAS
 62
   254
420
 14079702
370
     9
100
AcDbVertex
100
AcDb2dVertex
 10
16.03812526725783
 20
10.50581868226938
 30
0.0
  0
SEQEND
  5
391
330
38E
100
AcDbEntity
  8
OCULTAS
370
     9
  0
POLYLINE
  5
392
330
1F
100
AcDbEntity
  8
OCULTAS
 62
   254
420
 14079702
370
     9
100
AcDb2dPolyline
 66
     1
 10
0.0
 20
0.0
 30
0.0
  0
VERTEX
  5
393
330
392
100
AcDbEntity
  8
OCULTAS
 62
   254
420
 14079702
370
     9
100
AcDbVertex
100
AcDb2dVertex
 10
15.83055826427153
 20
10.71321343048142
 30
0.0
  0
VERTEX
  5
394
330
392
100
AcDbEntity
  8
OCULTAS
 62
   254
420
 14079702
370
     9
100
AcDbVertex
100
AcDb2dVertex
 10
15.62333577083375
 20
10.92060817869346
 30
0.0
  0
SEQEND
  5
395
330
392
100
AcDbEntity
  8
OCULTAS
370
     9
  0
POLYLINE
  5
396
330
1F
100
AcDbEntity
  8
OCULTAS
 62
   254
420
 14079702
370
     9
100
AcDb2dPolyline
 66
     1
 10
0.0
 20
0.0
 30
0.0
  0
VERTEX
  5
397
330
396
100
AcDbEntity
  8
OCULTAS
 62
   254
420
 14079702
370
     9
100
AcDbVertex
100
AcDb2dVertex
 10
16.09686414528134
 20
10.82380099555794
 30
0.0
  0
VERTEX
  5
398
330
396
100
AcDbEntity
  8
OCULTAS
 62
   254
420
 14079702
370
     9
100
AcDbVertex
100
AcDb2dVertex
 10
15.62333577083375
 20
11.29715711523127
 30
0.0
  0
SEQEND
  5
399
330
396
100
AcDbEntity
  8
OCULTAS
370
     9
  0
POLYLINE
  5
39A
330
1F
100
AcDbEntity
  8
OCULTAS
 62
   254
420
 14079702
370
     9
100
AcDb2dPolyline
 66
     1
 10
0.0
 20
0.0
 30
0.0
  0
VERTEX
  5
39B
330
39A
100
AcDbEntity
  8
OCULTAS
 62
   254
420
 14079702
370
     9
100
AcDbVertex
100
AcDb2dVertex
 10
16.09686414528134
 20
11.20034993209575
 30
0.0
  0
VERTEX
  5
39C
330
39A
100
AcDbEntity
  8
OCULTAS
 62
   254
420
 14079702
370
     9
100
AcDbVertex
100
AcDb2dVertex
 10
15.91737467049982
 20
11.37983940687726
 30
0.0
  0
SEQEND
  5
39D
330
39A
100
AcDbEntity
  8
OCULTAS
370
     9
  0
POLYLINE
  5
39E
330
1F
100
AcDbEntity
  8
OCULTAS
  6
AI-Linetype-1
 62
   254
420
 14079702
370
     9
100
AcDb2dPolyline
 66
     1
 10
0.0
 20
0.0
 30
0.0
  0
VERTEX
  5
39F
330
39E
100
AcDbEntity
  8
OCULTAS
  6
AI-Linetype-1
 62
   254
420
 14079702
370
     9
100
AcDbVertex
100
AcDb2dVertex
 10
14.74190809093258
 20
13.64326714068641
 30
0.0
  0
VERTEX
  5
3A0
330
39E
100
AcDbEntity
  8
OCULTAS
  6
AI-Linetype-1
 62
   254
420
 14079702
370
     9
100
AcDbVertex
100
AcDb2dVertex
 10
14.74190809093258
 20
13.44345160254191
 30
0.0
  0
SEQEND
  5
3A1
330
39E
100
AcDbEntity
  8
OCULTAS
  6
AI-Linetype-1
370
     9
  0
POLYLINE
  5
3A3
330
1F
100
AcDbEntity
  8
OCULTAS
  6
AI-Linetype-2
 62
   254
420
 14079702
370
     9
100
AcDb2dPolyline
 66
     1
 10
0.0
 20
0.0
 30
0.0
  0
VERTEX
  5
3A4
330
3A3
100
AcDbEntity
  8
OCULTAS
  6
AI-Linetype-2
 62
   254
420
 14079702
370
     9
100
AcDbVertex
100
AcDb2dVertex
 10
14.74190809093258
 20
12.96975097332006
 30
0.0
  0
VERTEX
  5
3A5
330
3A3
100
AcDbEntity
  8
OCULTAS
  6
AI-Linetype-2
 62
   254
420
 14079702
370
     9
100
AcDbVertex
100
AcDb2dVertex
 10
14.74190809093258
 20
12.60147026594685
 30
0.0
  0
SEQEND
  5
3A6
330
3A3
100
AcDbEntity
  8
OCULTAS
  6
AI-Linetype-2
370
     9
  0
POLYLINE
  5
3A8
330
1F
100
AcDbEntity
  8
OCULTAS
  6
AI-Linetype-3
 62
   254
420
 14079702
370
     9
100
AcDb2dPolyline
 66
     1
 10
0.0
 20
0.0
 30
0.0
  0
VERTEX
  5
3A9
330
3A8
100
AcDbEntity
  8
OCULTAS
  6
AI-Linetype-3
 62
   254
420
 14079702
370
     9
100
AcDbVertex
100
AcDb2dVertex
 10
16.16249321427535
 20
13.64326714068641
 30
0.0
  0
VERTEX
  5
3AA
330
3A8
100
AcDbEntity
  8
OCULTAS
  6
AI-Linetype-3
 62
   254
420
 14079702
370
     9
100
AcDbVertex
100
AcDb2dVertex
 10
16.16249321427535
 20
13.44345160254191
 30
0.0
  0
SEQEND
  5
3AB
330
3A8
100
AcDbEntity
  8
OCULTAS
  6
AI-Linetype-3
370
     9
  0
POLYLINE
  5
3AD
330
1F
100
AcDbEntity
  8
OCULTAS
  6
AI-Linetype-4
 62
   254
420
 14079702
370
     9
100
AcDb2dPolyline
 66
     1
 10
0.0
 20
0.0
 30
0.0
  0
VERTEX
  5
3AE
330
3AD
100
AcDbEntity
  8
OCULTAS
  6
AI-Linetype-4
 62
   254
420
 14079702
370
     9
100
AcDbVertex
100
AcDb2dVertex
 10
16.16249321427535
 20
12.96975097332006
 30
0.0
  0
VERTEX
  5
3AF
330
3AD
100
AcDbEntity
  8
OCULTAS
  6
AI-Linetype-4
 62
   254
420
 14079702
370
     9
100
AcDbVertex
100
AcDb2dVertex
 10
16.16249321427535
 20
12.60147026594685
 30
0.0
  0
SEQEND
  5
3B0
330
3AD
100
AcDbEntity
  8
OCULTAS
  6
AI-Linetype-4
370
     9
  0
POLYLINE
  5
3B2
330
1F
100
AcDbEntity
  8
OCULTAS
370
     0
100
AcDb2dPolyline
 66
     1
 10
0.0
 20
0.0
 30
0.0
  0
VERTEX
  5
3B3
330
3B2
100
AcDbEntity
  8
OCULTAS
370
     0
100
AcDbVertex
100
AcDb2dVertex
 10
14.8607638851737
 20
9.707590058336992
 30
0.0
  0
VERTEX
  5
3B4
330
3B2
100
AcDbEntity
  8
OCULTAS
370
     0
100
AcDbVertex
100
AcDb2dVertex
 10
14.8607638851737
 20
9.396153426470406
 30
0.0
  0
VERTEX
  5
3B5
330
3B2
100
AcDbEntity
  8
OCULTAS
370
     0
100
AcDbVertex
100
AcDb2dVertex
 10
15.16289875923011
 20
9.396153426470406
 30
0.0
  0
VERTEX
  5
3B6
330
3B2
100
AcDbEntity
  8
OCULTAS
370
     0
100
AcDbVertex
100
AcDb2dVertex
 10
15.16289875923011
 20
9.834369572194186
 30
0.0
  0
VERTEX
  5
3B7
330
3B2
100
AcDbEntity
  8
OCULTAS
370
     0
100
AcDbVertex
100
AcDb2dVertex
 10
14.8607638851737
 20
9.707590058336992
 30
0.0
  0
SEQEND
  5
3B8
330
3B2
100
AcDbEntity
  8
OCULTAS
370
     0
  0
POLYLINE
  5
3B9
330
1F
100
AcDbEntity
  8
OCULTAS
370
     0
100
AcDb2dPolyline
 66
     1
 10
0.0
 20
0.0
 30
0.0
  0
VERTEX
  5
3BA
330
3B9
100
AcDbEntity
  8
OCULTAS
370
     0
100
AcDbVertex
100
AcDb2dVertex
 10
15.16289875923011
 20
11.56311848669255
 30
0.0
  0
VERTEX
  5
3BB
330
3B9
100
AcDbEntity
  8
OCULTAS
370
     0
100
AcDbVertex
100
AcDb2dVertex
 10
14.8607638851737
 20
11.56311848669255
 30
0.0
  0
VERTEX
  5
3BC
330
3B9
100
AcDbEntity
  8
OCULTAS
370
     0
100
AcDbVertex
100
AcDb2dVertex
 10
14.8607638851737
 20
9.933243812620857
 30
0.0
  0
VERTEX
  5
3BD
330
3B9
100
AcDbEntity
  8
OCULTAS
370
     0
100
AcDbVertex
100
AcDb2dVertex
 10
15.16289875923011
 20
10.06002332647805
 30
0.0
  0
VERTEX
  5
3BE
330
3B9
100
AcDbEntity
  8
OCULTAS
370
     0
100
AcDbVertex
100
AcDb2dVertex
 10
15.16289875923011
 20
11.56311848669255
 30
0.0
  0
SEQEND
  5
3BF
330
3B9
100
AcDbEntity
  8
OCULTAS
370
     0
  0
POLYLINE
  5
3C0
330
1F
100
AcDbEntity
  8
OCULTAS
 62
   254
420
 14079702
370
     9
100
AcDb2dPolyline
 66
     1
 10
0.0
 20
0.0
 30
0.0
  0
VERTEX
  5
3C1
330
3C0
100
AcDbEntity
  8
OCULTAS
 62
   254
420
 14079702
370
     9
100
AcDbVertex
100
AcDb2dVertex
 10
14.8607638851737
 20
11.45080837387341
 30
0.0
  0
VERTEX
  5
3C2
330
3C0
100
AcDbEntity
  8
OCULTAS
 62
   254
420
 14079702
370
     9
100
AcDbVertex
100
AcDb2dVertex
 10
14.97324625276711
 20
11.56311848669255
 30
0.0
  0
SEQEND
  5
3C3
330
3C0
100
AcDbEntity
  8
OCULTAS
370
     9
  0
POLYLINE
  5
3C4
330
1F
100
AcDbEntity
  8
OCULTAS
 62
   254
420
 14079702
370
     9
100
AcDb2dPolyline
 66
     1
 10
0.0
 20
0.0
 30
0.0
  0
VERTEX
  5
3C5
330
3C4
100
AcDbEntity
  8
OCULTAS
 62
   254
420
 14079702
370
     9
100
AcDbVertex
100
AcDb2dVertex
 10
14.8607638851737
 20
11.07391492778708
 30
0.0
  0
VERTEX
  5
3C6
330
3C4
100
AcDbEntity
  8
OCULTAS
 62
   254
420
 14079702
370
     9
100
AcDbVertex
100
AcDb2dVertex
 10
15.16289875923011
 20
11.37604980184349
 30
0.0
  0
SEQEND
  5
3C7
330
3C4
100
AcDbEntity
  8
OCULTAS
370
     9
  0
POLYLINE
  5
3C8
330
1F
100
AcDbEntity
  8
OCULTAS
 62
   254
420
 14079702
370
     9
100
AcDb2dPolyline
 66
     1
 10
0.0
 20
0.0
 30
0.0
  0
VERTEX
  5
3C9
330
3C8
100
AcDbEntity
  8
OCULTAS
 62
   254
420
 14079702
370
     9
100
AcDbVertex
100
AcDb2dVertex
 10
14.8607638851737
 20
10.69736599124927
 30
0.0
  0
VERTEX
  5
3CA
330
3C8
100
AcDbEntity
  8
OCULTAS
 62
   254
420
 14079702
370
     9
100
AcDbVertex
100
AcDb2dVertex
 10
15.16289875923011
 20
10.99915635575716
 30
0.0
  0
SEQEND
  5
3CB
330
3C8
100
AcDbEntity
  8
OCULTAS
370
     9
  0
POLYLINE
  5
3CC
330
1F
100
AcDbEntity
  8
OCULTAS
 62
   254
420
 14079702
370
     9
100
AcDb2dPolyline
 66
     1
 10
0.0
 20
0.0
 30
0.0
  0
VERTEX
  5
3CD
330
3CC
100
AcDbEntity
  8
OCULTAS
 62
   254
420
 14079702
370
     9
100
AcDbVertex
100
AcDb2dVertex
 10
14.8607638851737
 20
10.32047254516294
 30
0.0
  0
VERTEX
  5
3CE
330
3CC
100
AcDbEntity
  8
OCULTAS
 62
   254
420
 14079702
370
     9
100
AcDbVertex
100
AcDb2dVertex
 10
15.16289875923011
 20
10.62260741921935
 30
0.0
  0
SEQEND
  5
3CF
330
3CC
100
AcDbEntity
  8
OCULTAS
370
     9
  0
POLYLINE
  5
3D0
330
1F
100
AcDbEntity
  8
OCULTAS
 62
   254
420
 14079702
370
     9
100
AcDb2dPolyline
 66
     1
 10
0.0
 20
0.0
 30
0.0
  0
VERTEX
  5
3D1
330
3D0
100
AcDbEntity
  8
OCULTAS
 62
   254
420
 14079702
370
     9
100
AcDbVertex
100
AcDb2dVertex
 10
14.8607638851737
 20
9.94392360862513
 30
0.0
  0
VERTEX
  5
3D2
330
3D0
100
AcDbEntity
  8
OCULTAS
 62
   254
420
 14079702
370
     9
100
AcDbVertex
100
AcDb2dVertex
 10
15.16289875923011
 20
10.24605848268154
 30
0.0
  0
SEQEND
  5
3D3
330
3D0
100
AcDbEntity
  8
OCULTAS
370
     9
  0
POLYLINE
  5
3D4
330
1F
100
AcDbEntity
  8
OCULTAS
 62
   254
420
 14079702
370
     9
100
AcDb2dPolyline
 66
     1
 10
0.0
 20
0.0
 30
0.0
  0
VERTEX
  5
3D5
330
3D4
100
AcDbEntity
  8
OCULTAS
 62
   254
420
 14079702
370
     9
100
AcDbVertex
100
AcDb2dVertex
 10
14.8607638851737
 20
9.5670301625388
 30
0.0
  0
VERTEX
  5
3D6
330
3D4
100
AcDbEntity
  8
OCULTAS
 62
   254
420
 14079702
370
     9
100
AcDbVertex
100
AcDb2dVertex
 10
15.10295409778676
 20
9.809220375151861
 30
0.0
  0
SEQEND
  5
3D7
330
3D4
100
AcDbEntity
  8
OCULTAS
370
     9
  0
POLYLINE
  5
3D8
330
1F
100
AcDbEntity
  8
OCULTAS
 62
   254
420
 14079702
370
     9
100
AcDb2dPolyline
 66
     1
 10
0.0
 20
0.0
 30
0.0
  0
VERTEX
  5
3D9
330
3D8
100
AcDbEntity
  8
OCULTAS
 62
   254
420
 14079702
370
     9
100
AcDbVertex
100
AcDb2dVertex
 10
15.06643608564311
 20
9.396153426470406
 30
0.0
  0
VERTEX
  5
3DA
330
3D8
100
AcDbEntity
  8
OCULTAS
 62
   254
420
 14079702
370
     9
100
AcDbVertex
100
AcDb2dVertex
 10
15.16289875923011
 20
9.492616100057402
 30
0.0
  0
SEQEND
  5
3DB
330
3D8
100
AcDbEntity
  8
OCULTAS
370
     9
  0
POLYLINE
  5
3DC
330
1F
100
AcDbEntity
  8
OCULTAS
 62
   254
420
 14079702
370
     9
100
AcDb2dPolyline
 66
     1
 10
0.0
 20
0.0
 30
0.0
  0
VERTEX
  5
3DD
330
3DC
100
AcDbEntity
  8
OCULTAS
 62
   254
420
 14079702
370
     9
100
AcDbVertex
100
AcDb2dVertex
 10
14.93586696675215
 20
9.396153426470406
 30
0.0
  0
VERTEX
  5
3DE
330
3DC
100
AcDbEntity
  8
OCULTAS
 62
   254
420
 14079702
370
     9
100
AcDbVertex
100
AcDb2dVertex
 10
14.8607638851737
 20
9.471256508048853
 30
0.0
  0
SEQEND
  5
3DF
330
3DC
100
AcDbEntity
  8
OCULTAS
370
     9
  0
POLYLINE
  5
3E0
330
1F
100
AcDbEntity
  8
OCULTAS
 62
   254
420
 14079702
370
     9
100
AcDb2dPolyline
 66
     1
 10
0.0
 20
0.0
 30
0.0
  0
VERTEX
  5
3E1
330
3E0
100
AcDbEntity
  8
OCULTAS
 62
   254
420
 14079702
370
     9
100
AcDbVertex
100
AcDb2dVertex
 10
15.16289875923011
 20
9.546015080078774
 30
0.0
  0
VERTEX
  5
3E2
330
3E0
100
AcDbEntity
  8
OCULTAS
 62
   254
420
 14079702
370
     9
100
AcDbVertex
100
AcDb2dVertex
 10
14.95963812560037
 20
9.749275713708515
 30
0.0
  0
SEQEND
  5
3E3
330
3E0
100
AcDbEntity
  8
OCULTAS
370
     9
  0
POLYLINE
  5
3E4
330
1F
100
AcDbEntity
  8
OCULTAS
 62
   254
420
 14079702
370
     9
100
AcDb2dPolyline
 66
     1
 10
0.0
 20
0.0
 30
0.0
  0
VERTEX
  5
3E5
330
3E4
100
AcDbEntity
  8
OCULTAS
 62
   254
420
 14079702
370
     9
100
AcDbVertex
100
AcDb2dVertex
 10
15.06609157609459
 20
10.0193711997521
 30
0.0
  0
VERTEX
  5
3E6
330
3E4
100
AcDbEntity
  8
OCULTAS
 62
   254
420
 14079702
370
     9
100
AcDbVertex
100
AcDb2dVertex
 10
14.8607638851737
 20
10.22469889067299
 30
0.0
  0
SEQEND
  5
3E7
330
3E4
100
AcDbEntity
  8
OCULTAS
370
     9
  0
POLYLINE
  5
3E8
330
1F
100
AcDbEntity
  8
OCULTAS
 62
   254
420
 14079702
370
     9
100
AcDb2dPolyline
 66
     1
 10
0.0
 20
0.0
 30
0.0
  0
VERTEX
  5
3E9
330
3E8
100
AcDbEntity
  8
OCULTAS
 62
   254
420
 14079702
370
     9
100
AcDbVertex
100
AcDb2dVertex
 10
15.16289875923011
 20
10.29945746270291
 30
0.0
  0
VERTEX
  5
3EA
330
3E8
100
AcDbEntity
  8
OCULTAS
 62
   254
420
 14079702
370
     9
100
AcDbVertex
100
AcDb2dVertex
 10
14.8607638851737
 20
10.6012478272108
 30
0.0
  0
SEQEND
  5
3EB
330
3E8
100
AcDbEntity
  8
OCULTAS
370
     9
  0
POLYLINE
  5
3EC
330
1F
100
AcDbEntity
  8
OCULTAS
 62
   254
420
 14079702
370
     9
100
AcDb2dPolyline
 66
     1
 10
0.0
 20
0.0
 30
0.0
  0
VERTEX
  5
3ED
330
3EC
100
AcDbEntity
  8
OCULTAS
 62
   254
420
 14079702
370
     9
100
AcDbVertex
100
AcDb2dVertex
 10
15.16289875923011
 20
10.67600639924072
 30
0.0
  0
VERTEX
  5
3EE
330
3EC
100
AcDbEntity
  8
OCULTAS
 62
   254
420
 14079702
370
     9
100
AcDbVertex
100
AcDb2dVertex
 10
14.8607638851737
 20
10.97814127329713
 30
0.0
  0
SEQEND
  5
3EF
330
3EC
100
AcDbEntity
  8
OCULTAS
370
     9
  0
POLYLINE
  5
3F0
330
1F
100
AcDbEntity
  8
OCULTAS
 62
   254
420
 14079702
370
     9
100
AcDb2dPolyline
 66
     1
 10
0.0
 20
0.0
 30
0.0
  0
VERTEX
  5
3F1
330
3F0
100
AcDbEntity
  8
OCULTAS
 62
   254
420
 14079702
370
     9
100
AcDbVertex
100
AcDb2dVertex
 10
15.16289875923011
 20
11.05289984532705
 30
0.0
  0
VERTEX
  5
3F2
330
3F0
100
AcDbEntity
  8
OCULTAS
 62
   254
420
 14079702
370
     9
100
AcDbVertex
100
AcDb2dVertex
 10
14.8607638851737
 20
11.35469020983494
 30
0.0
  0
SEQEND
  5
3F3
330
3F0
100
AcDbEntity
  8
OCULTAS
370
     9
  0
POLYLINE
  5
3F4
330
1F
100
AcDbEntity
  8
OCULTAS
 62
   254
420
 14079702
370
     9
100
AcDb2dPolyline
 66
     1
 10
0.0
 20
0.0
 30
0.0
  0
VERTEX
  5
3F5
330
3F4
100
AcDbEntity
  8
OCULTAS
 62
   254
420
 14079702
370
     9
100
AcDbVertex
100
AcDb2dVertex
 10
15.16289875923011
 20
11.42944878186486
 30
0.0
  0
VERTEX
  5
3F6
330
3F4
100
AcDbEntity
  8
OCULTAS
 62
   254
420
 14079702
370
     9
100
AcDbVertex
100
AcDb2dVertex
 10
15.02922905440242
 20
11.56311848669255
 30
0.0
  0
SEQEND
  5
3F7
330
3F4
100
AcDbEntity
  8
OCULTAS
370
     9
  0
POLYLINE
  5
3F8
330
1F
100
AcDbEntity
  8
OCULTAS
  6
AI-Linetype-5
 62
   254
420
 14079702
370
     9
100
AcDb2dPolyline
 66
     1
 10
0.0
 20
0.0
 30
0.0
  0
VERTEX
  5
3F9
330
3F8
100
AcDbEntity
  8
OCULTAS
  6
AI-Linetype-5
 62
   254
420
 14079702
370
     9
100
AcDbVertex
100
AcDb2dVertex
 10
24.23383517189293
 20
14.47698024811687
 30
0.0
  0
VERTEX
  5
3FA
330
3F8
100
AcDbEntity
  8
OCULTAS
  6
AI-Linetype-5
 62
   254
420
 14079702
370
     9
100
AcDbVertex
100
AcDb2dVertex
 10
24.23383517189293
 20
14.27578667177828
 30
0.0
  0
SEQEND
  5
3FB
330
3F8
100
AcDbEntity
  8
OCULTAS
  6
AI-Linetype-5
370
     9
  0
POLYLINE
  5
3FD
330
1F
100
AcDbEntity
  8
OCULTAS
  6
AI-Linetype-6
 62
   254
420
 14079702
370
     9
100
AcDb2dPolyline
 66
     1
 10
0.0
 20
0.0
 30
0.0
  0
VERTEX
  5
3FE
330
3FD
100
AcDbEntity
  8
OCULTAS
  6
AI-Linetype-6
 62
   254
420
 14079702
370
     9
100
AcDbVertex
100
AcDb2dVertex
 10
24.23383517189293
 20
14.08630642008954
 30
0.0
  0
VERTEX
  5
3FF
330
3FD
100
AcDbEntity
  8
OCULTAS
  6
AI-Linetype-6
 62
   254
420
 14079702
370
     9
100
AcDbVertex
100
AcDb2dVertex
 10
24.23383517189293
 20
13.8141438767548
 30
0.0
  0
SEQEND
  5
400
330
3FD
100
AcDbEntity
  8
OCULTAS
  6
AI-Linetype-6
370
     9
  0
POLYLINE
  5
402
330
1F
100
AcDbEntity
  8
OCULTAS
  6
AI-Linetype-7
 62
   254
420
 14079702
370
     9
100
AcDb2dPolyline
 66
     1
 10
0.0
 20
0.0
 30
0.0
  0
VERTEX
  5
403
330
402
100
AcDbEntity
  8
OCULTAS
  6
AI-Linetype-7
 62
   254
420
 14079702
370
     9
100
AcDbVertex
100
AcDb2dVertex
 10
24.89701605280353
 20
14.47698024811687
 30
0.0
  0
VERTEX
  5
404
330
402
100
AcDbEntity
  8
OCULTAS
  6
AI-Linetype-7
 62
   254
420
 14079702
370
     9
100
AcDbVertex
100
AcDb2dVertex
 10
24.89701605280353
 20
14.27578667177828
 30
0.0
  0
SEQEND
  5
405
330
402
100
AcDbEntity
  8
OCULTAS
  6
AI-Linetype-7
370
     9
  0
POLYLINE
  5
407
330
1F
100
AcDbEntity
  8
OCULTAS
  6
AI-Linetype-8
 62
   254
420
 14079702
370
     9
100
AcDb2dPolyline
 66
     1
 10
0.0
 20
0.0
 30
0.0
  0
VERTEX
  5
408
330
407
100
AcDbEntity
  8
OCULTAS
  6
AI-Linetype-8
 62
   254
420
 14079702
370
     9
100
AcDbVertex
100
AcDb2dVertex
 10
24.89701605280353
 20
14.08630642008954
 30
0.0
  0
VERTEX
  5
409
330
407
100
AcDbEntity
  8
OCULTAS
  6
AI-Linetype-8
 62
   254
420
 14079702
370
     9
100
AcDbVertex
100
AcDb2dVertex
 10
24.89701605280353
 20
13.8141438767548
 30
0.0
  0
SEQEND
  5
40A
330
407
100
AcDbEntity
  8
OCULTAS
  6
AI-Linetype-8
370
     9
  0
INSERT
  5
40E
330
1F
100
AcDbEntity
  8
cotas
100
AcDbBlockReference
  2
block 2
 10
0.0
 20
0.0
 30
0.0
  0
INSERT
  5
416
330
1F
100
AcDbEntity
  8
cotas
100
AcDbBlockReference
  2
block 3
 10
0.0
 20
0.0
 30
0.0
  0
INSERT
  5
41E
330
1F
100
AcDbEntity
  8
cotas
100
AcDbBlockReference
  2
block 4
 10
0.0
 20
0.0
 30
0.0
  0
INSERT
  5
426
330
1F
100
AcDbEntity
  8
cotas
100
AcDbBlockReference
  2
block 5
 10
0.0
 20
0.0
 30
0.0
  0
INSERT
  5
42E
330
1F
100
AcDbEntity
  8
cotas
100
AcDbBlockReference
  2
block 6
 10
0.0
 20
0.0
 30
0.0
  0
INSERT
  5
439
330
1F
100
AcDbEntity
  8
cotas
100
AcDbBlockReference
  2
block 7
 10
0.0
 20
0.0
 30
0.0
  0
INSERT
  5
444
330
1F
100
AcDbEntity
  8
cotas
100
AcDbBlockReference
  2
block 8
 10
0.0
 20
0.0
 30
0.0
  0
INSERT
  5
449
330
1F
100
AcDbEntity
  8
cotas
100
AcDbBlockReference
  2
block 9
 10
0.0
 20
0.0
 30
0.0
  0
INSERT
  5
451
330
1F
100
AcDbEntity
  8
cotas
100
AcDbBlockReference
  2
block 10
 10
0.0
 20
0.0
 30
0.0
  0
INSERT
  5
459
330
1F
100
AcDbEntity
  8
cotas
100
AcDbBlockReference
  2
block 11
 10
0.0
 20
0.0
 30
0.0
  0
INSERT
  5
461
330
1F
100
AcDbEntity
  8
cotas
100
AcDbBlockReference
  2
block 12
 10
0.0
 20
0.0
 30
0.0
  0
INSERT
  5
469
330
1F
100
AcDbEntity
  8
cotas
100
AcDbBlockReference
  2
block 13
 10
0.0
 20
0.0
 30
0.0
  0
INSERT
  5
471
330
1F
100
AcDbEntity
  8
cotas
100
AcDbBlockReference
  2
block 14
 10
0.0
 20
0.0
 30
0.0
  0
INSERT
  5
479
330
1F
100
AcDbEntity
  8
cotas
100
AcDbBlockReference
  2
block 15
 10
0.0
 20
0.0
 30
0.0
  0
INSERT
  5
481
330
1F
100
AcDbEntity
  8
cotas
100
AcDbBlockReference
  2
block 16
 10
0.0
 20
0.0
 30
0.0
  0
INSERT
  5
48C
330
1F
100
AcDbEntity
  8
cotas
100
AcDbBlockReference
  2
block 17
 10
0.0
 20
0.0
 30
0.0
  0
INSERT
  5
497
330
1F
100
AcDbEntity
  8
cotas
100
AcDbBlockReference
  2
block 18
 10
0.0
 20
0.0
 30
0.0
  0
INSERT
  5
49C
330
1F
100
AcDbEntity
  8
cotas
100
AcDbBlockReference
  2
block 19
 10
0.0
 20
0.0
 30
0.0
  0
INSERT
  5
4A4
330
1F
100
AcDbEntity
  8
cotas
100
AcDbBlockReference
  2
block 20
 10
0.0
 20
0.0
 30
0.0
  0
INSERT
  5
4AC
330
1F
100
AcDbEntity
  8
cotas
100
AcDbBlockReference
  2
block 21
 10
0.0
 20
0.0
 30
0.0
  0
INSERT
  5
4B4
330
1F
100
AcDbEntity
  8
cotas
100
AcDbBlockReference
  2
block 22
 10
0.0
 20
0.0
 30
0.0
  0
INSERT
  5
4BC
330
1F
100
AcDbEntity
  8
cotas
100
AcDbBlockReference
  2
block 23
 10
0.0
 20
0.0
 30
0.0
  0
INSERT
  5
4C4
330
1F
100
AcDbEntity
  8
cotas
100
AcDbBlockReference
  2
block 24
 10
0.0
 20
0.0
 30
0.0
  0
INSERT
  5
4CC
330
1F
100
AcDbEntity
  8
cotas
100
AcDbBlockReference
  2
block 25
 10
0.0
 20
0.0
 30
0.0
  0
INSERT
  5
4D4
330
1F
100
AcDbEntity
  8
cotas
100
AcDbBlockReference
  2
block 26
 10
0.0
 20
0.0
 30
0.0
  0
INSERT
  5
4DC
330
1F
100
AcDbEntity
  8
cotas
100
AcDbBlockReference
  2
block 27
 10
0.0
 20
0.0
 30
0.0
  0
INSERT
  5
4E7
330
1F
100
AcDbEntity
  8
cotas
100
AcDbBlockReference
  2
block 28
 10
0.0
 20
0.0
 30
0.0
  0
INSERT
  5
4F2
330
1F
100
AcDbEntity
  8
cotas
100
AcDbBlockReference
  2
block 29
 10
0.0
 20
0.0
 30
0.0
  0
INSERT
  5
4F7
330
1F
100
AcDbEntity
  8
cotas
100
AcDbBlockReference
  2
block 30
 10
0.0
 20
0.0
 30
0.0
  0
INSERT
  5
4FF
330
1F
100
AcDbEntity
  8
cotas
100
AcDbBlockReference
  2
block 31
 10
0.0
 20
0.0
 30
0.0
  0
INSERT
  5
507
330
1F
100
AcDbEntity
  8
cotas
100
AcDbBlockReference
  2
block 32
 10
0.0
 20
0.0
 30
0.0
  0
INSERT
  5
50F
330
1F
100
AcDbEntity
  8
cotas
100
AcDbBlockReference
  2
block 33
 10
0.0
 20
0.0
 30
0.0
  0
INSERT
  5
517
330
1F
100
AcDbEntity
  8
cotas
100
AcDbBlockReference
  2
block 34
 10
0.0
 20
0.0
 30
0.0
  0
INSERT
  5
51F
330
1F
100
AcDbEntity
  8
cotas
100
AcDbBlockReference
  2
block 35
 10
0.0
 20
0.0
 30
0.0
  0
INSERT
  5
527
330
1F
100
AcDbEntity
  8
cotas
100
AcDbBlockReference
  2
block 36
 10
0.0
 20
0.0
 30
0.0
  0
INSERT
  5
52F
330
1F
100
AcDbEntity
  8
cotas
100
AcDbBlockReference
  2
block 37
 10
0.0
 20
0.0
 30
0.0
  0
INSERT
  5
53A
330
1F
100
AcDbEntity
  8
cotas
100
AcDbBlockReference
  2
block 38
 10
0.0
 20
0.0
 30
0.0
  0
INSERT
  5
545
330
1F
100
AcDbEntity
  8
cotas
100
AcDbBlockReference
  2
block 39
 10
0.0
 20
0.0
 30
0.0
  0
INSERT
  5
54A
330
1F
100
AcDbEntity
  8
cotas
100
AcDbBlockReference
  2
block 40
 10
0.0
 20
0.0
 30
0.0
  0
INSERT
  5
552
330
1F
100
AcDbEntity
  8
cotas
100
AcDbBlockReference
  2
block 41
 10
0.0
 20
0.0
 30
0.0
  0
INSERT
  5
55A
330
1F
100
AcDbEntity
  8
cotas
100
AcDbBlockReference
  2
block 42
 10
0.0
 20
0.0
 30
0.0
  0
INSERT
  5
562
330
1F
100
AcDbEntity
  8
cotas
100
AcDbBlockReference
  2
block 43
 10
0.0
 20
0.0
 30
0.0
  0
INSERT
  5
56A
330
1F
100
AcDbEntity
  8
cotas
100
AcDbBlockReference
  2
block 44
 10
0.0
 20
0.0
 30
0.0
  0
INSERT
  5
572
330
1F
100
AcDbEntity
  8
cotas
100
AcDbBlockReference
  2
block 45
 10
0.0
 20
0.0
 30
0.0
  0
INSERT
  5
57A
330
1F
100
AcDbEntity
  8
cotas
100
AcDbBlockReference
  2
block 46
 10
0.0
 20
0.0
 30
0.0
  0
INSERT
  5
582
330
1F
100
AcDbEntity
  8
cotas
100
AcDbBlockReference
  2
block 47
 10
0.0
 20
0.0
 30
0.0
  0
INSERT
  5
58A
330
1F
100
AcDbEntity
  8
cotas
100
AcDbBlockReference
  2
block 48
 10
0.0
 20
0.0
 30
0.0
  0
INSERT
  5
595
330
1F
100
AcDbEntity
  8
cotas
100
AcDbBlockReference
  2
block 49
 10
0.0
 20
0.0
 30
0.0
  0
INSERT
  5
5A0
330
1F
100
AcDbEntity
  8
cotas
100
AcDbBlockReference
  2
block 50
 10
0.0
 20
0.0
 30
0.0
  0
INSERT
  5
5A5
330
1F
100
AcDbEntity
  8
cotas
100
AcDbBlockReference
  2
block 51
 10
0.0
 20
0.0
 30
0.0
  0
INSERT
  5
5AD
330
1F
100
AcDbEntity
  8
cotas
100
AcDbBlockReference
  2
block 52
 10
0.0
 20
0.0
 30
0.0
  0
INSERT
  5
5B5
330
1F
100
AcDbEntity
  8
cotas
100
AcDbBlockReference
  2
block 53
 10
0.0
 20
0.0
 30
0.0
  0
INSERT
  5
5BD
330
1F
100
AcDbEntity
  8
cotas
100
AcDbBlockReference
  2
block 54
 10
0.0
 20
0.0
 30
0.0
  0
INSERT
  5
5C5
330
1F
100
AcDbEntity
  8
cotas
100
AcDbBlockReference
  2
block 55
 10
0.0
 20
0.0
 30
0.0
  0
INSERT
  5
5CD
330
1F
100
AcDbEntity
  8
cotas
100
AcDbBlockReference
  2
block 56
 10
0.0
 20
0.0
 30
0.0
  0
INSERT
  5
5D5
330
1F
100
AcDbEntity
  8
cotas
100
AcDbBlockReference
  2
block 57
 10
0.0
 20
0.0
 30
0.0
  0
INSERT
  5
5DD
330
1F
100
AcDbEntity
  8
cotas
100
AcDbBlockReference
  2
block 58
 10
0.0
 20
0.0
 30
0.0
  0
INSERT
  5
5E5
330
1F
100
AcDbEntity
  8
cotas
100
AcDbBlockReference
  2
block 59
 10
0.0
 20
0.0
 30
0.0
  0
INSERT
  5
5ED
330
1F
100
AcDbEntity
  8
cotas
100
AcDbBlockReference
  2
block 60
 10
0.0
 20
0.0
 30
0.0
  0
INSERT
  5
5F8
330
1F
100
AcDbEntity
  8
cotas
100
AcDbBlockReference
  2
block 61
 10
0.0
 20
0.0
 30
0.0
  0
INSERT
  5
603
330
1F
100
AcDbEntity
  8
cotas
100
AcDbBlockReference
  2
block 62
 10
0.0
 20
0.0
 30
0.0
  0
INSERT
  5
608
330
1F
100
AcDbEntity
  8
cotas
100
AcDbBlockReference
  2
block 63
 10
0.0
 20
0.0
 30
0.0
  0
INSERT
  5
610
330
1F
100
AcDbEntity
  8
cotas
100
AcDbBlockReference
  2
block 64
 10
0.0
 20
0.0
 30
0.0
  0
INSERT
  5
618
330
1F
100
AcDbEntity
  8
cotas
100
AcDbBlockReference
  2
block 65
 10
0.0
 20
0.0
 30
0.0
  0
INSERT
  5
620
330
1F
100
AcDbEntity
  8
cotas
100
AcDbBlockReference
  2
block 66
 10
0.0
 20
0.0
 30
0.0
  0
INSERT
  5
628
330
1F
100
AcDbEntity
  8
cotas
100
AcDbBlockReference
  2
block 67
 10
0.0
 20
0.0
 30
0.0
  0
INSERT
  5
630
330
1F
100
AcDbEntity
  8
cotas
100
AcDbBlockReference
  2
block 68
 10
0.0
 20
0.0
 30
0.0
  0
INSERT
  5
638
330
1F
100
AcDbEntity
  8
cotas
100
AcDbBlockReference
  2
block 69
 10
0.0
 20
0.0
 30
0.0
  0
INSERT
  5
640
330
1F
100
AcDbEntity
  8
cotas
100
AcDbBlockReference
  2
block 70
 10
0.0
 20
0.0
 30
0.0
  0
INSERT
  5
64B
330
1F
100
AcDbEntity
  8
cotas
100
AcDbBlockReference
  2
block 71
 10
0.0
 20
0.0
 30
0.0
  0
INSERT
  5
656
330
1F
100
AcDbEntity
  8
cotas
100
AcDbBlockReference
  2
block 72
 10
0.0
 20
0.0
 30
0.0
  0
INSERT
  5
65B
330
1F
100
AcDbEntity
  8
cotas
100
AcDbBlockReference
  2
block 73
 10
0.0
 20
0.0
 30
0.0
  0
INSERT
  5
663
330
1F
100
AcDbEntity
  8
cotas
100
AcDbBlockReference
  2
block 74
 10
0.0
 20
0.0
 30
0.0
  0
INSERT
  5
66B
330
1F
100
AcDbEntity
  8
cotas
100
AcDbBlockReference
  2
block 75
 10
0.0
 20
0.0
 30
0.0
  0
INSERT
  5
673
330
1F
100
AcDbEntity
  8
cotas
100
AcDbBlockReference
  2
block 76
 10
0.0
 20
0.0
 30
0.0
  0
INSERT
  5
67B
330
1F
100
AcDbEntity
  8
cotas
100
AcDbBlockReference
  2
block 77
 10
0.0
 20
0.0
 30
0.0
  0
INSERT
  5
683
330
1F
100
AcDbEntity
  8
cotas
100
AcDbBlockReference
  2
block 78
 10
0.0
 20
0.0
 30
0.0
  0
INSERT
  5
68B
330
1F
100
AcDbEntity
  8
cotas
100
AcDbBlockReference
  2
block 79
 10
0.0
 20
0.0
 30
0.0
  0
INSERT
  5
693
330
1F
100
AcDbEntity
  8
cotas
100
AcDbBlockReference
  2
block 80
 10
0.0
 20
0.0
 30
0.0
  0
INSERT
  5
69B
330
1F
100
AcDbEntity
  8
cotas
100
AcDbBlockReference
  2
block 81
 10
0.0
 20
0.0
 30
0.0
  0
INSERT
  5
6A6
330
1F
100
AcDbEntity
  8
cotas
100
AcDbBlockReference
  2
block 82
 10
0.0
 20
0.0
 30
0.0
  0
INSERT
  5
6B1
330
1F
100
AcDbEntity
  8
cotas
100
AcDbBlockReference
  2
block 83
 10
0.0
 20
0.0
 30
0.0
  0
INSERT
  5
6B6
330
1F
100
AcDbEntity
  8
cotas
100
AcDbBlockReference
  2
block 84
 10
0.0
 20
0.0
 30
0.0
  0
INSERT
  5
6BE
330
1F
100
AcDbEntity
  8
cotas
100
AcDbBlockReference
  2
block 85
 10
0.0
 20
0.0
 30
0.0
  0
INSERT
  5
6C6
330
1F
100
AcDbEntity
  8
cotas
100
AcDbBlockReference
  2
block 86
 10
0.0
 20
0.0
 30
0.0
  0
INSERT
  5
6CE
330
1F
100
AcDbEntity
  8
cotas
100
AcDbBlockReference
  2
block 87
 10
0.0
 20
0.0
 30
0.0
  0
INSERT
  5
6D6
330
1F
100
AcDbEntity
  8
cotas
100
AcDbBlockReference
  2
block 88
 10
0.0
 20
0.0
 30
0.0
  0
INSERT
  5
6DE
330
1F
100
AcDbEntity
  8
cotas
100
AcDbBlockReference
  2
block 89
 10
0.0
 20
0.0
 30
0.0
  0
INSERT
  5
6E6
330
1F
100
AcDbEntity
  8
cotas
100
AcDbBlockReference
  2
block 90
 10
0.0
 20
0.0
 30
0.0
  0
INSERT
  5
6EE
330
1F
100
AcDbEntity
  8
cotas
100
AcDbBlockReference
  2
block 91
 10
0.0
 20
0.0
 30
0.0
  0
INSERT
  5
6F9
330
1F
100
AcDbEntity
  8
cotas
100
AcDbBlockReference
  2
block 92
 10
0.0
 20
0.0
 30
0.0
  0
INSERT
  5
704
330
1F
100
AcDbEntity
  8
cotas
100
AcDbBlockReference
  2
block 93
 10
0.0
 20
0.0
 30
0.0
  0
INSERT
  5
709
330
1F
100
AcDbEntity
  8
cotas
100
AcDbBlockReference
  2
block 94
 10
0.0
 20
0.0
 30
0.0
  0
INSERT
  5
711
330
1F
100
AcDbEntity
  8
cotas
100
AcDbBlockReference
  2
block 95
 10
0.0
 20
0.0
 30
0.0
  0
INSERT
  5
719
330
1F
100
AcDbEntity
  8
cotas
100
AcDbBlockReference
  2
block 96
 10
0.0
 20
0.0
 30
0.0
  0
INSERT
  5
721
330
1F
100
AcDbEntity
  8
cotas
100
AcDbBlockReference
  2
block 97
 10
0.0
 20
0.0
 30
0.0
  0
INSERT
  5
729
330
1F
100
AcDbEntity
  8
cotas
100
AcDbBlockReference
  2
block 98
 10
0.0
 20
0.0
 30
0.0
  0
INSERT
  5
731
330
1F
100
AcDbEntity
  8
cotas
100
AcDbBlockReference
  2
block 99
 10
0.0
 20
0.0
 30
0.0
  0
INSERT
  5
739
330
1F
100
AcDbEntity
  8
cotas
100
AcDbBlockReference
  2
block 100
 10
0.0
 20
0.0
 30
0.0
  0
INSERT
  5
741
330
1F
100
AcDbEntity
  8
cotas
100
AcDbBlockReference
  2
block 101
 10
0.0
 20
0.0
 30
0.0
  0
INSERT
  5
749
330
1F
100
AcDbEntity
  8
cotas
100
AcDbBlockReference
  2
block 102
 10
0.0
 20
0.0
 30
0.0
  0
INSERT
  5
754
330
1F
100
AcDbEntity
  8
cotas
100
AcDbBlockReference
  2
block 103
 10
0.0
 20
0.0
 30
0.0
  0
INSERT
  5
75F
330
1F
100
AcDbEntity
  8
cotas
100
AcDbBlockReference
  2
block 104
 10
0.0
 20
0.0
 30
0.0
  0
INSERT
  5
764
330
1F
100
AcDbEntity
  8
cotas
100
AcDbBlockReference
  2
block 105
 10
0.0
 20
0.0
 30
0.0
  0
INSERT
  5
76C
330
1F
100
AcDbEntity
  8
cotas
100
AcDbBlockReference
  2
block 106
 10
0.0
 20
0.0
 30
0.0
  0
INSERT
  5
774
330
1F
100
AcDbEntity
  8
cotas
100
AcDbBlockReference
  2
block 107
 10
0.0
 20
0.0
 30
0.0
  0
ENDSEC
  0
SECTION
  2
OBJECTS
  0
DICTIONARY
  5
C
330
0
100
AcDbDictionary
281
     1
  3
ACAD_GROUP
350
D
  3
ACAD_LAYOUT
350
1A
  3
ACAD_MLINESTYLE
350
17
  3
ACAD_PLOTSETTINGS
350
19
  3
ACAD_PLOTSTYLENAME
350
E
  3
ACAD_TABLESTYLE
350
77B
  3
ACAD_VISUALSTYLE
350
2A
  0
DICTIONARY
  5
D
102
{ACAD_REACTORS
330
C
102
}
330
C
100
AcDbDictionary
281
     1
  0
DICTIONARY
  5
1A
102
{ACAD_REACTORS
330
C
102
}
330
C
100
AcDbDictionary
281
     1
  3
Layout1
350
1E
  3
Layout2
350
26
  3
Model
350
22
  0
DICTIONARY
  5
17
102
{ACAD_REACTORS
330
C
102
}
330
C
100
AcDbDictionary
281
     1
  3
Standard
350
18
  0
DICTIONARY
  5
19
102
{ACAD_REACTORS
330
C
102
}
330
C
100
AcDbDictionary
281
     1
  0
ACDBDICTIONARYWDFLT
  5
E
102
{ACAD_REACTORS
330
C
102
}
330
C
100
AcDbDictionary
281
     1
  3
Normal
350
F
100
AcDbDictionaryWithDefault
340
F
  0
DICTIONARY
  5
77B
102
{ACAD_REACTORS
330
C
102
}
330
C
100
AcDbDictionary
281
     1
  0
DICTIONARY
  5
2A
102
{ACAD_REACTORS
330
C
102
}
330
C
100
AcDbDictionary
281
     1
  3
2dWireframe
350
2F
  3
3D Hidden
350
31
  3
3dWireframe
350
30
  3
Basic
350
32
  3
Brighten
350
36
  3
ColorChange
350
3A
  3
Conceptual
350
34
  3
Dim
350
35
  3
Facepattern
350
39
  3
Flat
350
2B
  3
FlatWithEdges
350
2C
  3
Gouraud
350
2D
  3
GouraudWithEdges
350
2E
  3
Linepattern
350
38
  3
Realistic
350
33
  3
Thicken
350
37
  0
LAYOUT
  5
1E
102
{ACAD_REACTORS
330
1A
102
}
330
1A
100
AcDbPlotSettings
  1

  2
none_device
  4

  6

 40
0.0
 41
0.0
 42
0.0
 43
0.0
 44
0.0
 45
0.0
 46
0.0
 47
0.0
 48
0.0
 49
0.0
140
0.0
141
0.0
142
1.0
143
1.0
 70
   688
 72
     0
 73
     0
 74
     5
  7

 75
    16
 76
     0
 77
     2
 78
   300
147
1.0
148
0.0
149
0.0
100
AcDbLayout
  1
Layout1
 70
     1
 71
     1
 10
0.0
 20
0.0
 11
12.0
 21
9.0
 12
0.0
 22
0.0
 32
0.0
 14
1.000000000000000E+20
 24
1.000000000000000E+20
 34
1.000000000000000E+20
 15
-1.000000000000000E+20
 25
-1.000000000000000E+20
 35
-1.000000000000000E+20
146
0.0
 13
0.0
 23
0.0
 33
0.0
 16
1.0
 26
0.0
 36
0.0
 17
0.0
 27
1.0
 37
0.0
 76
     0
330
1B
  0
LAYOUT
  5
26
102
{ACAD_REACTORS
330
1A
102
}
330
1A
100
AcDbPlotSettings
  1

  2
none_device
  4

  6

 40
0.0
 41
0.0
 42
0.0
 43
0.0
 44
0.0
 45
0.0
 46
0.0
 47
0.0
 48
0.0
 49
0.0
140
0.0
141
0.0
142
1.0
143
1.0
 70
   688
 72
     0
 73
     0
 74
     5
  7

 75
    16
 76
     0
 77
     2
 78
   300
147
1.0
148
0.0
149
0.0
100
AcDbLayout
  1
Layout2
 70
     1
 71
     2
 10
0.0
 20
0.0
 11
0.0
 21
0.0
 12
0.0
 22
0.0
 32
0.0
 14
0.0
 24
0.0
 34
0.0
 15
0.0
 25
0.0
 35
0.0
146
0.0
 13
0.0
 23
0.0
 33
0.0
 16
1.0
 26
0.0
 36
0.0
 17
0.0
 27
1.0
 37
0.0
 76
     0
330
23
  0
LAYOUT
  5
22
102
{ACAD_REACTORS
330
1A
102
}
330
1A
100
AcDbPlotSettings
  1

  2
none_device
  4

  6

 40
0.0
 41
0.0
 42
0.0
 43
0.0
 44
0.0
 45
0.0
 46
0.0
 47
0.0
 48
0.0
 49
0.0
140
0.0
141
0.0
142
1.0
143
1.0
 70
  1712
 72
     0
 73
     0
 74
     0
  7

 75
     0
 76
     0
 77
     2
 78
   300
147
1.0
148
0.0
149
0.0
100
AcDbLayout
  1
Model
 70
     1
 71
     0
 10
0.0
 20
0.0
 11
12.0
 21
9.0
 12
0.0
 22
0.0
 32
0.0
 14
1.000000000000000E+20
 24
1.000000000000000E+20
 34
1.000000000000000E+20
 15
-1.000000000000000E+20
 25
-1.000000000000000E+20
 35
-1.000000000000000E+20
146
0.0
 13
0.0
 23
0.0
 33
0.0
 16
1.0
 26
0.0
 36
0.0
 17
0.0
 27
1.0
 37
0.0
 76
     0
330
1F
331
29
  0
MLINESTYLE
  5
18
102
{ACAD_REACTORS
330
17
102
}
330
17
100
AcDbMlineStyle
  2
Standard
 70
     0
  3

 62
   256
 51
90.0
 52
90.0
 71
     2
 49
0.5
 62
   256
  6
BYLAYER
 49
-0.5
 62
   256
  6
BYLAYER
  0
ACDBPLACEHOLDER
  5
F
102
{ACAD_REACTORS
330
E
102
}
330
E
  0
VISUALSTYLE
  5
2F
102
{ACAD_REACTORS
330
2A
102
}
330
2A
100
AcDbVisualStyle
  2
2dWireframe
 70
     4
 71
     0
 72
     2
 73
     0
 90
        0
 40
-0.6
 41
-30.0
 62
     5
 63
     7
421
 16777215
 74
     1
 91
        4
 64
     7
 65
   257
 75
     1
175
     1
 42
1.0
 92
        0
 66
   257
 43
1.0
 76
     1
 77
     6
 78
     2
 67
     7
 79
     5
170
     0
171
     0
290
     0
174
     0
 93
        1
 44
0.0
173
     0
291
     0
 45
0.0
1001
ACAD
1000
AcDbSavedByObjectVersion
1070
     0
  0
VISUALSTYLE
  5
31
102
{ACAD_REACTORS
330
2A
102
}
330
2A
100
AcDbVisualStyle
  2
3D Hidden
 70
     6
 71
     1
 72
     2
 73
     2
 90
        0
 40
-0.6
 41
-30.0
 62
     5
 63
     7
421
 16777215
 74
     2
 91
        2
 64
     7
 65
   257
 75
     2
175
     1
 42
40.0
 92
        0
 66
   257
 43
1.0
 76
     1
 77
     6
 78
     2
 67
     7
 79
     3
170
     0
171
     0
290
     0
174
     0
 93
        1
 44
0.0
173
     0
291
     0
 45
0.0
1001
ACAD
1000
AcDbSavedByObjectVersion
1070
     0
  0
VISUALSTYLE
  5
30
102
{ACAD_REACTORS
330
2A
102
}
330
2A
100
AcDbVisualStyle
  2
3dWireframe
 70
     5
 71
     0
 72
     2
 73
     0
 90
        0
 40
-0.6
 41
-30.0
 62
     5
 63
     7
421
 16777215
 74
     1
 91
        4
 64
     7
 65
   257
 75
     1
175
     1
 42
1.0
 92
        0
 66
   257
 43
1.0
 76
     1
 77
     6
 78
     2
 67
     7
 79
     5
170
     0
171
     0
290
     0
174
     0
 93
        1
 44
0.0
173
     0
291
     0
 45
0.0
1001
ACAD
1000
AcDbSavedByObjectVersion
1070
     0
  0
VISUALSTYLE
  5
32
102
{ACAD_REACTORS
330
2A
102
}
330
2A
100
AcDbVisualStyle
  2
Basic
 70
     7
 71
     1
 72
     0
 73
     1
 90
        0
 40
-0.6
 41
-30.0
 62
     5
 63
     7
421
 16777215
 74
     0
 91
        4
 64
     7
 65
   257
 75
     1
175
     1
 42
1.0
 92
        8
 66
     7
 43
1.0
 76
     1
 77
     6
 78
     2
 67
     7
 79
     5
170
     0
171
     0
290
     0
174
     0
 93
        1
 44
0.0
173
     0
291
     1
 45
0.0
1001
ACAD
1000
AcDbSavedByObjectVersion
1070
     0
  0
VISUALSTYLE
  5
36
102
{ACAD_REACTORS
330
2A
102
}
330
2A
100
AcDbVisualStyle
  2
Brighten
 70
    12
 71
     2
 72
     2
 73
     0
 90
        0
 40
-0.6
 41
-30.0
 62
     5
 63
     7
421
 16777215
 74
     1
 91
        4
 64
     7
 65
   257
 75
     1
175
     1
 42
1.0
 92
        8
 66
     7
 43
1.0
 76
     1
 77
     6
 78
     2
 67
     7
 79
     5
170
     0
171
     0
290
     0
174
     0
 93
        1
 44
50.0
173
     0
291
     1
 45
0.0
1001
ACAD
1000
AcDbSavedByObjectVersion
1070
     0
  0
VISUALSTYLE
  5
3A
102
{ACAD_REACTORS
330
2A
102
}
330
2A
100
AcDbVisualStyle
  2
ColorChange
 70
    16
 71
     2
 72
     2
 73
     3
 90
        0
 40
-0.6
 41
-30.0
 62
     5
 63
     8
421
  8421504
 74
     1
 91
        4
 64
     7
 65
   257
 75
     1
175
     1
 42
1.0
 92
        8
 66
     8
424
  8421504
 43
1.0
 76
     1
 77
     6
 78
     2
 67
     7
 79
     5
170
     0
171
     0
290
     0
174
     0
 93
        1
 44
0.0
173
     0
291
     1
 45
0.0
1001
ACAD
1000
AcDbSavedByObjectVersion
1070
     0
  0
VISUALSTYLE
  5
34
102
{ACAD_REACTORS
330
2A
102
}
330
2A
100
AcDbVisualStyle
  2
Conceptual
 70
     9
 71
     3
 72
     2
 73
     0
 90
        0
 40
-0.6
 41
-30.0
 62
     5
 63
     7
421
 16777215
 74
     2
 91
        2
 64
     7
 65
   257
 75
     1
175
     1
 42
40.0
 92
        8
 66
     7
 43
1.0
 76
     1
 77
     6
 78
     2
 67
     7
 79
     3
170
     0
171
     0
290
     0
174
     0
 93
        1
 44
0.0
173
     0
291
     0
 45
0.0
1001
ACAD
1000
AcDbSavedByObjectVersion
1070
     0
  0
VISUALSTYLE
  5
35
102
{ACAD_REACTORS
330
2A
102
}
330
2A
100
AcDbVisualStyle
  2
Dim
 70
    11
 71
     2
 72
     2
 73
     0
 90
        0
 40
-0.6
 41
-30.0
 62
     5
 63
     7
421
 16777215
 74
     1
 91
        4
 64
     7
 65
   257
 75
     1
175
     1
 42
1.0
 92
        8
 66
     7
 43
1.0
 76
     1
 77
     6
 78
     2
 67
     7
 79
     5
170
     0
171
     0
290
     0
174
     0
 93
        1
 44
-50.0
173
     0
291
     1
 45
0.0
1001
ACAD
1000
AcDbSavedByObjectVersion
1070
     0
  0
VISUALSTYLE
  5
39
102
{ACAD_REACTORS
330
2A
102
}
330
2A
100
AcDbVisualStyle
  2
Facepattern
 70
    15
 71
     2
 72
     2
 73
     0
 90
        0
 40
-0.6
 41
-30.0
 62
     5
 63
     7
421
 16777215
 74
     1
 91
        4
 64
     7
 65
   257
 75
     1
175
     1
 42
1.0
 92
        8
 66
     7
 43
1.0
 76
     1
 77
     6
 78
     2
 67
     7
 79
     5
170
     0
171
     0
290
     0
174
     0
 93
        1
 44
0.0
173
     0
291
     1
 45
0.0
1001
ACAD
1000
AcDbSavedByObjectVersion
1070
     0
  0
VISUALSTYLE
  5
2B
102
{ACAD_REACTORS
330
2A
102
}
330
2A
100
AcDbVisualStyle
  2
Flat
 70
     0
 71
     2
 72
     1
 73
     1
 90
        2
 40
-0.6
 41
30.0
 62
     5
 63
     7
421
 16777215
 74
     0
 91
        4
 64
     7
 65
   257
 75
     1
175
     1
 42
1.0
 92
        8
 66
     7
 43
1.0
 76
     1
 77
     6
 78
     2
 67
     7
 79
     5
170
     0
171
     0
290
     0
174
     0
 93
       13
 44
0.0
173
     0
291
     1
 45
0.0
1001
ACAD
1000
AcDbSavedByObjectVersion
1070
     0
  0
VISUALSTYLE
  5
2C
102
{ACAD_REACTORS
330
2A
102
}
330
2A
100
AcDbVisualStyle
  2
FlatWithEdges
 70
     1
 71
     2
 72
     1
 73
     1
 90
        2
 40
-0.6
 41
30.0
 62
     5
 63
     7
421
 16777215
 74
     1
 91
        4
 64
     7
 65
   257
 75
     1
175
     1
 42
1.0
 92
        0
 66
   257
 43
1.0
 76
     1
 77
     6
 78
     2
 67
     7
 79
     5
170
     0
171
     0
290
     0
174
     0
 93
       13
 44
0.0
173
     0
291
     1
 45
0.0
1001
ACAD
1000
AcDbSavedByObjectVersion
1070
     0
  0
VISUALSTYLE
  5
2D
102
{ACAD_REACTORS
330
2A
102
}
330
2A
100
AcDbVisualStyle
  2
Gouraud
 70
     2
 71
     2
 72
     2
 73
     1
 90
        2
 40
-0.6
 41
30.0
 62
     5
 63
     7
421
 16777215
 74
     0
 91
        4
 64
     7
 65
   257
 75
     1
175
     1
 42
1.0
 92
        0
 66
     7
 43
1.0
 76
     1
 77
     6
 78
     2
 67
     7
 79
     5
170
     0
171
     0
290
     0
174
     0
 93
       13
 44
0.0
173
     0
291
     1
 45
0.0
1001
ACAD
1000
AcDbSavedByObjectVersion
1070
     0
  0
VISUALSTYLE
  5
2E
102
{ACAD_REACTORS
330
2A
102
}
330
2A
100
AcDbVisualStyle
  2
GouraudWithEdges
 70
     3
 71
     2
 72
     2
 73
     1
 90
        2
 40
-0.6
 41
30.0
 62
     5
 63
     7
421
 16777215
 74
     1
 91
        4
 64
     7
 65
   257
 75
     1
175
     1
 42
1.0
 92
        0
 66
   257
 43
1.0
 76
     1
 77
     6
 78
     2
 67
     7
 79
     5
170
     0
171
     0
290
     0
174
     0
 93
       13
 44
0.0
173
     0
291
     1
 45
0.0
1001
ACAD
1000
AcDbSavedByObjectVersion
1070
     0
  0
VISUALSTYLE
  5
38
102
{ACAD_REACTORS
330
2A
102
}
330
2A
100
AcDbVisualStyle
  2
Linepattern
 70
    14
 71
     2
 72
     2
 73
     0
 90
        0
 40
-0.6
 41
-30.0
 62
     5
 63
     7
421
 16777215
 74
     1
 91
        4
 64
     7
 65
   257
 75
     7
175
     7
 42
1.0
 92
        8
 66
     7
 43
1.0
 76
     1
 77
     6
 78
     2
 67
     7
 79
     5
170
     0
171
     0
290
     0
174
     0
 93
        1
 44
0.0
173
     0
291
     1
 45
0.0
1001
ACAD
1000
AcDbSavedByObjectVersion
1070
     0
  0
VISUALSTYLE
  5
33
102
{ACAD_REACTORS
330
2A
102
}
330
2A
100
AcDbVisualStyle
  2
Realistic
 70
     8
 71
     2
 72
     2
 73
     0
 90
        0
 40
-0.6
 41
-30.0
 62
     5
 63
     7
421
 16777215
 74
     1
 91
        0
 64
     7
 65
   257
 75
     1
175
     1
 42
1.0
 92
        8
 66
     8
424
  7895160
 43
1.0
 76
     1
 77
     6
 78
     2
 67
     7
 79
     5
170
     0
171
     0
290
     0
174
     0
 93
       13
 44
0.0
173
     0
291
     0
 45
0.0
1001
ACAD
1000
AcDbSavedByObjectVersion
1070
     0
  0
VISUALSTYLE
  5
37
102
{ACAD_REACTORS
330
2A
102
}
330
2A
100
AcDbVisualStyle
  2
Thicken
 70
    13
 71
     2
 72
     2
 73
     0
 90
        0
 40
-0.6
 41
-30.0
 62
     5
 63
     7
421
 16777215
 74
     1
 91
        4
 64
     7
 65
   257
 75
     1
175
     1
 42
1.0
 92
       12
 66
     7
 43
1.0
 76
     1
 77
     6
 78
     2
 67
     7
 79
     5
170
     0
171
     0
290
     0
174
     0
 93
        1
 44
0.0
173
     0
291
     1
 45
0.0
1001
ACAD
1000
AcDbSavedByObjectVersion
1070
     0
  0
ENDSEC
  0
EOF
