  0
SECTION
  2
HEADER
  9
$ACADVER
  1
AC1018
  9
$ACADMAINTVER
 70
     0
  9
$DWGCODEPAGE
  3
ANSI_1252
  9
$INSBASE
 10
0.0
 20
0.0
 30
0.0
  9
$EXTMIN
 10
1.000000000000000E+20
 20
1.000000000000000E+20
 30
1.000000000000000E+20
  9
$EXTMAX
 10
-1.000000000000000E+20
 20
-1.000000000000000E+20
 30
-1.000000000000000E+20
  9
$LIMMIN
 10
0.0
 20
0.0
  9
$LIMMAX
 10
12.0
 20
9.0
  9
$ORTHOMODE
 70
     0
  9
$REGENMODE
 70
     1
  9
$FILLMODE
 70
     1
  9
$QTEXTMODE
 70
     0
  9
$MIRRTEXT
 70
     1
  9
$LTSCALE
 40
1.0
  9
$ATTMODE
 70
     1
  9
$TEXTSIZE
 40
0.2
  9
$TRACEWID
 40
0.05
  9
$TEXTSTYLE
  7
Standard
  9
$CLAYER
  8
0
  9
$CELTYPE
  6
ByLayer
  9
$CECOLOR
 62
   256
  9
$CELTSCALE
 40
1.0
  9
$DISPSILH
 70
     0
  9
$DIMSCALE
 40
1.0
  9
$DIMASZ
 40
0.18
  9
$DIMEXO
 40
0.0625
  9
$DIMDLI
 40
0.38
  9
$DIMRND
 40
0.0
  9
$DIMDLE
 40
0.0
  9
$DIMEXE
 40
0.18
  9
$DIMTP
 40
0.0
  9
$DIMTM
 40
0.0
  9
$DIMTXT
 40
0.18
  9
$DIMCEN
 40
0.09
  9
$DIMTSZ
 40
0.0
  9
$DIMTOL
 70
     0
  9
$DIMLIM
 70
     0
  9
$DIMTIH
 70
     1
  9
$DIMTOH
 70
     1
  9
$DIMSE1
 70
     0
  9
$DIMSE2
 70
     0
  9
$DIMTAD
 70
     0
  9
$DIMZIN
 70
     0
  9
$DIMBLK
  1

  9
$DIMASO
 70
     1
  9
$DIMSHO
 70
     1
  9
$DIMPOST
  1

  9
$DIMAPOST
  1

  9
$DIMALT
 70
     0
  9
$DIMALTD
 70
     2
  9
$DIMALTF
 40
25.4
  9
$DIMLFAC
 40
1.0
  9
$DIMTOFL
 70
     0
  9
$DIMTVP
 40
0.0
  9
$DIMTIX
 70
     0
  9
$DIMSOXD
 70
     0
  9
$DIMSAH
 70
     0
  9
$DIMBLK1
  1

  9
$DIMBLK2
  1

  9
$DIMSTYLE
  2
Standard
  9
$DIMCLRD
 70
     0
  9
$DIMCLRE
 70
     0
  9
$DIMCLRT
 70
     0
  9
$DIMTFAC
 40
1.0
  9
$DIMGAP
 40
0.09
  9
$DIMJUST
 70
     0
  9
$DIMSD1
 70
     0
  9
$DIMSD2
 70
     0
  9
$DIMTOLJ
 70
     1
  9
$DIMTZIN
 70
     0
  9
$DIMALTZ
 70
     0
  9
$DIMALTTZ
 70
     0
  9
$DIMUPT
 70
     0
  9
$DIMDEC
 70
     4
  9
$DIMTDEC
 70
     4
  9
$DIMALTU
 70
     2
  9
$DIMALTTD
 70
     2
  9
$DIMTXSTY
  7
Standard
  9
$DIMAUNIT
 70
     0
  9
$DIMADEC
 70
     0
  9
$DIMALTRND
 40
0.0
  9
$DIMAZIN
 70
     0
  9
$DIMDSEP
 70
    46
  9
$DIMATFIT
 70
     3
  9
$DIMFRAC
 70
     0
  9
$DIMLDRBLK
  1

  9
$DIMLUNIT
 70
     2
  9
$DIMLWD
 70
    -2
  9
$DIMLWE
 70
    -2
  9
$DIMTMOVE
 70
     0
  9
$LUNITS
 70
     2
  9
$LUPREC
 70
     4
  9
$SKETCHINC
 40
0.1
  9
$FILLETRAD
 40
0.5
  9
$AUNITS
 70
     0
  9
$AUPREC
 70
     0
  9
$MENU
  1
.
  9
$ELEVATION
 40
0.0
  9
$PELEVATION
 40
0.0
  9
$THICKNESS
 40
0.0
  9
$LIMCHECK
 70
     0
  9
$CHAMFERA
 40
0.5
  9
$CHAMFERB
 40
0.5
  9
$CHAMFERC
 40
1.0
  9
$CHAMFERD
 40
0.0
  9
$SKPOLY
 70
     0
  9
$TDCREATE
 40
2457561.464356713
  9
$TDUCREATE
 40
2457561.38102338
  9
$TDUPDATE
 40
2457561.464356725
  9
$TDUUPDATE
 40
2457561.381023391
  9
$TDINDWG
 40
0.0000000116
  9
$TDUSRTIMER
 40
0.0000000116
  9
$USRTIMER
 70
     1
  9
$ANGBASE
 50
0.0
  9
$ANGDIR
 70
     0
  9
$PDMODE
 70
     0
  9
$PDSIZE
 40
0.0
  9
$PLINEWID
 40
0.0
  9
$SPLFRAME
 70
     0
  9
$SPLINETYPE
 70
     6
  9
$SPLINESEGS
 70
     8
  9
$HANDSEED
  5
921
  9
$SURFTAB1
 70
     6
  9
$SURFTAB2
 70
     6
  9
$SURFTYPE
 70
     6
  9
$SURFU
 70
     6
  9
$SURFV
 70
     6
  9
$UCSBASE
  2

  9
$UCSNAME
  2

  9
$UCSORG
 10
0.0
 20
0.0
 30
0.0
  9
$UCSXDIR
 10
1.0
 20
0.0
 30
0.0
  9
$UCSYDIR
 10
0.0
 20
1.0
 30
0.0
  9
$UCSORTHOREF
  2

  9
$UCSORTHOVIEW
 70
     0
  9
$UCSORGTOP
 10
0.0
 20
0.0
 30
0.0
  9
$UCSORGBOTTOM
 10
0.0
 20
0.0
 30
0.0
  9
$UCSORGLEFT
 10
0.0
 20
0.0
 30
0.0
  9
$UCSORGRIGHT
 10
0.0
 20
0.0
 30
0.0
  9
$UCSORGFRONT
 10
0.0
 20
0.0
 30
0.0
  9
$UCSORGBACK
 10
0.0
 20
0.0
 30
0.0
  9
$PUCSBASE
  2

  9
$PUCSNAME
  2

  9
$PUCSORG
 10
0.0
 20
0.0
 30
0.0
  9
$PUCSXDIR
 10
1.0
 20
0.0
 30
0.0
  9
$PUCSYDIR
 10
0.0
 20
1.0
 30
0.0
  9
$PUCSORTHOREF
  2

  9
$PUCSORTHOVIEW
 70
     0
  9
$PUCSORGTOP
 10
0.0
 20
0.0
 30
0.0
  9
$PUCSORGBOTTOM
 10
0.0
 20
0.0
 30
0.0
  9
$PUCSORGLEFT
 10
0.0
 20
0.0
 30
0.0
  9
$PUCSORGRIGHT
 10
0.0
 20
0.0
 30
0.0
  9
$PUCSORGFRONT
 10
0.0
 20
0.0
 30
0.0
  9
$PUCSORGBACK
 10
0.0
 20
0.0
 30
0.0
  9
$USERI1
 70
     0
  9
$USERI2
 70
     0
  9
$USERI3
 70
     0
  9
$USERI4
 70
     0
  9
$USERI5
 70
     0
  9
$USERR1
 40
0.0
  9
$USERR2
 40
0.0
  9
$USERR3
 40
0.0
  9
$USERR4
 40
0.0
  9
$USERR5
 40
0.0
  9
$WORLDVIEW
 70
     1
  9
$SHADEDGE
 70
     3
  9
$SHADEDIF
 70
    70
  9
$TILEMODE
 70
     1
  9
$MAXACTVP
 70
    64
  9
$PINSBASE
 10
0.0
 20
0.0
 30
0.0
  9
$PLIMCHECK
 70
     0
  9
$PEXTMIN
 10
1.000000000000000E+20
 20
1.000000000000000E+20
 30
1.000000000000000E+20
  9
$PEXTMAX
 10
-1.000000000000000E+20
 20
-1.000000000000000E+20
 30
-1.000000000000000E+20
  9
$PLIMMIN
 10
0.0
 20
0.0
  9
$PLIMMAX
 10
12.0
 20
9.0
  9
$UNITMODE
 70
     0
  9
$VISRETAIN
 70
     1
  9
$PLINEGEN
 70
     0
  9
$PSLTSCALE
 70
     1
  9
$TREEDEPTH
 70
  3020
  9
$CMLSTYLE
  2
Standard
  9
$CMLJUST
 70
     0
  9
$CMLSCALE
 40
1.0
  9
$PROXYGRAPHICS
 70
     1
  9
$MEASUREMENT
 70
     0
  9
$CELWEIGHT
370
    -1
  9
$ENDCAPS
280
     0
  9
$JOINSTYLE
280
     0
  9
$LWDISPLAY
290
     1
  9
$INSUNITS
 70
     1
  9
$HYPERLINKBASE
  1

  9
$STYLESHEET
  1

  9
$XEDIT
290
     1
  9
$CEPSNTYPE
380
     0
  9
$PSTYLEMODE
290
     1
  9
$FINGERPRINTGUID
  2
{7DF35E0C-6223-4EE8-ACDD-A3B72B75DD5C}
  9
$VERSIONGUID
  2
{FAEB1C32-E019-11D5-929B-00C0DF256EC4}
  9
$EXTNAMES
290
     1
  9
$PSVPSCALE
 40
0.0
  9
$OLESTARTUP
290
     0
  9
$SORTENTS
280
   127
  9
$INDEXCTL
280
     0
  9
$HIDETEXT
280
     1
  9
$XCLIPFRAME
290
     0
  9
$HALOGAP
280
     0
  9
$OBSCOLOR
 70
   257
  9
$OBSLTYPE
280
     0
  9
$INTERSECTIONDISPLAY
280
     0
  9
$INTERSECTIONCOLOR
 70
   257
  9
$DIMASSOC
280
     2
  9
$PROJECTNAME
  1

  0
ENDSEC
  0
SECTION
  2
CLASSES
  0
CLASS
  1
ACDBDICTIONARYWDFLT
  2
AcDbDictionaryWithDefault
  3
ObjectDBX Classes
 90
        0
 91
        3
280
     0
281
     0
  0
CLASS
  1
VISUALSTYLE
  2
AcDbVisualStyle
  3
ObjectDBX Classes
 90
     4095
 91
        3
280
     0
281
     0
  0
ENDSEC
  0
SECTION
  2
TABLES
  0
TABLE
  2
VPORT
  5
8
330
0
100
AcDbSymbolTable
 70
     1
  0
VPORT
  5
29
330
8
100
AcDbSymbolTableRecord
100
AcDbViewportTableRecord
  2
*Active
 70
     0
 10
0.0
 20
0.0
 11
1.0
 21
1.0
 12
0.0
 22
0.0
 13
0.0
 23
0.0
 14
0.5
 24
0.5
 15
0.5
 25
0.5
 16
0.0
 26
0.0
 36
1.0
 17
50.27083332076563
 27
60.14861109607396
 37
0.0
 40
120.2972221921479
 41
0.8357771260997067
 42
50.0
 43
0.0
 44
0.0
 50
0.0
 51
0.0
 71
     0
 72
   100
 73
     1
 74
     3
 75
     0
 76
     0
 77
     0
 78
     0
281
     0
 65
     1
110
0.0
120
0.0
130
0.0
111
1.0
121
0.0
131
0.0
112
0.0
122
1.0
132
0.0
 79
     0
146
0.0
  0
ENDTAB
  0
TABLE
  2
LTYPE
  5
5
330
0
100
AcDbSymbolTable
 70
     7
  0
LTYPE
  5
14
330
5
100
AcDbSymbolTableRecord
100
AcDbLinetypeTableRecord
  2
ByBlock
 70
     0
  3

 72
    65
 73
     0
 40
0.0
  0
LTYPE
  5
15
330
5
100
AcDbSymbolTableRecord
100
AcDbLinetypeTableRecord
  2
ByLayer
 70
     0
  3

 72
    65
 73
     0
 40
0.0
  0
LTYPE
  5
16
330
5
100
AcDbSymbolTableRecord
100
AcDbLinetypeTableRecord
  2
Continuous
 70
     0
  3
Solid line
 72
    65
 73
     0
 40
0.0
  0
LTYPE
  5
730
330
5
100
AcDbSymbolTableRecord
100
AcDbLinetypeTableRecord
  2
AI-Linetype-1
 70
     0
  3
Adobe Illustrator Linetype No. 1
 72
    65
 73
     4
 40
1.619831010321478
 49
0.4045642242479868
 74
     0
 49
-0.8091284484959737
 74
     0
 49
0.4045642242479868
 74
     0
 49
-0.0015741133295307
 74
     0
  0
LTYPE
  5
739
330
5
100
AcDbSymbolTableRecord
100
AcDbLinetypeTableRecord
  2
AI-Linetype-2
 70
     0
  3
Adobe Illustrator Linetype No. 2
 72
    65
 73
     4
 40
1.619831010321478
 49
0.4045642242479868
 74
     0
 49
-0.8091284484959737
 74
     0
 49
0.4045642242479868
 74
     0
 49
-0.0015741133295307
 74
     0
  0
LTYPE
  5
742
330
5
100
AcDbSymbolTableRecord
100
AcDbLinetypeTableRecord
  2
AI-Linetype-3
 70
     0
  3
Adobe Illustrator Linetype No. 3
 72
    65
 73
     4
 40
1.619831010321478
 49
0.4045642242479868
 74
     0
 49
-0.8091284484959737
 74
     0
 49
0.4045642242479868
 74
     0
 49
-0.0015741133295307
 74
     0
  0
LTYPE
  5
74B
330
5
100
AcDbSymbolTableRecord
100
AcDbLinetypeTableRecord
  2
AI-Linetype-4
 70
     0
  3
Adobe Illustrator Linetype No. 4
 72
    65
 73
     4
 40
1.619831010321478
 49
0.4045642242479868
 74
     0
 49
-0.8091284484959737
 74
     0
 49
0.4045642242479868
 74
     0
 49
-0.0015741133295307
 74
     0
  0
LTYPE
  5
754
330
5
100
AcDbSymbolTableRecord
100
AcDbLinetypeTableRecord
  2
AI-Linetype-5
 70
     0
  3
Adobe Illustrator Linetype No. 5
 72
    65
 73
     4
 40
1.619831010321478
 49
0.4045642242479868
 74
     0
 49
-0.8091284484959737
 74
     0
 49
0.4045642242479868
 74
     0
 49
-0.0015741133295307
 74
     0
  0
LTYPE
  5
75D
330
5
100
AcDbSymbolTableRecord
100
AcDbLinetypeTableRecord
  2
AI-Linetype-6
 70
     0
  3
Adobe Illustrator Linetype No. 6
 72
    65
 73
     4
 40
1.619831010321478
 49
0.4045642242479868
 74
     0
 49
-0.8091284484959737
 74
     0
 49
0.4045642242479868
 74
     0
 49
-0.0015741133295307
 74
     0
  0
ENDTAB
  0
TABLE
  2
LAYER
  5
2
330
0
100
AcDbSymbolTable
 70
     3
  0
LAYER
  5
10
330
2
100
AcDbSymbolTableRecord
100
AcDbLayerTableRecord
  2
0
 70
     0
 62
     7
  6
Continuous
370
    -3
390
F
  0
LAYER
  5
3B
330
2
100
AcDbSymbolTableRecord
100
AcDbLayerTableRecord
  2
cuerpo
 70
     0
 62
     7
  6
Continuous
370
    -3
390
F
  0
LAYER
  5
4BF
330
2
100
AcDbSymbolTableRecord
100
AcDbLayerTableRecord
  2
cotas
 70
     1
 62
     7
  6
Continuous
370
    -3
390
F
  0
ENDTAB
  0
TABLE
  2
STYLE
  5
3
330
0
100
AcDbSymbolTable
 70
     1
  0
STYLE
  5
11
330
3
100
AcDbSymbolTableRecord
100
AcDbTextStyleTableRecord
  2
Standard
 70
     0
 40
0.0
 41
1.0
 50
0.0
 71
     0
 42
0.2
  3
txt
  4

  0
ENDTAB
  0
TABLE
  2
VIEW
  5
6
330
0
100
AcDbSymbolTable
 70
     0
  0
ENDTAB
  0
TABLE
  2
UCS
  5
7
330
0
100
AcDbSymbolTable
 70
     0
  0
ENDTAB
  0
TABLE
  2
APPID
  5
9
330
0
100
AcDbSymbolTable
 70
     1
  0
APPID
  5
12
330
9
100
AcDbSymbolTableRecord
100
AcDbRegAppTableRecord
  2
ACAD
 70
     0
  0
ENDTAB
  0
TABLE
  2
DIMSTYLE
  5
A
330
0
100
AcDbSymbolTable
 70
     1
100
AcDbDimStyleTable
  0
DIMSTYLE
105
27
330
A
100
AcDbSymbolTableRecord
100
AcDbDimStyleTableRecord
  2
Standard
 70
     0
340
11
  0
ENDTAB
  0
TABLE
  2
BLOCK_RECORD
  5
1
330
0
100
AcDbSymbolTable
 70
   278
  0
BLOCK_RECORD
  5
1F
330
1
100
AcDbSymbolTableRecord
100
AcDbBlockTableRecord
  2
*Model_Space
340
22
  0
BLOCK_RECORD
  5
1B
330
1
100
AcDbSymbolTableRecord
100
AcDbBlockTableRecord
  2
*Paper_Space
340
1E
  0
BLOCK_RECORD
  5
23
330
1
100
AcDbSymbolTableRecord
100
AcDbBlockTableRecord
  2
*Paper_Space0
340
26
  0
BLOCK_RECORD
  5
3C
330
1
100
AcDbSymbolTableRecord
100
AcDbBlockTableRecord
  2
block 2
340
0
102
{BLKREFS
331
3D
102
}
  0
BLOCK_RECORD
  5
44
330
1
100
AcDbSymbolTableRecord
100
AcDbBlockTableRecord
  2
block 3
340
0
102
{BLKREFS
331
45
102
}
  0
BLOCK_RECORD
  5
4C
330
1
100
AcDbSymbolTableRecord
100
AcDbBlockTableRecord
  2
block 4
340
0
102
{BLKREFS
331
4D
102
}
  0
BLOCK_RECORD
  5
54
330
1
100
AcDbSymbolTableRecord
100
AcDbBlockTableRecord
  2
block 5
340
0
102
{BLKREFS
331
55
102
}
  0
BLOCK_RECORD
  5
5C
330
1
100
AcDbSymbolTableRecord
100
AcDbBlockTableRecord
  2
block 6
340
0
102
{BLKREFS
331
5D
102
}
  0
BLOCK_RECORD
  5
64
330
1
100
AcDbSymbolTableRecord
100
AcDbBlockTableRecord
  2
block 7
340
0
102
{BLKREFS
331
65
102
}
  0
BLOCK_RECORD
  5
6C
330
1
100
AcDbSymbolTableRecord
100
AcDbBlockTableRecord
  2
block 8
340
0
102
{BLKREFS
331
6D
102
}
  0
BLOCK_RECORD
  5
71
330
1
100
AcDbSymbolTableRecord
100
AcDbBlockTableRecord
  2
block 9
340
0
102
{BLKREFS
331
72
102
}
  0
BLOCK_RECORD
  5
76
330
1
100
AcDbSymbolTableRecord
100
AcDbBlockTableRecord
  2
block 10
340
0
102
{BLKREFS
331
77
102
}
  0
BLOCK_RECORD
  5
7E
330
1
100
AcDbSymbolTableRecord
100
AcDbBlockTableRecord
  2
block 11
340
0
102
{BLKREFS
331
7F
102
}
  0
BLOCK_RECORD
  5
86
330
1
100
AcDbSymbolTableRecord
100
AcDbBlockTableRecord
  2
block 12
340
0
102
{BLKREFS
331
87
102
}
  0
BLOCK_RECORD
  5
8B
330
1
100
AcDbSymbolTableRecord
100
AcDbBlockTableRecord
  2
block 13
340
0
102
{BLKREFS
331
8C
102
}
  0
BLOCK_RECORD
  5
93
330
1
100
AcDbSymbolTableRecord
100
AcDbBlockTableRecord
  2
block 14
340
0
102
{BLKREFS
331
94
102
}
  0
BLOCK_RECORD
  5
9B
330
1
100
AcDbSymbolTableRecord
100
AcDbBlockTableRecord
  2
block 15
340
0
102
{BLKREFS
331
9C
102
}
  0
BLOCK_RECORD
  5
A3
330
1
100
AcDbSymbolTableRecord
100
AcDbBlockTableRecord
  2
block 16
340
0
102
{BLKREFS
331
A4
102
}
  0
BLOCK_RECORD
  5
AB
330
1
100
AcDbSymbolTableRecord
100
AcDbBlockTableRecord
  2
block 17
340
0
102
{BLKREFS
331
AC
102
}
  0
BLOCK_RECORD
  5
B3
330
1
100
AcDbSymbolTableRecord
100
AcDbBlockTableRecord
  2
block 18
340
0
102
{BLKREFS
331
B4
102
}
  0
BLOCK_RECORD
  5
B8
330
1
100
AcDbSymbolTableRecord
100
AcDbBlockTableRecord
  2
block 19
340
0
102
{BLKREFS
331
B9
102
}
  0
BLOCK_RECORD
  5
BD
330
1
100
AcDbSymbolTableRecord
100
AcDbBlockTableRecord
  2
block 20
340
0
102
{BLKREFS
331
BE
102
}
  0
BLOCK_RECORD
  5
C2
330
1
100
AcDbSymbolTableRecord
100
AcDbBlockTableRecord
  2
block 21
340
0
102
{BLKREFS
331
C3
102
}
  0
BLOCK_RECORD
  5
C7
330
1
100
AcDbSymbolTableRecord
100
AcDbBlockTableRecord
  2
block 22
340
0
102
{BLKREFS
331
C8
102
}
  0
BLOCK_RECORD
  5
CF
330
1
100
AcDbSymbolTableRecord
100
AcDbBlockTableRecord
  2
block 23
340
0
102
{BLKREFS
331
D0
102
}
  0
BLOCK_RECORD
  5
D4
330
1
100
AcDbSymbolTableRecord
100
AcDbBlockTableRecord
  2
block 24
340
0
102
{BLKREFS
331
D5
102
}
  0
BLOCK_RECORD
  5
DC
330
1
100
AcDbSymbolTableRecord
100
AcDbBlockTableRecord
  2
block 25
340
0
102
{BLKREFS
331
DD
102
}
  0
BLOCK_RECORD
  5
E4
330
1
100
AcDbSymbolTableRecord
100
AcDbBlockTableRecord
  2
block 26
340
0
102
{BLKREFS
331
E5
102
}
  0
BLOCK_RECORD
  5
EC
330
1
100
AcDbSymbolTableRecord
100
AcDbBlockTableRecord
  2
block 27
340
0
102
{BLKREFS
331
ED
102
}
  0
BLOCK_RECORD
  5
F1
330
1
100
AcDbSymbolTableRecord
100
AcDbBlockTableRecord
  2
block 28
340
0
102
{BLKREFS
331
F2
102
}
  0
BLOCK_RECORD
  5
F6
330
1
100
AcDbSymbolTableRecord
100
AcDbBlockTableRecord
  2
block 29
340
0
102
{BLKREFS
331
F7
102
}
  0
BLOCK_RECORD
  5
FE
330
1
100
AcDbSymbolTableRecord
100
AcDbBlockTableRecord
  2
block 30
340
0
102
{BLKREFS
331
FF
102
}
  0
BLOCK_RECORD
  5
106
330
1
100
AcDbSymbolTableRecord
100
AcDbBlockTableRecord
  2
block 31
340
0
102
{BLKREFS
331
107
102
}
  0
BLOCK_RECORD
  5
10E
330
1
100
AcDbSymbolTableRecord
100
AcDbBlockTableRecord
  2
block 32
340
0
102
{BLKREFS
331
10F
102
}
  0
BLOCK_RECORD
  5
113
330
1
100
AcDbSymbolTableRecord
100
AcDbBlockTableRecord
  2
block 33
340
0
102
{BLKREFS
331
114
102
}
  0
BLOCK_RECORD
  5
11B
330
1
100
AcDbSymbolTableRecord
100
AcDbBlockTableRecord
  2
block 34
340
0
102
{BLKREFS
331
11C
102
}
  0
BLOCK_RECORD
  5
123
330
1
100
AcDbSymbolTableRecord
100
AcDbBlockTableRecord
  2
block 35
340
0
102
{BLKREFS
331
124
102
}
  0
BLOCK_RECORD
  5
12B
330
1
100
AcDbSymbolTableRecord
100
AcDbBlockTableRecord
  2
block 36
340
0
102
{BLKREFS
331
12C
102
}
  0
BLOCK_RECORD
  5
133
330
1
100
AcDbSymbolTableRecord
100
AcDbBlockTableRecord
  2
block 37
340
0
102
{BLKREFS
331
134
102
}
  0
BLOCK_RECORD
  5
138
330
1
100
AcDbSymbolTableRecord
100
AcDbBlockTableRecord
  2
block 38
340
0
102
{BLKREFS
331
139
102
}
  0
BLOCK_RECORD
  5
140
330
1
100
AcDbSymbolTableRecord
100
AcDbBlockTableRecord
  2
block 39
340
0
102
{BLKREFS
331
141
102
}
  0
BLOCK_RECORD
  5
148
330
1
100
AcDbSymbolTableRecord
100
AcDbBlockTableRecord
  2
block 40
340
0
102
{BLKREFS
331
149
102
}
  0
BLOCK_RECORD
  5
150
330
1
100
AcDbSymbolTableRecord
100
AcDbBlockTableRecord
  2
block 41
340
0
102
{BLKREFS
331
151
102
}
  0
BLOCK_RECORD
  5
158
330
1
100
AcDbSymbolTableRecord
100
AcDbBlockTableRecord
  2
block 42
340
0
102
{BLKREFS
331
159
102
}
  0
BLOCK_RECORD
  5
15D
330
1
100
AcDbSymbolTableRecord
100
AcDbBlockTableRecord
  2
block 43
340
0
102
{BLKREFS
331
15E
102
}
  0
BLOCK_RECORD
  5
165
330
1
100
AcDbSymbolTableRecord
100
AcDbBlockTableRecord
  2
block 44
340
0
102
{BLKREFS
331
166
102
}
  0
BLOCK_RECORD
  5
16D
330
1
100
AcDbSymbolTableRecord
100
AcDbBlockTableRecord
  2
block 45
340
0
102
{BLKREFS
331
16E
102
}
  0
BLOCK_RECORD
  5
175
330
1
100
AcDbSymbolTableRecord
100
AcDbBlockTableRecord
  2
block 46
340
0
102
{BLKREFS
331
176
102
}
  0
BLOCK_RECORD
  5
17A
330
1
100
AcDbSymbolTableRecord
100
AcDbBlockTableRecord
  2
block 47
340
0
102
{BLKREFS
331
17B
102
}
  0
BLOCK_RECORD
  5
182
330
1
100
AcDbSymbolTableRecord
100
AcDbBlockTableRecord
  2
block 48
340
0
102
{BLKREFS
331
183
102
}
  0
BLOCK_RECORD
  5
18A
330
1
100
AcDbSymbolTableRecord
100
AcDbBlockTableRecord
  2
block 49
340
0
102
{BLKREFS
331
18B
102
}
  0
BLOCK_RECORD
  5
192
330
1
100
AcDbSymbolTableRecord
100
AcDbBlockTableRecord
  2
block 50
340
0
102
{BLKREFS
331
193
102
}
  0
BLOCK_RECORD
  5
197
330
1
100
AcDbSymbolTableRecord
100
AcDbBlockTableRecord
  2
block 51
340
0
102
{BLKREFS
331
198
102
}
  0
BLOCK_RECORD
  5
19C
330
1
100
AcDbSymbolTableRecord
100
AcDbBlockTableRecord
  2
block 52
340
0
102
{BLKREFS
331
19D
102
}
  0
BLOCK_RECORD
  5
1A1
330
1
100
AcDbSymbolTableRecord
100
AcDbBlockTableRecord
  2
block 53
340
0
102
{BLKREFS
331
1A2
102
}
  0
BLOCK_RECORD
  5
1A9
330
1
100
AcDbSymbolTableRecord
100
AcDbBlockTableRecord
  2
block 54
340
0
102
{BLKREFS
331
1AA
102
}
  0
BLOCK_RECORD
  5
1B1
330
1
100
AcDbSymbolTableRecord
100
AcDbBlockTableRecord
  2
block 55
340
0
102
{BLKREFS
331
1B2
102
}
  0
BLOCK_RECORD
  5
1B6
330
1
100
AcDbSymbolTableRecord
100
AcDbBlockTableRecord
  2
block 56
340
0
102
{BLKREFS
331
1B7
102
}
  0
BLOCK_RECORD
  5
1BE
330
1
100
AcDbSymbolTableRecord
100
AcDbBlockTableRecord
  2
block 57
340
0
102
{BLKREFS
331
1BF
102
}
  0
BLOCK_RECORD
  5
1C6
330
1
100
AcDbSymbolTableRecord
100
AcDbBlockTableRecord
  2
block 58
340
0
102
{BLKREFS
331
1C7
102
}
  0
BLOCK_RECORD
  5
1CE
330
1
100
AcDbSymbolTableRecord
100
AcDbBlockTableRecord
  2
block 59
340
0
102
{BLKREFS
331
1CF
102
}
  0
BLOCK_RECORD
  5
1D6
330
1
100
AcDbSymbolTableRecord
100
AcDbBlockTableRecord
  2
block 60
340
0
102
{BLKREFS
331
1D7
102
}
  0
BLOCK_RECORD
  5
1DE
330
1
100
AcDbSymbolTableRecord
100
AcDbBlockTableRecord
  2
block 61
340
0
102
{BLKREFS
331
1DF
102
}
  0
BLOCK_RECORD
  5
1E6
330
1
100
AcDbSymbolTableRecord
100
AcDbBlockTableRecord
  2
block 62
340
0
102
{BLKREFS
331
1E7
102
}
  0
BLOCK_RECORD
  5
1EE
330
1
100
AcDbSymbolTableRecord
100
AcDbBlockTableRecord
  2
block 63
340
0
102
{BLKREFS
331
1EF
102
}
  0
BLOCK_RECORD
  5
1F6
330
1
100
AcDbSymbolTableRecord
100
AcDbBlockTableRecord
  2
block 64
340
0
102
{BLKREFS
331
1F7
102
}
  0
BLOCK_RECORD
  5
1FE
330
1
100
AcDbSymbolTableRecord
100
AcDbBlockTableRecord
  2
block 65
340
0
102
{BLKREFS
331
1FF
102
}
  0
BLOCK_RECORD
  5
206
330
1
100
AcDbSymbolTableRecord
100
AcDbBlockTableRecord
  2
block 66
340
0
102
{BLKREFS
331
207
102
}
  0
BLOCK_RECORD
  5
20E
330
1
100
AcDbSymbolTableRecord
100
AcDbBlockTableRecord
  2
block 67
340
0
102
{BLKREFS
331
20F
102
}
  0
BLOCK_RECORD
  5
216
330
1
100
AcDbSymbolTableRecord
100
AcDbBlockTableRecord
  2
block 68
340
0
102
{BLKREFS
331
217
102
}
  0
BLOCK_RECORD
  5
21E
330
1
100
AcDbSymbolTableRecord
100
AcDbBlockTableRecord
  2
block 69
340
0
102
{BLKREFS
331
21F
102
}
  0
BLOCK_RECORD
  5
226
330
1
100
AcDbSymbolTableRecord
100
AcDbBlockTableRecord
  2
block 70
340
0
102
{BLKREFS
331
227
102
}
  0
BLOCK_RECORD
  5
22E
330
1
100
AcDbSymbolTableRecord
100
AcDbBlockTableRecord
  2
block 71
340
0
102
{BLKREFS
331
22F
102
}
  0
BLOCK_RECORD
  5
236
330
1
100
AcDbSymbolTableRecord
100
AcDbBlockTableRecord
  2
block 72
340
0
102
{BLKREFS
331
237
102
}
  0
BLOCK_RECORD
  5
23E
330
1
100
AcDbSymbolTableRecord
100
AcDbBlockTableRecord
  2
block 73
340
0
102
{BLKREFS
331
23F
102
}
  0
BLOCK_RECORD
  5
246
330
1
100
AcDbSymbolTableRecord
100
AcDbBlockTableRecord
  2
block 74
340
0
102
{BLKREFS
331
247
102
}
  0
BLOCK_RECORD
  5
24B
330
1
100
AcDbSymbolTableRecord
100
AcDbBlockTableRecord
  2
block 75
340
0
102
{BLKREFS
331
24C
102
}
  0
BLOCK_RECORD
  5
253
330
1
100
AcDbSymbolTableRecord
100
AcDbBlockTableRecord
  2
block 76
340
0
102
{BLKREFS
331
254
102
}
  0
BLOCK_RECORD
  5
25B
330
1
100
AcDbSymbolTableRecord
100
AcDbBlockTableRecord
  2
block 77
340
0
102
{BLKREFS
331
25C
102
}
  0
BLOCK_RECORD
  5
260
330
1
100
AcDbSymbolTableRecord
100
AcDbBlockTableRecord
  2
block 78
340
0
102
{BLKREFS
331
261
102
}
  0
BLOCK_RECORD
  5
268
330
1
100
AcDbSymbolTableRecord
100
AcDbBlockTableRecord
  2
block 79
340
0
102
{BLKREFS
331
269
102
}
  0
BLOCK_RECORD
  5
270
330
1
100
AcDbSymbolTableRecord
100
AcDbBlockTableRecord
  2
block 80
340
0
102
{BLKREFS
331
271
102
}
  0
BLOCK_RECORD
  5
278
330
1
100
AcDbSymbolTableRecord
100
AcDbBlockTableRecord
  2
block 81
340
0
102
{BLKREFS
331
279
102
}
  0
BLOCK_RECORD
  5
280
330
1
100
AcDbSymbolTableRecord
100
AcDbBlockTableRecord
  2
block 82
340
0
102
{BLKREFS
331
281
102
}
  0
BLOCK_RECORD
  5
285
330
1
100
AcDbSymbolTableRecord
100
AcDbBlockTableRecord
  2
block 83
340
0
102
{BLKREFS
331
286
102
}
  0
BLOCK_RECORD
  5
28A
330
1
100
AcDbSymbolTableRecord
100
AcDbBlockTableRecord
  2
block 84
340
0
102
{BLKREFS
331
28B
102
}
  0
BLOCK_RECORD
  5
28F
330
1
100
AcDbSymbolTableRecord
100
AcDbBlockTableRecord
  2
block 85
340
0
102
{BLKREFS
331
290
102
}
  0
BLOCK_RECORD
  5
294
330
1
100
AcDbSymbolTableRecord
100
AcDbBlockTableRecord
  2
block 86
340
0
102
{BLKREFS
331
295
102
}
  0
BLOCK_RECORD
  5
299
330
1
100
AcDbSymbolTableRecord
100
AcDbBlockTableRecord
  2
block 87
340
0
102
{BLKREFS
331
29A
102
}
  0
BLOCK_RECORD
  5
29E
330
1
100
AcDbSymbolTableRecord
100
AcDbBlockTableRecord
  2
block 88
340
0
102
{BLKREFS
331
29F
102
}
  0
BLOCK_RECORD
  5
2A6
330
1
100
AcDbSymbolTableRecord
100
AcDbBlockTableRecord
  2
block 89
340
0
102
{BLKREFS
331
2A7
102
}
  0
BLOCK_RECORD
  5
2AE
330
1
100
AcDbSymbolTableRecord
100
AcDbBlockTableRecord
  2
block 90
340
0
102
{BLKREFS
331
2AF
102
}
  0
BLOCK_RECORD
  5
2B6
330
1
100
AcDbSymbolTableRecord
100
AcDbBlockTableRecord
  2
block 91
340
0
102
{BLKREFS
331
2B7
102
}
  0
BLOCK_RECORD
  5
2BE
330
1
100
AcDbSymbolTableRecord
100
AcDbBlockTableRecord
  2
block 92
340
0
102
{BLKREFS
331
2BF
102
}
  0
BLOCK_RECORD
  5
2C6
330
1
100
AcDbSymbolTableRecord
100
AcDbBlockTableRecord
  2
block 93
340
0
102
{BLKREFS
331
2C7
102
}
  0
BLOCK_RECORD
  5
2CE
330
1
100
AcDbSymbolTableRecord
100
AcDbBlockTableRecord
  2
block 94
340
0
102
{BLKREFS
331
2CF
102
}
  0
BLOCK_RECORD
  5
2D6
330
1
100
AcDbSymbolTableRecord
100
AcDbBlockTableRecord
  2
block 95
340
0
102
{BLKREFS
331
2D7
102
}
  0
BLOCK_RECORD
  5
2DE
330
1
100
AcDbSymbolTableRecord
100
AcDbBlockTableRecord
  2
block 96
340
0
102
{BLKREFS
331
2DF
102
}
  0
BLOCK_RECORD
  5
2E6
330
1
100
AcDbSymbolTableRecord
100
AcDbBlockTableRecord
  2
block 97
340
0
102
{BLKREFS
331
2E7
102
}
  0
BLOCK_RECORD
  5
2EE
330
1
100
AcDbSymbolTableRecord
100
AcDbBlockTableRecord
  2
block 98
340
0
102
{BLKREFS
331
2EF
102
}
  0
BLOCK_RECORD
  5
2F6
330
1
100
AcDbSymbolTableRecord
100
AcDbBlockTableRecord
  2
block 99
340
0
102
{BLKREFS
331
2F7
102
}
  0
BLOCK_RECORD
  5
2FE
330
1
100
AcDbSymbolTableRecord
100
AcDbBlockTableRecord
  2
block 100
340
0
102
{BLKREFS
331
2FF
102
}
  0
BLOCK_RECORD
  5
306
330
1
100
AcDbSymbolTableRecord
100
AcDbBlockTableRecord
  2
block 101
340
0
102
{BLKREFS
331
307
102
}
  0
BLOCK_RECORD
  5
30E
330
1
100
AcDbSymbolTableRecord
100
AcDbBlockTableRecord
  2
block 102
340
0
102
{BLKREFS
331
30F
102
}
  0
BLOCK_RECORD
  5
316
330
1
100
AcDbSymbolTableRecord
100
AcDbBlockTableRecord
  2
block 103
340
0
102
{BLKREFS
331
317
102
}
  0
BLOCK_RECORD
  5
31E
330
1
100
AcDbSymbolTableRecord
100
AcDbBlockTableRecord
  2
block 104
340
0
102
{BLKREFS
331
31F
102
}
  0
BLOCK_RECORD
  5
326
330
1
100
AcDbSymbolTableRecord
100
AcDbBlockTableRecord
  2
block 105
340
0
102
{BLKREFS
331
327
102
}
  0
BLOCK_RECORD
  5
32E
330
1
100
AcDbSymbolTableRecord
100
AcDbBlockTableRecord
  2
block 106
340
0
102
{BLKREFS
331
32F
102
}
  0
BLOCK_RECORD
  5
336
330
1
100
AcDbSymbolTableRecord
100
AcDbBlockTableRecord
  2
block 107
340
0
102
{BLKREFS
331
337
102
}
  0
BLOCK_RECORD
  5
33E
330
1
100
AcDbSymbolTableRecord
100
AcDbBlockTableRecord
  2
block 108
340
0
102
{BLKREFS
331
33F
102
}
  0
BLOCK_RECORD
  5
346
330
1
100
AcDbSymbolTableRecord
100
AcDbBlockTableRecord
  2
block 109
340
0
102
{BLKREFS
331
347
102
}
  0
BLOCK_RECORD
  5
34E
330
1
100
AcDbSymbolTableRecord
100
AcDbBlockTableRecord
  2
block 110
340
0
102
{BLKREFS
331
34F
102
}
  0
BLOCK_RECORD
  5
356
330
1
100
AcDbSymbolTableRecord
100
AcDbBlockTableRecord
  2
block 111
340
0
102
{BLKREFS
331
357
102
}
  0
BLOCK_RECORD
  5
35E
330
1
100
AcDbSymbolTableRecord
100
AcDbBlockTableRecord
  2
block 112
340
0
102
{BLKREFS
331
35F
102
}
  0
BLOCK_RECORD
  5
366
330
1
100
AcDbSymbolTableRecord
100
AcDbBlockTableRecord
  2
block 113
340
0
102
{BLKREFS
331
367
102
}
  0
BLOCK_RECORD
  5
36E
330
1
100
AcDbSymbolTableRecord
100
AcDbBlockTableRecord
  2
block 114
340
0
102
{BLKREFS
331
36F
102
}
  0
BLOCK_RECORD
  5
376
330
1
100
AcDbSymbolTableRecord
100
AcDbBlockTableRecord
  2
block 115
340
0
102
{BLKREFS
331
377
102
}
  0
BLOCK_RECORD
  5
37E
330
1
100
AcDbSymbolTableRecord
100
AcDbBlockTableRecord
  2
block 116
340
0
102
{BLKREFS
331
37F
102
}
  0
BLOCK_RECORD
  5
386
330
1
100
AcDbSymbolTableRecord
100
AcDbBlockTableRecord
  2
block 117
340
0
102
{BLKREFS
331
387
102
}
  0
BLOCK_RECORD
  5
38E
330
1
100
AcDbSymbolTableRecord
100
AcDbBlockTableRecord
  2
block 118
340
0
102
{BLKREFS
331
38F
102
}
  0
BLOCK_RECORD
  5
396
330
1
100
AcDbSymbolTableRecord
100
AcDbBlockTableRecord
  2
block 119
340
0
102
{BLKREFS
331
397
102
}
  0
BLOCK_RECORD
  5
39E
330
1
100
AcDbSymbolTableRecord
100
AcDbBlockTableRecord
  2
block 120
340
0
102
{BLKREFS
331
39F
102
}
  0
BLOCK_RECORD
  5
3A6
330
1
100
AcDbSymbolTableRecord
100
AcDbBlockTableRecord
  2
block 121
340
0
102
{BLKREFS
331
3A7
102
}
  0
BLOCK_RECORD
  5
3AE
330
1
100
AcDbSymbolTableRecord
100
AcDbBlockTableRecord
  2
block 122
340
0
102
{BLKREFS
331
3AF
102
}
  0
BLOCK_RECORD
  5
3B6
330
1
100
AcDbSymbolTableRecord
100
AcDbBlockTableRecord
  2
block 123
340
0
102
{BLKREFS
331
3B7
102
}
  0
BLOCK_RECORD
  5
3BE
330
1
100
AcDbSymbolTableRecord
100
AcDbBlockTableRecord
  2
block 124
340
0
102
{BLKREFS
331
3BF
102
}
  0
BLOCK_RECORD
  5
3C6
330
1
100
AcDbSymbolTableRecord
100
AcDbBlockTableRecord
  2
block 125
340
0
102
{BLKREFS
331
3C7
102
}
  0
BLOCK_RECORD
  5
3CE
330
1
100
AcDbSymbolTableRecord
100
AcDbBlockTableRecord
  2
block 126
340
0
102
{BLKREFS
331
3CF
102
}
  0
BLOCK_RECORD
  5
3D6
330
1
100
AcDbSymbolTableRecord
100
AcDbBlockTableRecord
  2
block 127
340
0
102
{BLKREFS
331
3D7
102
}
  0
BLOCK_RECORD
  5
3DE
330
1
100
AcDbSymbolTableRecord
100
AcDbBlockTableRecord
  2
block 128
340
0
102
{BLKREFS
331
3DF
102
}
  0
BLOCK_RECORD
  5
3E6
330
1
100
AcDbSymbolTableRecord
100
AcDbBlockTableRecord
  2
block 129
340
0
102
{BLKREFS
331
3E7
102
}
  0
BLOCK_RECORD
  5
3EE
330
1
100
AcDbSymbolTableRecord
100
AcDbBlockTableRecord
  2
block 130
340
0
102
{BLKREFS
331
3EF
102
}
  0
BLOCK_RECORD
  5
3F6
330
1
100
AcDbSymbolTableRecord
100
AcDbBlockTableRecord
  2
block 131
340
0
102
{BLKREFS
331
3F7
102
}
  0
BLOCK_RECORD
  5
3FE
330
1
100
AcDbSymbolTableRecord
100
AcDbBlockTableRecord
  2
block 132
340
0
102
{BLKREFS
331
3FF
102
}
  0
BLOCK_RECORD
  5
403
330
1
100
AcDbSymbolTableRecord
100
AcDbBlockTableRecord
  2
block 133
340
0
102
{BLKREFS
331
404
102
}
  0
BLOCK_RECORD
  5
40B
330
1
100
AcDbSymbolTableRecord
100
AcDbBlockTableRecord
  2
block 134
340
0
102
{BLKREFS
331
40C
102
}
  0
BLOCK_RECORD
  5
413
330
1
100
AcDbSymbolTableRecord
100
AcDbBlockTableRecord
  2
block 135
340
0
102
{BLKREFS
331
414
102
}
  0
BLOCK_RECORD
  5
41B
330
1
100
AcDbSymbolTableRecord
100
AcDbBlockTableRecord
  2
block 136
340
0
102
{BLKREFS
331
41C
102
}
  0
BLOCK_RECORD
  5
423
330
1
100
AcDbSymbolTableRecord
100
AcDbBlockTableRecord
  2
block 137
340
0
102
{BLKREFS
331
424
102
}
  0
BLOCK_RECORD
  5
42B
330
1
100
AcDbSymbolTableRecord
100
AcDbBlockTableRecord
  2
block 138
340
0
102
{BLKREFS
331
42C
102
}
  0
BLOCK_RECORD
  5
433
330
1
100
AcDbSymbolTableRecord
100
AcDbBlockTableRecord
  2
block 139
340
0
102
{BLKREFS
331
434
102
}
  0
BLOCK_RECORD
  5
43B
330
1
100
AcDbSymbolTableRecord
100
AcDbBlockTableRecord
  2
block 140
340
0
102
{BLKREFS
331
43C
102
}
  0
BLOCK_RECORD
  5
443
330
1
100
AcDbSymbolTableRecord
100
AcDbBlockTableRecord
  2
block 141
340
0
102
{BLKREFS
331
444
102
}
  0
BLOCK_RECORD
  5
44B
330
1
100
AcDbSymbolTableRecord
100
AcDbBlockTableRecord
  2
block 142
340
0
102
{BLKREFS
331
44C
102
}
  0
BLOCK_RECORD
  5
4C0
330
1
100
AcDbSymbolTableRecord
100
AcDbBlockTableRecord
  2
block 143
340
0
102
{BLKREFS
331
4C1
102
}
  0
BLOCK_RECORD
  5
4C4
330
1
100
AcDbSymbolTableRecord
100
AcDbBlockTableRecord
  2
block 144
340
0
102
{BLKREFS
331
4C5
102
}
  0
BLOCK_RECORD
  5
4CC
330
1
100
AcDbSymbolTableRecord
100
AcDbBlockTableRecord
  2
block 145
340
0
102
{BLKREFS
331
4CD
102
}
  0
BLOCK_RECORD
  5
4D4
330
1
100
AcDbSymbolTableRecord
100
AcDbBlockTableRecord
  2
block 146
340
0
102
{BLKREFS
331
4D5
102
}
  0
BLOCK_RECORD
  5
4DC
330
1
100
AcDbSymbolTableRecord
100
AcDbBlockTableRecord
  2
block 147
340
0
102
{BLKREFS
331
4DD
102
}
  0
BLOCK_RECORD
  5
4E4
330
1
100
AcDbSymbolTableRecord
100
AcDbBlockTableRecord
  2
block 148
340
0
102
{BLKREFS
331
4E5
102
}
  0
BLOCK_RECORD
  5
4EF
330
1
100
AcDbSymbolTableRecord
100
AcDbBlockTableRecord
  2
block 149
340
0
102
{BLKREFS
331
4F0
102
}
  0
BLOCK_RECORD
  5
4F7
330
1
100
AcDbSymbolTableRecord
100
AcDbBlockTableRecord
  2
block 150
340
0
102
{BLKREFS
331
4F8
102
}
  0
BLOCK_RECORD
  5
4FF
330
1
100
AcDbSymbolTableRecord
100
AcDbBlockTableRecord
  2
block 151
340
0
102
{BLKREFS
331
500
102
}
  0
BLOCK_RECORD
  5
50A
330
1
100
AcDbSymbolTableRecord
100
AcDbBlockTableRecord
  2
block 152
340
0
102
{BLKREFS
331
50B
102
}
  0
BLOCK_RECORD
  5
512
330
1
100
AcDbSymbolTableRecord
100
AcDbBlockTableRecord
  2
block 153
340
0
102
{BLKREFS
331
513
102
}
  0
BLOCK_RECORD
  5
51A
330
1
100
AcDbSymbolTableRecord
100
AcDbBlockTableRecord
  2
block 154
340
0
102
{BLKREFS
331
51B
102
}
  0
BLOCK_RECORD
  5
51F
330
1
100
AcDbSymbolTableRecord
100
AcDbBlockTableRecord
  2
block 155
340
0
102
{BLKREFS
331
520
102
}
  0
BLOCK_RECORD
  5
527
330
1
100
AcDbSymbolTableRecord
100
AcDbBlockTableRecord
  2
block 156
340
0
102
{BLKREFS
331
528
102
}
  0
BLOCK_RECORD
  5
52F
330
1
100
AcDbSymbolTableRecord
100
AcDbBlockTableRecord
  2
block 157
340
0
102
{BLKREFS
331
530
102
}
  0
BLOCK_RECORD
  5
537
330
1
100
AcDbSymbolTableRecord
100
AcDbBlockTableRecord
  2
block 158
340
0
102
{BLKREFS
331
538
102
}
  0
BLOCK_RECORD
  5
53B
330
1
100
AcDbSymbolTableRecord
100
AcDbBlockTableRecord
  2
block 159
340
0
102
{BLKREFS
331
53C
102
}
  0
BLOCK_RECORD
  5
543
330
1
100
AcDbSymbolTableRecord
100
AcDbBlockTableRecord
  2
block 160
340
0
102
{BLKREFS
331
544
102
}
  0
BLOCK_RECORD
  5
54B
330
1
100
AcDbSymbolTableRecord
100
AcDbBlockTableRecord
  2
block 161
340
0
102
{BLKREFS
331
54C
102
}
  0
BLOCK_RECORD
  5
553
330
1
100
AcDbSymbolTableRecord
100
AcDbBlockTableRecord
  2
block 162
340
0
102
{BLKREFS
331
554
102
}
  0
BLOCK_RECORD
  5
55B
330
1
100
AcDbSymbolTableRecord
100
AcDbBlockTableRecord
  2
block 163
340
0
102
{BLKREFS
331
55C
102
}
  0
BLOCK_RECORD
  5
566
330
1
100
AcDbSymbolTableRecord
100
AcDbBlockTableRecord
  2
block 164
340
0
102
{BLKREFS
331
567
102
}
  0
BLOCK_RECORD
  5
571
330
1
100
AcDbSymbolTableRecord
100
AcDbBlockTableRecord
  2
block 165
340
0
102
{BLKREFS
331
572
102
}
  0
BLOCK_RECORD
  5
576
330
1
100
AcDbSymbolTableRecord
100
AcDbBlockTableRecord
  2
block 166
340
0
102
{BLKREFS
331
577
102
}
  0
BLOCK_RECORD
  5
57E
330
1
100
AcDbSymbolTableRecord
100
AcDbBlockTableRecord
  2
block 167
340
0
102
{BLKREFS
331
57F
102
}
  0
BLOCK_RECORD
  5
586
330
1
100
AcDbSymbolTableRecord
100
AcDbBlockTableRecord
  2
block 168
340
0
102
{BLKREFS
331
587
102
}
  0
BLOCK_RECORD
  5
58E
330
1
100
AcDbSymbolTableRecord
100
AcDbBlockTableRecord
  2
block 169
340
0
102
{BLKREFS
331
58F
102
}
  0
BLOCK_RECORD
  5
5C4
330
1
100
AcDbSymbolTableRecord
100
AcDbBlockTableRecord
  2
block 170
340
0
102
{BLKREFS
331
5C5
102
}
  0
BLOCK_RECORD
  5
5C8
330
1
100
AcDbSymbolTableRecord
100
AcDbBlockTableRecord
  2
block 171
340
0
102
{BLKREFS
331
5C9
102
}
  0
BLOCK_RECORD
  5
5D0
330
1
100
AcDbSymbolTableRecord
100
AcDbBlockTableRecord
  2
block 172
340
0
102
{BLKREFS
331
5D1
102
}
  0
BLOCK_RECORD
  5
5D8
330
1
100
AcDbSymbolTableRecord
100
AcDbBlockTableRecord
  2
block 173
340
0
102
{BLKREFS
331
5D9
102
}
  0
BLOCK_RECORD
  5
5E0
330
1
100
AcDbSymbolTableRecord
100
AcDbBlockTableRecord
  2
block 174
340
0
102
{BLKREFS
331
5E1
102
}
  0
BLOCK_RECORD
  5
5E8
330
1
100
AcDbSymbolTableRecord
100
AcDbBlockTableRecord
  2
block 175
340
0
102
{BLKREFS
331
5E9
102
}
  0
BLOCK_RECORD
  5
5F0
330
1
100
AcDbSymbolTableRecord
100
AcDbBlockTableRecord
  2
block 176
340
0
102
{BLKREFS
331
5F1
102
}
  0
BLOCK_RECORD
  5
5FB
330
1
100
AcDbSymbolTableRecord
100
AcDbBlockTableRecord
  2
block 177
340
0
102
{BLKREFS
331
5FC
102
}
  0
BLOCK_RECORD
  5
606
330
1
100
AcDbSymbolTableRecord
100
AcDbBlockTableRecord
  2
block 178
340
0
102
{BLKREFS
331
607
102
}
  0
BLOCK_RECORD
  5
60B
330
1
100
AcDbSymbolTableRecord
100
AcDbBlockTableRecord
  2
block 179
340
0
102
{BLKREFS
331
60C
102
}
  0
BLOCK_RECORD
  5
613
330
1
100
AcDbSymbolTableRecord
100
AcDbBlockTableRecord
  2
block 180
340
0
102
{BLKREFS
331
614
102
}
  0
BLOCK_RECORD
  5
61B
330
1
100
AcDbSymbolTableRecord
100
AcDbBlockTableRecord
  2
block 181
340
0
102
{BLKREFS
331
61C
102
}
  0
BLOCK_RECORD
  5
623
330
1
100
AcDbSymbolTableRecord
100
AcDbBlockTableRecord
  2
block 182
340
0
102
{BLKREFS
331
624
102
}
  0
BLOCK_RECORD
  5
627
330
1
100
AcDbSymbolTableRecord
100
AcDbBlockTableRecord
  2
block 183
340
0
102
{BLKREFS
331
628
102
}
  0
BLOCK_RECORD
  5
62F
330
1
100
AcDbSymbolTableRecord
100
AcDbBlockTableRecord
  2
block 184
340
0
102
{BLKREFS
331
630
102
}
  0
BLOCK_RECORD
  5
637
330
1
100
AcDbSymbolTableRecord
100
AcDbBlockTableRecord
  2
block 185
340
0
102
{BLKREFS
331
638
102
}
  0
BLOCK_RECORD
  5
63F
330
1
100
AcDbSymbolTableRecord
100
AcDbBlockTableRecord
  2
block 186
340
0
102
{BLKREFS
331
640
102
}
  0
BLOCK_RECORD
  5
647
330
1
100
AcDbSymbolTableRecord
100
AcDbBlockTableRecord
  2
block 187
340
0
102
{BLKREFS
331
648
102
}
  0
BLOCK_RECORD
  5
652
330
1
100
AcDbSymbolTableRecord
100
AcDbBlockTableRecord
  2
block 188
340
0
102
{BLKREFS
331
653
102
}
  0
BLOCK_RECORD
  5
65D
330
1
100
AcDbSymbolTableRecord
100
AcDbBlockTableRecord
  2
block 189
340
0
102
{BLKREFS
331
65E
102
}
  0
BLOCK_RECORD
  5
662
330
1
100
AcDbSymbolTableRecord
100
AcDbBlockTableRecord
  2
block 190
340
0
102
{BLKREFS
331
663
102
}
  0
BLOCK_RECORD
  5
66A
330
1
100
AcDbSymbolTableRecord
100
AcDbBlockTableRecord
  2
block 191
340
0
102
{BLKREFS
331
66B
102
}
  0
BLOCK_RECORD
  5
672
330
1
100
AcDbSymbolTableRecord
100
AcDbBlockTableRecord
  2
block 192
340
0
102
{BLKREFS
331
673
102
}
  0
BLOCK_RECORD
  5
67A
330
1
100
AcDbSymbolTableRecord
100
AcDbBlockTableRecord
  2
block 193
340
0
102
{BLKREFS
331
67B
102
}
  0
BLOCK_RECORD
  5
67E
330
1
100
AcDbSymbolTableRecord
100
AcDbBlockTableRecord
  2
block 194
340
0
102
{BLKREFS
331
67F
102
}
  0
BLOCK_RECORD
  5
686
330
1
100
AcDbSymbolTableRecord
100
AcDbBlockTableRecord
  2
block 195
340
0
102
{BLKREFS
331
687
102
}
  0
BLOCK_RECORD
  5
68E
330
1
100
AcDbSymbolTableRecord
100
AcDbBlockTableRecord
  2
block 196
340
0
102
{BLKREFS
331
68F
102
}
  0
BLOCK_RECORD
  5
696
330
1
100
AcDbSymbolTableRecord
100
AcDbBlockTableRecord
  2
block 197
340
0
102
{BLKREFS
331
697
102
}
  0
BLOCK_RECORD
  5
69E
330
1
100
AcDbSymbolTableRecord
100
AcDbBlockTableRecord
  2
block 198
340
0
102
{BLKREFS
331
69F
102
}
  0
BLOCK_RECORD
  5
6A9
330
1
100
AcDbSymbolTableRecord
100
AcDbBlockTableRecord
  2
block 199
340
0
102
{BLKREFS
331
6AA
102
}
  0
BLOCK_RECORD
  5
6B4
330
1
100
AcDbSymbolTableRecord
100
AcDbBlockTableRecord
  2
block 200
340
0
102
{BLKREFS
331
6B5
102
}
  0
BLOCK_RECORD
  5
6B9
330
1
100
AcDbSymbolTableRecord
100
AcDbBlockTableRecord
  2
block 201
340
0
102
{BLKREFS
331
6BA
102
}
  0
BLOCK_RECORD
  5
6C1
330
1
100
AcDbSymbolTableRecord
100
AcDbBlockTableRecord
  2
block 202
340
0
102
{BLKREFS
331
6C2
102
}
  0
BLOCK_RECORD
  5
6C9
330
1
100
AcDbSymbolTableRecord
100
AcDbBlockTableRecord
  2
block 203
340
0
102
{BLKREFS
331
6CA
102
}
  0
BLOCK_RECORD
  5
6D1
330
1
100
AcDbSymbolTableRecord
100
AcDbBlockTableRecord
  2
block 204
340
0
102
{BLKREFS
331
6D2
102
}
  0
BLOCK_RECORD
  5
6D5
330
1
100
AcDbSymbolTableRecord
100
AcDbBlockTableRecord
  2
block 205
340
0
102
{BLKREFS
331
6D6
102
}
  0
BLOCK_RECORD
  5
6DD
330
1
100
AcDbSymbolTableRecord
100
AcDbBlockTableRecord
  2
block 206
340
0
102
{BLKREFS
331
6DE
102
}
  0
BLOCK_RECORD
  5
6E5
330
1
100
AcDbSymbolTableRecord
100
AcDbBlockTableRecord
  2
block 207
340
0
102
{BLKREFS
331
6E6
102
}
  0
BLOCK_RECORD
  5
6ED
330
1
100
AcDbSymbolTableRecord
100
AcDbBlockTableRecord
  2
block 208
340
0
102
{BLKREFS
331
6EE
102
}
  0
BLOCK_RECORD
  5
6F5
330
1
100
AcDbSymbolTableRecord
100
AcDbBlockTableRecord
  2
block 209
340
0
102
{BLKREFS
331
6F6
102
}
  0
BLOCK_RECORD
  5
700
330
1
100
AcDbSymbolTableRecord
100
AcDbBlockTableRecord
  2
block 210
340
0
102
{BLKREFS
331
701
102
}
  0
BLOCK_RECORD
  5
70B
330
1
100
AcDbSymbolTableRecord
100
AcDbBlockTableRecord
  2
block 211
340
0
102
{BLKREFS
331
70C
102
}
  0
BLOCK_RECORD
  5
710
330
1
100
AcDbSymbolTableRecord
100
AcDbBlockTableRecord
  2
block 212
340
0
102
{BLKREFS
331
711
102
}
  0
BLOCK_RECORD
  5
718
330
1
100
AcDbSymbolTableRecord
100
AcDbBlockTableRecord
  2
block 213
340
0
102
{BLKREFS
331
719
102
}
  0
BLOCK_RECORD
  5
720
330
1
100
AcDbSymbolTableRecord
100
AcDbBlockTableRecord
  2
block 214
340
0
102
{BLKREFS
331
721
102
}
  0
BLOCK_RECORD
  5
728
330
1
100
AcDbSymbolTableRecord
100
AcDbBlockTableRecord
  2
block 215
340
0
102
{BLKREFS
331
729
102
}
  0
BLOCK_RECORD
  5
731
330
1
100
AcDbSymbolTableRecord
100
AcDbBlockTableRecord
  2
block 216
340
0
102
{BLKREFS
331
732
102
}
  0
BLOCK_RECORD
  5
73A
330
1
100
AcDbSymbolTableRecord
100
AcDbBlockTableRecord
  2
block 217
340
0
102
{BLKREFS
331
73B
102
}
  0
BLOCK_RECORD
  5
743
330
1
100
AcDbSymbolTableRecord
100
AcDbBlockTableRecord
  2
block 218
340
0
102
{BLKREFS
331
744
102
}
  0
BLOCK_RECORD
  5
74C
330
1
100
AcDbSymbolTableRecord
100
AcDbBlockTableRecord
  2
block 219
340
0
102
{BLKREFS
331
74D
102
}
  0
BLOCK_RECORD
  5
755
330
1
100
AcDbSymbolTableRecord
100
AcDbBlockTableRecord
  2
block 220
340
0
102
{BLKREFS
331
756
102
}
  0
BLOCK_RECORD
  5
75E
330
1
100
AcDbSymbolTableRecord
100
AcDbBlockTableRecord
  2
block 221
340
0
102
{BLKREFS
331
75F
102
}
  0
BLOCK_RECORD
  5
762
330
1
100
AcDbSymbolTableRecord
100
AcDbBlockTableRecord
  2
block 222
340
0
102
{BLKREFS
331
763
102
}
  0
BLOCK_RECORD
  5
76A
330
1
100
AcDbSymbolTableRecord
100
AcDbBlockTableRecord
  2
block 223
340
0
102
{BLKREFS
331
76B
102
}
  0
BLOCK_RECORD
  5
772
330
1
100
AcDbSymbolTableRecord
100
AcDbBlockTableRecord
  2
block 224
340
0
102
{BLKREFS
331
773
102
}
  0
BLOCK_RECORD
  5
77A
330
1
100
AcDbSymbolTableRecord
100
AcDbBlockTableRecord
  2
block 225
340
0
102
{BLKREFS
331
77B
102
}
  0
BLOCK_RECORD
  5
782
330
1
100
AcDbSymbolTableRecord
100
AcDbBlockTableRecord
  2
block 226
340
0
102
{BLKREFS
331
783
102
}
  0
BLOCK_RECORD
  5
78D
330
1
100
AcDbSymbolTableRecord
100
AcDbBlockTableRecord
  2
block 227
340
0
102
{BLKREFS
331
78E
102
}
  0
BLOCK_RECORD
  5
798
330
1
100
AcDbSymbolTableRecord
100
AcDbBlockTableRecord
  2
block 228
340
0
102
{BLKREFS
331
799
102
}
  0
BLOCK_RECORD
  5
79D
330
1
100
AcDbSymbolTableRecord
100
AcDbBlockTableRecord
  2
block 229
340
0
102
{BLKREFS
331
79E
102
}
  0
BLOCK_RECORD
  5
7A5
330
1
100
AcDbSymbolTableRecord
100
AcDbBlockTableRecord
  2
block 230
340
0
102
{BLKREFS
331
7A6
102
}
  0
BLOCK_RECORD
  5
7AD
330
1
100
AcDbSymbolTableRecord
100
AcDbBlockTableRecord
  2
block 231
340
0
102
{BLKREFS
331
7AE
102
}
  0
BLOCK_RECORD
  5
7B5
330
1
100
AcDbSymbolTableRecord
100
AcDbBlockTableRecord
  2
block 232
340
0
102
{BLKREFS
331
7B6
102
}
  0
BLOCK_RECORD
  5
7B9
330
1
100
AcDbSymbolTableRecord
100
AcDbBlockTableRecord
  2
block 233
340
0
102
{BLKREFS
331
7BA
102
}
  0
BLOCK_RECORD
  5
7C1
330
1
100
AcDbSymbolTableRecord
100
AcDbBlockTableRecord
  2
block 234
340
0
102
{BLKREFS
331
7C2
102
}
  0
BLOCK_RECORD
  5
7C9
330
1
100
AcDbSymbolTableRecord
100
AcDbBlockTableRecord
  2
block 235
340
0
102
{BLKREFS
331
7CA
102
}
  0
BLOCK_RECORD
  5
7D1
330
1
100
AcDbSymbolTableRecord
100
AcDbBlockTableRecord
  2
block 236
340
0
102
{BLKREFS
331
7D2
102
}
  0
BLOCK_RECORD
  5
7D9
330
1
100
AcDbSymbolTableRecord
100
AcDbBlockTableRecord
  2
block 237
340
0
102
{BLKREFS
331
7DA
102
}
  0
BLOCK_RECORD
  5
7E4
330
1
100
AcDbSymbolTableRecord
100
AcDbBlockTableRecord
  2
block 238
340
0
102
{BLKREFS
331
7E5
102
}
  0
BLOCK_RECORD
  5
7EF
330
1
100
AcDbSymbolTableRecord
100
AcDbBlockTableRecord
  2
block 239
340
0
102
{BLKREFS
331
7F0
102
}
  0
BLOCK_RECORD
  5
7F4
330
1
100
AcDbSymbolTableRecord
100
AcDbBlockTableRecord
  2
block 240
340
0
102
{BLKREFS
331
7F5
102
}
  0
BLOCK_RECORD
  5
7FC
330
1
100
AcDbSymbolTableRecord
100
AcDbBlockTableRecord
  2
block 241
340
0
102
{BLKREFS
331
7FD
102
}
  0
BLOCK_RECORD
  5
804
330
1
100
AcDbSymbolTableRecord
100
AcDbBlockTableRecord
  2
block 242
340
0
102
{BLKREFS
331
805
102
}
  0
BLOCK_RECORD
  5
80C
330
1
100
AcDbSymbolTableRecord
100
AcDbBlockTableRecord
  2
block 243
340
0
102
{BLKREFS
331
80D
102
}
  0
BLOCK_RECORD
  5
810
330
1
100
AcDbSymbolTableRecord
100
AcDbBlockTableRecord
  2
block 244
340
0
102
{BLKREFS
331
811
102
}
  0
BLOCK_RECORD
  5
818
330
1
100
AcDbSymbolTableRecord
100
AcDbBlockTableRecord
  2
block 245
340
0
102
{BLKREFS
331
819
102
}
  0
BLOCK_RECORD
  5
820
330
1
100
AcDbSymbolTableRecord
100
AcDbBlockTableRecord
  2
block 246
340
0
102
{BLKREFS
331
821
102
}
  0
BLOCK_RECORD
  5
828
330
1
100
AcDbSymbolTableRecord
100
AcDbBlockTableRecord
  2
block 247
340
0
102
{BLKREFS
331
829
102
}
  0
BLOCK_RECORD
  5
830
330
1
100
AcDbSymbolTableRecord
100
AcDbBlockTableRecord
  2
block 248
340
0
102
{BLKREFS
331
831
102
}
  0
BLOCK_RECORD
  5
83B
330
1
100
AcDbSymbolTableRecord
100
AcDbBlockTableRecord
  2
block 249
340
0
102
{BLKREFS
331
83C
102
}
  0
BLOCK_RECORD
  5
846
330
1
100
AcDbSymbolTableRecord
100
AcDbBlockTableRecord
  2
block 250
340
0
102
{BLKREFS
331
847
102
}
  0
BLOCK_RECORD
  5
84B
330
1
100
AcDbSymbolTableRecord
100
AcDbBlockTableRecord
  2
block 251
340
0
102
{BLKREFS
331
84C
102
}
  0
BLOCK_RECORD
  5
853
330
1
100
AcDbSymbolTableRecord
100
AcDbBlockTableRecord
  2
block 252
340
0
102
{BLKREFS
331
854
102
}
  0
BLOCK_RECORD
  5
85B
330
1
100
AcDbSymbolTableRecord
100
AcDbBlockTableRecord
  2
block 253
340
0
102
{BLKREFS
331
85C
102
}
  0
BLOCK_RECORD
  5
863
330
1
100
AcDbSymbolTableRecord
100
AcDbBlockTableRecord
  2
block 254
340
0
102
{BLKREFS
331
864
102
}
  0
BLOCK_RECORD
  5
867
330
1
100
AcDbSymbolTableRecord
100
AcDbBlockTableRecord
  2
block 255
340
0
102
{BLKREFS
331
868
102
}
  0
BLOCK_RECORD
  5
86F
330
1
100
AcDbSymbolTableRecord
100
AcDbBlockTableRecord
  2
block 256
340
0
102
{BLKREFS
331
870
102
}
  0
BLOCK_RECORD
  5
877
330
1
100
AcDbSymbolTableRecord
100
AcDbBlockTableRecord
  2
block 257
340
0
102
{BLKREFS
331
878
102
}
  0
BLOCK_RECORD
  5
87C
330
1
100
AcDbSymbolTableRecord
100
AcDbBlockTableRecord
  2
block 258
340
0
102
{BLKREFS
331
87D
102
}
  0
BLOCK_RECORD
  5
881
330
1
100
AcDbSymbolTableRecord
100
AcDbBlockTableRecord
  2
block 259
340
0
102
{BLKREFS
331
882
102
}
  0
BLOCK_RECORD
  5
886
330
1
100
AcDbSymbolTableRecord
100
AcDbBlockTableRecord
  2
block 260
340
0
102
{BLKREFS
331
887
102
}
  0
BLOCK_RECORD
  5
891
330
1
100
AcDbSymbolTableRecord
100
AcDbBlockTableRecord
  2
block 261
340
0
102
{BLKREFS
331
892
102
}
  0
BLOCK_RECORD
  5
89C
330
1
100
AcDbSymbolTableRecord
100
AcDbBlockTableRecord
  2
block 262
340
0
102
{BLKREFS
331
89D
102
}
  0
BLOCK_RECORD
  5
8A1
330
1
100
AcDbSymbolTableRecord
100
AcDbBlockTableRecord
  2
block 263
340
0
102
{BLKREFS
331
8A2
102
}
  0
BLOCK_RECORD
  5
8A9
330
1
100
AcDbSymbolTableRecord
100
AcDbBlockTableRecord
  2
block 264
340
0
102
{BLKREFS
331
8AA
102
}
  0
BLOCK_RECORD
  5
8B1
330
1
100
AcDbSymbolTableRecord
100
AcDbBlockTableRecord
  2
block 265
340
0
102
{BLKREFS
331
8B2
102
}
  0
BLOCK_RECORD
  5
8B9
330
1
100
AcDbSymbolTableRecord
100
AcDbBlockTableRecord
  2
block 266
340
0
102
{BLKREFS
331
8BA
102
}
  0
BLOCK_RECORD
  5
8C1
330
1
100
AcDbSymbolTableRecord
100
AcDbBlockTableRecord
  2
block 267
340
0
102
{BLKREFS
331
8C2
102
}
  0
BLOCK_RECORD
  5
8C9
330
1
100
AcDbSymbolTableRecord
100
AcDbBlockTableRecord
  2
block 268
340
0
102
{BLKREFS
331
8CA
102
}
  0
BLOCK_RECORD
  5
8CD
330
1
100
AcDbSymbolTableRecord
100
AcDbBlockTableRecord
  2
block 269
340
0
102
{BLKREFS
331
8CE
102
}
  0
BLOCK_RECORD
  5
8D5
330
1
100
AcDbSymbolTableRecord
100
AcDbBlockTableRecord
  2
block 270
340
0
102
{BLKREFS
331
8D6
102
}
  0
BLOCK_RECORD
  5
8DD
330
1
100
AcDbSymbolTableRecord
100
AcDbBlockTableRecord
  2
block 271
340
0
102
{BLKREFS
331
8DE
102
}
  0
BLOCK_RECORD
  5
8E5
330
1
100
AcDbSymbolTableRecord
100
AcDbBlockTableRecord
  2
block 272
340
0
102
{BLKREFS
331
8E6
102
}
  0
BLOCK_RECORD
  5
8ED
330
1
100
AcDbSymbolTableRecord
100
AcDbBlockTableRecord
  2
block 273
340
0
102
{BLKREFS
331
8EE
102
}
  0
BLOCK_RECORD
  5
8F8
330
1
100
AcDbSymbolTableRecord
100
AcDbBlockTableRecord
  2
block 274
340
0
102
{BLKREFS
331
8F9
102
}
  0
BLOCK_RECORD
  5
903
330
1
100
AcDbSymbolTableRecord
100
AcDbBlockTableRecord
  2
block 275
340
0
102
{BLKREFS
331
904
102
}
  0
BLOCK_RECORD
  5
908
330
1
100
AcDbSymbolTableRecord
100
AcDbBlockTableRecord
  2
block 276
340
0
102
{BLKREFS
331
909
102
}
  0
BLOCK_RECORD
  5
910
330
1
100
AcDbSymbolTableRecord
100
AcDbBlockTableRecord
  2
block 277
340
0
102
{BLKREFS
331
911
102
}
  0
BLOCK_RECORD
  5
918
330
1
100
AcDbSymbolTableRecord
100
AcDbBlockTableRecord
  2
block 278
340
0
102
{BLKREFS
331
919
102
}
  0
ENDTAB
  0
ENDSEC
  0
SECTION
  2
BLOCKS
  0
BLOCK
  5
20
330
1F
100
AcDbEntity
  8
0
100
AcDbBlockBegin
  2
*Model_Space
 70
     0
 71
     0
 10
0.0
 20
0.0
 30
0.0
  3
*Model_Space
  1

  0
ENDBLK
  5
21
330
1F
100
AcDbEntity
  8
0
100
AcDbBlockEnd
  0
BLOCK
  5
1C
330
1B
100
AcDbEntity
 67
     1
  8
0
100
AcDbBlockBegin
  2
*Paper_Space
 70
     0
 71
     0
 10
0.0
 20
0.0
 30
0.0
  3
*Paper_Space
  1

  0
ENDBLK
  5
1D
330
1B
100
AcDbEntity
 67
     1
  8
0
100
AcDbBlockEnd
  0
BLOCK
  5
24
330
23
100
AcDbEntity
  8
0
100
AcDbBlockBegin
  2
*Paper_Space0
 70
     0
 71
     0
 10
0.0
 20
0.0
 30
0.0
  3
*Paper_Space0
  1

  0
ENDBLK
  5
25
330
23
100
AcDbEntity
  8
0
100
AcDbBlockEnd
  0
BLOCK
  5
3E
330
3C
100
AcDbEntity
  8
0
100
AcDbBlockBegin
  2
block 2
 70
     0
 71
     0
 10
0.0
 20
0.0
 30
0.0
  3
block 2
  1

  0
POLYLINE
  5
40
330
3C
100
AcDbEntity
  8
cuerpo
 62
     7
420
 16777215
370
    30
100
AcDb2dPolyline
 66
     1
 10
0.0
 20
0.0
 30
0.0
  0
VERTEX
  5
41
330
40
100
AcDbEntity
  8
cuerpo
 62
     7
420
 16777215
370
    30
100
AcDbVertex
100
AcDb2dVertex
 10
41.00542126796045
 20
47.95676268332331
 30
0.0
  0
VERTEX
  5
42
330
40
100
AcDbEntity
  8
cuerpo
 62
     7
420
 16777215
370
    30
100
AcDbVertex
100
AcDb2dVertex
 10
51.63285182085915
 20
47.95676268332331
 30
0.0
  0
SEQEND
  5
43
330
40
100
AcDbEntity
  8
cuerpo
370
    30
  0
ENDBLK
  5
3F
330
3C
100
AcDbEntity
  8
0
100
AcDbBlockEnd
  0
BLOCK
  5
46
330
44
100
AcDbEntity
  8
0
100
AcDbBlockBegin
  2
block 3
 70
     0
 71
     0
 10
0.0
 20
0.0
 30
0.0
  3
block 3
  1

  0
POLYLINE
  5
48
330
44
100
AcDbEntity
  8
cuerpo
 62
     7
420
 16777215
370
    30
100
AcDb2dPolyline
 66
     1
 10
0.0
 20
0.0
 30
0.0
  0
VERTEX
  5
49
330
48
100
AcDbEntity
  8
cuerpo
 62
     7
420
 16777215
370
    30
100
AcDbVertex
100
AcDb2dVertex
 10
41.00542126796045
 20
47.95676268332331
 30
0.0
  0
VERTEX
  5
4A
330
48
100
AcDbEntity
  8
cuerpo
 62
     7
420
 16777215
370
    30
100
AcDbVertex
100
AcDb2dVertex
 10
42.1864000003041
 20
47.95676268332331
 30
0.0
  0
SEQEND
  5
4B
330
48
100
AcDbEntity
  8
cuerpo
370
    30
  0
ENDBLK
  5
47
330
44
100
AcDbEntity
  8
0
100
AcDbBlockEnd
  0
BLOCK
  5
4E
330
4C
100
AcDbEntity
  8
0
100
AcDbBlockBegin
  2
block 4
 70
     0
 71
     0
 10
0.0
 20
0.0
 30
0.0
  3
block 4
  1

  0
POLYLINE
  5
50
330
4C
100
AcDbEntity
  8
cuerpo
 62
     7
420
 16777215
370
    30
100
AcDb2dPolyline
 66
     1
 10
0.0
 20
0.0
 30
0.0
  0
VERTEX
  5
51
330
50
100
AcDbEntity
  8
cuerpo
 62
     7
420
 16777215
370
    30
100
AcDbVertex
100
AcDb2dVertex
 10
40.41510415656289
 20
44.67358668588022
 30
0.0
  0
VERTEX
  5
52
330
50
100
AcDbEntity
  8
cuerpo
 62
     7
420
 16777215
370
    30
100
AcDbVertex
100
AcDb2dVertex
 10
52.22316893225671
 20
44.67358668588022
 30
0.0
  0
SEQEND
  5
53
330
50
100
AcDbEntity
  8
cuerpo
370
    30
  0
ENDBLK
  5
4F
330
4C
100
AcDbEntity
  8
0
100
AcDbBlockEnd
  0
BLOCK
  5
56
330
54
100
AcDbEntity
  8
0
100
AcDbBlockBegin
  2
block 5
 70
     0
 71
     0
 10
0.0
 20
0.0
 30
0.0
  3
block 5
  1

  0
POLYLINE
  5
58
330
54
100
AcDbEntity
  8
cuerpo
 62
     7
420
 16777215
370
    30
100
AcDb2dPolyline
 66
     1
 10
0.0
 20
0.0
 30
0.0
  0
VERTEX
  5
59
330
58
100
AcDbEntity
  8
cuerpo
 62
     7
420
 16777215
370
    30
100
AcDbVertex
100
AcDb2dVertex
 10
45.46285806155095
 20
37.22322318947892
 30
0.0
  0
VERTEX
  5
5A
330
58
100
AcDbEntity
  8
cuerpo
 62
     7
420
 16777215
370
    30
100
AcDbVertex
100
AcDb2dVertex
 10
51.11522622420036
 20
38.73768716479475
 30
0.0
  0
SEQEND
  5
5B
330
58
100
AcDbEntity
  8
cuerpo
370
    30
  0
ENDBLK
  5
57
330
54
100
AcDbEntity
  8
0
100
AcDbBlockEnd
  0
BLOCK
  5
5E
330
5C
100
AcDbEntity
  8
0
100
AcDbBlockBegin
  2
block 6
 70
     0
 71
     0
 10
0.0
 20
0.0
 30
0.0
  3
block 6
  1

  0
POLYLINE
  5
60
330
5C
100
AcDbEntity
  8
cuerpo
 62
     7
420
 16777215
370
    30
100
AcDb2dPolyline
 66
     1
 10
0.0
 20
0.0
 30
0.0
  0
VERTEX
  5
61
330
60
100
AcDbEntity
  8
cuerpo
 62
     7
420
 16777215
370
    30
100
AcDbVertex
100
AcDb2dVertex
 10
46.53376599314087
 20
34.71381563802294
 30
0.0
  0
VERTEX
  5
62
330
60
100
AcDbEntity
  8
cuerpo
 62
     7
420
 16777215
370
    30
100
AcDbVertex
100
AcDb2dVertex
 10
46.53376599314087
 20
32.90617403691235
 30
0.0
  0
SEQEND
  5
63
330
60
100
AcDbEntity
  8
cuerpo
370
    30
  0
ENDBLK
  5
5F
330
5C
100
AcDbEntity
  8
0
100
AcDbBlockEnd
  0
BLOCK
  5
66
330
64
100
AcDbEntity
  8
0
100
AcDbBlockBegin
  2
block 7
 70
     0
 71
     0
 10
0.0
 20
0.0
 30
0.0
  3
block 7
  1

  0
POLYLINE
  5
68
330
64
100
AcDbEntity
  8
cuerpo
 62
     7
420
 16777215
370
    30
100
AcDb2dPolyline
 66
     1
 10
0.0
 20
0.0
 30
0.0
  0
VERTEX
  5
69
330
68
100
AcDbEntity
  8
cuerpo
 62
     7
420
 16777215
370
    30
100
AcDbVertex
100
AcDb2dVertex
 10
45.46285806155095
 20
34.42856173184425
 30
0.0
  0
VERTEX
  5
6A
330
68
100
AcDbEntity
  8
cuerpo
 62
     7
420
 16777215
370
    30
100
AcDbVertex
100
AcDb2dVertex
 10
51.11522622420036
 20
35.94302570716008
 30
0.0
  0
SEQEND
  5
6B
330
68
100
AcDbEntity
  8
cuerpo
370
    30
  0
ENDBLK
  5
67
330
64
100
AcDbEntity
  8
0
100
AcDbBlockEnd
  0
BLOCK
  5
6E
330
6C
100
AcDbEntity
  8
0
100
AcDbBlockBegin
  2
block 8
 70
     0
 71
     0
 10
0.0
 20
0.0
 30
0.0
  3
block 8
  1

  0
SPLINE
  5
70
330
6C
100
AcDbEntity
  8
cuerpo
 62
     7
420
 16777215
370
    30
100
AcDbSpline
210
0.0
220
0.0
230
1.0
 70
     8
 71
     3
 72
    11
 73
     7
 74
     0
 42
0.0000000001
 43
0.0000000001
 40
0.0
 40
0.0
 40
0.0
 40
0.0
 40
1.0
 40
1.0
 40
1.0
 40
2.0
 40
2.0
 40
2.0
 40
2.0
 10
48.77066649171358
 20
29.00942653354626
 30
0.0
 10
48.98167859018514
 20
29.0252739727784
 30
0.0
 10
49.13980847295811
 20
29.20924207169075
 30
0.0
 10
49.12413328850022
 20
29.42042642493656
 30
0.0
 10
49.12017142869218
 20
29.46969129037564
 30
0.0
 10
49.10690781107397
 20
29.51826713671766
 30
0.0
 10
49.08451469041984
 20
29.56270886847738
 30
0.0
  0
ENDBLK
  5
6F
330
6C
100
AcDbEntity
  8
0
100
AcDbBlockEnd
  0
BLOCK
  5
73
330
71
100
AcDbEntity
  8
0
100
AcDbBlockBegin
  2
block 9
 70
     0
 71
     0
 10
0.0
 20
0.0
 30
0.0
  3
block 9
  1

  0
SPLINE
  5
75
330
71
100
AcDbEntity
  8
cuerpo
 62
     7
420
 16777215
370
    30
100
AcDbSpline
210
0.0
220
0.0
230
1.0
 70
     8
 71
     3
 72
    11
 73
     7
 74
     0
 42
0.0000000001
 43
0.0000000001
 40
0.0
 40
0.0
 40
0.0
 40
0.0
 40
1.0
 40
1.0
 40
1.0
 40
2.0
 40
2.0
 40
2.0
 40
2.0
 10
46.3315388881567
 20
29.56270886847738
 30
0.0
 10
46.2369710170866
 20
29.37322861678864
 30
0.0
 10
46.3136243916334
 20
29.14344074792248
 30
0.0
 10
46.50276013377362
 20
29.04904513162663
 30
0.0
 10
46.5473741203076
 20
29.02665201097251
 30
0.0
 10
46.59577771187536
 20
29.01321613858003
 30
0.0
 10
46.64538708686296
 20
29.00942653354626
 30
0.0
  0
ENDBLK
  5
74
330
71
100
AcDbEntity
  8
0
100
AcDbBlockEnd
  0
BLOCK
  5
78
330
76
100
AcDbEntity
  8
0
100
AcDbBlockBegin
  2
block 10
 70
     0
 71
     0
 10
0.0
 20
0.0
 30
0.0
  3
block 10
  1

  0
POLYLINE
  5
7A
330
76
100
AcDbEntity
  8
cuerpo
 62
     7
420
 16777215
370
    30
100
AcDb2dPolyline
 66
     1
 10
0.0
 20
0.0
 30
0.0
  0
VERTEX
  5
7B
330
7A
100
AcDbEntity
  8
cuerpo
 62
     7
420
 16777215
370
    30
100
AcDbVertex
100
AcDb2dVertex
 10
48.88900552163192
 20
29.95407171560176
 30
0.0
  0
VERTEX
  5
7C
330
7A
100
AcDbEntity
  8
cuerpo
 62
     7
420
 16777215
370
    30
100
AcDbVertex
100
AcDb2dVertex
 10
48.88900552163192
 20
31.60702852942463
 30
0.0
  0
SEQEND
  5
7D
330
7A
100
AcDbEntity
  8
cuerpo
370
    30
  0
ENDBLK
  5
79
330
76
100
AcDbEntity
  8
0
100
AcDbBlockEnd
  0
BLOCK
  5
80
330
7E
100
AcDbEntity
  8
0
100
AcDbBlockBegin
  2
block 11
 70
     0
 71
     0
 10
0.0
 20
0.0
 30
0.0
  3
block 11
  1

  0
POLYLINE
  5
82
330
7E
100
AcDbEntity
  8
cuerpo
 62
     7
420
 16777215
370
    30
100
AcDb2dPolyline
 66
     1
 10
0.0
 20
0.0
 30
0.0
  0
VERTEX
  5
83
330
82
100
AcDbEntity
  8
cuerpo
 62
     7
420
 16777215
370
    30
100
AcDbVertex
100
AcDb2dVertex
 10
49.1251668171458
 20
32.52204589030699
 30
0.0
  0
VERTEX
  5
84
330
82
100
AcDbEntity
  8
cuerpo
 62
     7
420
 16777215
370
    30
100
AcDbVertex
100
AcDb2dVertex
 10
49.1251668171458
 20
32.90617403691235
 30
0.0
  0
SEQEND
  5
85
330
82
100
AcDbEntity
  8
cuerpo
370
    30
  0
ENDBLK
  5
81
330
7E
100
AcDbEntity
  8
0
100
AcDbBlockEnd
  0
BLOCK
  5
88
330
86
100
AcDbEntity
  8
0
100
AcDbBlockBegin
  2
block 12
 70
     0
 71
     0
 10
0.0
 20
0.0
 30
0.0
  3
block 12
  1

  0
SPLINE
  5
8A
330
86
100
AcDbEntity
  8
cuerpo
 62
     7
420
 16777215
370
    30
100
AcDbSpline
210
0.0
220
0.0
230
1.0
 70
     8
 71
     3
 72
     8
 73
     4
 74
     0
 42
0.0000000001
 43
0.0000000001
 40
0.0
 40
0.0
 40
0.0
 40
0.0
 40
1.0
 40
1.0
 40
1.0
 40
1.0
 10
48.88900552163192
 20
31.60702852942463
 30
0.0
 10
49.0438625636939
 20
31.88745930192397
 30
0.0
 10
49.1251668171458
 20
32.20199651972728
 30
0.0
 10
49.1251668171458
 20
32.52204589030699
 30
0.0
  0
ENDBLK
  5
89
330
86
100
AcDbEntity
  8
0
100
AcDbBlockEnd
  0
BLOCK
  5
8D
330
8B
100
AcDbEntity
  8
0
100
AcDbBlockBegin
  2
block 13
 70
     0
 71
     0
 10
0.0
 20
0.0
 30
0.0
  3
block 13
  1

  0
POLYLINE
  5
8F
330
8B
100
AcDbEntity
  8
cuerpo
 62
     7
420
 16777215
370
    30
100
AcDb2dPolyline
 66
     1
 10
0.0
 20
0.0
 30
0.0
  0
VERTEX
  5
90
330
8F
100
AcDbEntity
  8
cuerpo
 62
     7
420
 16777215
370
    30
100
AcDbVertex
100
AcDb2dVertex
 10
48.88900552163192
 20
29.95407171560176
 30
0.0
  0
VERTEX
  5
91
330
8F
100
AcDbEntity
  8
cuerpo
 62
     7
420
 16777215
370
    30
100
AcDbVertex
100
AcDb2dVertex
 10
49.08451469041984
 20
29.56270886847738
 30
0.0
  0
SEQEND
  5
92
330
8F
100
AcDbEntity
  8
cuerpo
370
    30
  0
ENDBLK
  5
8E
330
8B
100
AcDbEntity
  8
0
100
AcDbBlockEnd
  0
BLOCK
  5
95
330
93
100
AcDbEntity
  8
0
100
AcDbBlockBegin
  2
block 14
 70
     0
 71
     0
 10
0.0
 20
0.0
 30
0.0
  3
block 14
  1

  0
POLYLINE
  5
97
330
93
100
AcDbEntity
  8
cuerpo
 62
     7
420
 16777215
370
    30
100
AcDb2dPolyline
 66
     1
 10
0.0
 20
0.0
 30
0.0
  0
VERTEX
  5
98
330
97
100
AcDbEntity
  8
cuerpo
 62
     7
420
 16777215
370
    30
100
AcDbVertex
100
AcDb2dVertex
 10
48.80029431288673
 20
29.95407171560176
 30
0.0
  0
VERTEX
  5
99
330
97
100
AcDbEntity
  8
cuerpo
 62
     7
420
 16777215
370
    30
100
AcDbVertex
100
AcDb2dVertex
 10
48.80029431288673
 20
31.60702852942463
 30
0.0
  0
SEQEND
  5
9A
330
97
100
AcDbEntity
  8
cuerpo
370
    30
  0
ENDBLK
  5
96
330
93
100
AcDbEntity
  8
0
100
AcDbBlockEnd
  0
BLOCK
  5
9D
330
9B
100
AcDbEntity
  8
0
100
AcDbBlockBegin
  2
block 15
 70
     0
 71
     0
 10
0.0
 20
0.0
 30
0.0
  3
block 15
  1

  0
POLYLINE
  5
9F
330
9B
100
AcDbEntity
  8
cuerpo
 62
     7
420
 16777215
370
    30
100
AcDb2dPolyline
 66
     1
 10
0.0
 20
0.0
 30
0.0
  0
VERTEX
  5
A0
330
9F
100
AcDbEntity
  8
cuerpo
 62
     7
420
 16777215
370
    30
100
AcDbVertex
100
AcDb2dVertex
 10
48.00327147237419
 20
29.95407171560176
 30
0.0
  0
VERTEX
  5
A1
330
9F
100
AcDbEntity
  8
cuerpo
 62
     7
420
 16777215
370
    30
100
AcDbVertex
100
AcDb2dVertex
 10
48.00327147237419
 20
31.60702852942463
 30
0.0
  0
SEQEND
  5
A2
330
9F
100
AcDbEntity
  8
cuerpo
370
    30
  0
ENDBLK
  5
9E
330
9B
100
AcDbEntity
  8
0
100
AcDbBlockEnd
  0
BLOCK
  5
A5
330
A3
100
AcDbEntity
  8
0
100
AcDbBlockBegin
  2
block 16
 70
     0
 71
     0
 10
0.0
 20
0.0
 30
0.0
  3
block 16
  1

  0
POLYLINE
  5
A7
330
A3
100
AcDbEntity
  8
cuerpo
 62
     7
420
 16777215
370
    30
100
AcDb2dPolyline
 66
     1
 10
0.0
 20
0.0
 30
0.0
  0
VERTEX
  5
A8
330
A7
100
AcDbEntity
  8
cuerpo
 62
     7
420
 16777215
370
    30
100
AcDbVertex
100
AcDb2dVertex
 10
47.41278210620236
 20
29.95407171560176
 30
0.0
  0
VERTEX
  5
A9
330
A7
100
AcDbEntity
  8
cuerpo
 62
     7
420
 16777215
370
    30
100
AcDbVertex
100
AcDb2dVertex
 10
47.41278210620236
 20
31.60702852942463
 30
0.0
  0
SEQEND
  5
AA
330
A7
100
AcDbEntity
  8
cuerpo
370
    30
  0
ENDBLK
  5
A6
330
A3
100
AcDbEntity
  8
0
100
AcDbBlockEnd
  0
BLOCK
  5
AD
330
AB
100
AcDbEntity
  8
0
100
AcDbBlockBegin
  2
block 17
 70
     0
 71
     0
 10
0.0
 20
0.0
 30
0.0
  3
block 17
  1

  0
POLYLINE
  5
AF
330
AB
100
AcDbEntity
  8
cuerpo
 62
     7
420
 16777215
370
    30
100
AcDb2dPolyline
 66
     1
 10
0.0
 20
0.0
 30
0.0
  0
VERTEX
  5
B0
330
AF
100
AcDbEntity
  8
cuerpo
 62
     7
420
 16777215
370
    30
100
AcDbVertex
100
AcDb2dVertex
 10
48.20997720148917
 20
29.95407171560176
 30
0.0
  0
VERTEX
  5
B1
330
AF
100
AcDbEntity
  8
cuerpo
 62
     7
420
 16777215
370
    30
100
AcDbVertex
100
AcDb2dVertex
 10
48.20997720148917
 20
31.60702852942463
 30
0.0
  0
SEQEND
  5
B2
330
AF
100
AcDbEntity
  8
cuerpo
370
    30
  0
ENDBLK
  5
AE
330
AB
100
AcDbEntity
  8
0
100
AcDbBlockEnd
  0
BLOCK
  5
B5
330
B3
100
AcDbEntity
  8
0
100
AcDbBlockBegin
  2
block 18
 70
     0
 71
     0
 10
0.0
 20
0.0
 30
0.0
  3
block 18
  1

  0
SPLINE
  5
B7
330
B3
100
AcDbEntity
  8
cuerpo
 62
     7
420
 16777215
370
    30
100
AcDbSpline
210
0.0
220
0.0
230
1.0
 70
     8
 71
     3
 72
    11
 73
     7
 74
     0
 42
0.0000000001
 43
0.0000000001
 40
0.0
 40
0.0
 40
0.0
 40
0.0
 40
1.0
 40
1.0
 40
1.0
 40
2.0
 40
2.0
 40
2.0
 40
2.0
 10
47.41278210620236
 20
29.95407171560176
 30
0.0
 10
47.41278210620236
 20
29.79111869914944
 30
0.0
 10
47.54507377283596
 20
29.65882703251585
 30
0.0
 10
47.70819904406254
 20
29.65882703251585
 30
0.0
 10
47.87132431528912
 20
29.65882703251585
 30
0.0
 10
48.00327147237419
 20
29.79111869914944
 30
0.0
 10
48.00327147237419
 20
29.95407171560176
 30
0.0
  0
ENDBLK
  5
B6
330
B3
100
AcDbEntity
  8
0
100
AcDbBlockEnd
  0
BLOCK
  5
BA
330
B8
100
AcDbEntity
  8
0
100
AcDbBlockBegin
  2
block 19
 70
     0
 71
     0
 10
0.0
 20
0.0
 30
0.0
  3
block 19
  1

  0
SPLINE
  5
BC
330
B8
100
AcDbEntity
  8
cuerpo
 62
     7
420
 16777215
370
    30
100
AcDbSpline
210
0.0
220
0.0
230
1.0
 70
     8
 71
     3
 72
    11
 73
     7
 74
     0
 42
0.0000000001
 43
0.0000000001
 40
0.0
 40
0.0
 40
0.0
 40
0.0
 40
1.0
 40
1.0
 40
1.0
 40
2.0
 40
2.0
 40
2.0
 40
2.0
 10
48.20997720148917
 20
29.95407171560176
 30
0.0
 10
48.20997720148917
 20
29.79111869914944
 30
0.0
 10
48.3420966133485
 20
29.65882703251585
 30
0.0
 10
48.50522188457509
 20
29.65882703251585
 30
0.0
 10
48.66817490102741
 20
29.65882703251585
 30
0.0
 10
48.80029431288673
 20
29.79111869914944
 30
0.0
 10
48.80029431288673
 20
29.95407171560176
 30
0.0
  0
ENDBLK
  5
BB
330
B8
100
AcDbEntity
  8
0
100
AcDbBlockEnd
  0
BLOCK
  5
BF
330
BD
100
AcDbEntity
  8
0
100
AcDbBlockBegin
  2
block 20
 70
     0
 71
     0
 10
0.0
 20
0.0
 30
0.0
  3
block 20
  1

  0
SPLINE
  5
C1
330
BD
100
AcDbEntity
  8
cuerpo
 62
     7
420
 16777215
370
    30
100
AcDbSpline
210
0.0
220
0.0
230
1.0
 70
     8
 71
     3
 72
    11
 73
     7
 74
     0
 42
0.0000000001
 43
0.0000000001
 40
0.0
 40
0.0
 40
0.0
 40
0.0
 40
1.0
 40
1.0
 40
1.0
 40
2.0
 40
2.0
 40
2.0
 40
2.0
 10
48.80029431288673
 20
31.60702852942463
 30
0.0
 10
48.80029431288673
 20
31.77032605542547
 30
0.0
 10
48.66817490102741
 20
31.90261772205907
 30
0.0
 10
48.50522188457509
 20
31.90261772205907
 30
0.0
 10
48.3420966133485
 20
31.90261772205907
 30
0.0
 10
48.20997720148917
 20
31.77032605542547
 30
0.0
 10
48.20997720148917
 20
31.60702852942463
 30
0.0
  0
ENDBLK
  5
C0
330
BD
100
AcDbEntity
  8
0
100
AcDbBlockEnd
  0
BLOCK
  5
C4
330
C2
100
AcDbEntity
  8
0
100
AcDbBlockBegin
  2
block 21
 70
     0
 71
     0
 10
0.0
 20
0.0
 30
0.0
  3
block 21
  1

  0
SPLINE
  5
C6
330
C2
100
AcDbEntity
  8
cuerpo
 62
     7
420
 16777215
370
    30
100
AcDbSpline
210
0.0
220
0.0
230
1.0
 70
     8
 71
     3
 72
    11
 73
     7
 74
     0
 42
0.0000000001
 43
0.0000000001
 40
0.0
 40
0.0
 40
0.0
 40
0.0
 40
1.0
 40
1.0
 40
1.0
 40
2.0
 40
2.0
 40
2.0
 40
2.0
 10
48.00327147237419
 20
31.60702852942463
 30
0.0
 10
48.00327147237419
 20
31.77032605542547
 30
0.0
 10
47.87132431528912
 20
31.90261772205907
 30
0.0
 10
47.70819904406254
 20
31.90261772205907
 30
0.0
 10
47.54507377283596
 20
31.90261772205907
 30
0.0
 10
47.41278210620236
 20
31.77032605542547
 30
0.0
 10
47.41278210620236
 20
31.60702852942463
 30
0.0
  0
ENDBLK
  5
C5
330
C2
100
AcDbEntity
  8
0
100
AcDbBlockEnd
  0
BLOCK
  5
C9
330
C7
100
AcDbEntity
  8
0
100
AcDbBlockBegin
  2
block 22
 70
     0
 71
     0
 10
0.0
 20
0.0
 30
0.0
  3
block 22
  1

  0
POLYLINE
  5
CB
330
C7
100
AcDbEntity
  8
cuerpo
 62
     7
420
 16777215
370
    30
100
AcDb2dPolyline
 66
     1
 10
0.0
 20
0.0
 30
0.0
  0
VERTEX
  5
CC
330
CB
100
AcDbEntity
  8
cuerpo
 62
     7
420
 16777215
370
    30
100
AcDbVertex
100
AcDb2dVertex
 10
46.29105901620502
 20
32.52204589030699
 30
0.0
  0
VERTEX
  5
CD
330
CB
100
AcDbEntity
  8
cuerpo
 62
     7
420
 16777215
370
    30
100
AcDbVertex
100
AcDb2dVertex
 10
46.29105901620502
 20
32.90617403691235
 30
0.0
  0
SEQEND
  5
CE
330
CB
100
AcDbEntity
  8
cuerpo
370
    30
  0
ENDBLK
  5
CA
330
C7
100
AcDbEntity
  8
0
100
AcDbBlockEnd
  0
BLOCK
  5
D1
330
CF
100
AcDbEntity
  8
0
100
AcDbBlockBegin
  2
block 23
 70
     0
 71
     0
 10
0.0
 20
0.0
 30
0.0
  3
block 23
  1

  0
SPLINE
  5
D3
330
CF
100
AcDbEntity
  8
cuerpo
 62
     7
420
 16777215
370
    30
100
AcDbSpline
210
0.0
220
0.0
230
1.0
 70
     8
 71
     3
 72
     8
 73
     4
 74
     0
 42
0.0000000001
 43
0.0000000001
 40
0.0
 40
0.0
 40
0.0
 40
0.0
 40
1.0
 40
1.0
 40
1.0
 40
1.0
 10
46.29105901620502
 20
32.52204589030699
 30
0.0
 10
46.29105901620502
 20
32.20199651972728
 30
0.0
 10
46.37236326965691
 20
31.88745930192397
 30
0.0
 10
46.52739256649316
 20
31.60702852942463
 30
0.0
  0
ENDBLK
  5
D2
330
CF
100
AcDbEntity
  8
0
100
AcDbBlockEnd
  0
BLOCK
  5
D6
330
D4
100
AcDbEntity
  8
0
100
AcDbBlockBegin
  2
block 24
 70
     0
 71
     0
 10
0.0
 20
0.0
 30
0.0
  3
block 24
  1

  0
POLYLINE
  5
D8
330
D4
100
AcDbEntity
  8
cuerpo
 62
     7
420
 16777215
370
    30
100
AcDb2dPolyline
 66
     1
 10
0.0
 20
0.0
 30
0.0
  0
VERTEX
  5
D9
330
D8
100
AcDbEntity
  8
cuerpo
 62
     7
420
 16777215
370
    30
100
AcDbVertex
100
AcDb2dVertex
 10
46.52739256649316
 20
29.95407171560176
 30
0.0
  0
VERTEX
  5
DA
330
D8
100
AcDbEntity
  8
cuerpo
 62
     7
420
 16777215
370
    30
100
AcDbVertex
100
AcDb2dVertex
 10
46.3315388881567
 20
29.56270886847738
 30
0.0
  0
SEQEND
  5
DB
330
D8
100
AcDbEntity
  8
cuerpo
370
    30
  0
ENDBLK
  5
D7
330
D4
100
AcDbEntity
  8
0
100
AcDbBlockEnd
  0
BLOCK
  5
DE
330
DC
100
AcDbEntity
  8
0
100
AcDbBlockBegin
  2
block 25
 70
     0
 71
     0
 10
0.0
 20
0.0
 30
0.0
  3
block 25
  1

  0
POLYLINE
  5
E0
330
DC
100
AcDbEntity
  8
cuerpo
 62
     7
420
 16777215
370
    30
100
AcDb2dPolyline
 66
     1
 10
0.0
 20
0.0
 30
0.0
  0
VERTEX
  5
E1
330
E0
100
AcDbEntity
  8
cuerpo
 62
     7
420
 16777215
370
    30
100
AcDbVertex
100
AcDb2dVertex
 10
46.61575926568981
 20
29.95407171560176
 30
0.0
  0
VERTEX
  5
E2
330
E0
100
AcDbEntity
  8
cuerpo
 62
     7
420
 16777215
370
    30
100
AcDbVertex
100
AcDb2dVertex
 10
46.61575926568981
 20
31.60702852942463
 30
0.0
  0
SEQEND
  5
E3
330
E0
100
AcDbEntity
  8
cuerpo
370
    30
  0
ENDBLK
  5
DF
330
DC
100
AcDbEntity
  8
0
100
AcDbBlockEnd
  0
BLOCK
  5
E6
330
E4
100
AcDbEntity
  8
0
100
AcDbBlockBegin
  2
block 26
 70
     0
 71
     0
 10
0.0
 20
0.0
 30
0.0
  3
block 26
  1

  0
POLYLINE
  5
E8
330
E4
100
AcDbEntity
  8
cuerpo
 62
     7
420
 16777215
370
    30
100
AcDb2dPolyline
 66
     1
 10
0.0
 20
0.0
 30
0.0
  0
VERTEX
  5
E9
330
E8
100
AcDbEntity
  8
cuerpo
 62
     7
420
 16777215
370
    30
100
AcDbVertex
100
AcDb2dVertex
 10
47.20624863186163
 20
29.95407171560176
 30
0.0
  0
VERTEX
  5
EA
330
E8
100
AcDbEntity
  8
cuerpo
 62
     7
420
 16777215
370
    30
100
AcDbVertex
100
AcDb2dVertex
 10
47.20624863186163
 20
31.60702852942463
 30
0.0
  0
SEQEND
  5
EB
330
E8
100
AcDbEntity
  8
cuerpo
370
    30
  0
ENDBLK
  5
E7
330
E4
100
AcDbEntity
  8
0
100
AcDbBlockEnd
  0
BLOCK
  5
EE
330
EC
100
AcDbEntity
  8
0
100
AcDbBlockBegin
  2
block 27
 70
     0
 71
     0
 10
0.0
 20
0.0
 30
0.0
  3
block 27
  1

  0
SPLINE
  5
F0
330
EC
100
AcDbEntity
  8
cuerpo
 62
     7
420
 16777215
370
    30
100
AcDbSpline
210
0.0
220
0.0
230
1.0
 70
     8
 71
     3
 72
    11
 73
     7
 74
     0
 42
0.0000000001
 43
0.0000000001
 40
0.0
 40
0.0
 40
0.0
 40
0.0
 40
1.0
 40
1.0
 40
1.0
 40
2.0
 40
2.0
 40
2.0
 40
2.0
 10
46.61575926568981
 20
29.95407171560176
 30
0.0
 10
46.61575926568981
 20
29.79111869914944
 30
0.0
 10
46.74805093232341
 20
29.65882703251585
 30
0.0
 10
46.91100394877572
 20
29.65882703251585
 30
0.0
 10
47.07412922000231
 20
29.65882703251585
 30
0.0
 10
47.20624863186163
 20
29.79111869914944
 30
0.0
 10
47.20624863186163
 20
29.95407171560176
 30
0.0
  0
ENDBLK
  5
EF
330
EC
100
AcDbEntity
  8
0
100
AcDbBlockEnd
  0
BLOCK
  5
F3
330
F1
100
AcDbEntity
  8
0
100
AcDbBlockBegin
  2
block 28
 70
     0
 71
     0
 10
0.0
 20
0.0
 30
0.0
  3
block 28
  1

  0
SPLINE
  5
F5
330
F1
100
AcDbEntity
  8
cuerpo
 62
     7
420
 16777215
370
    30
100
AcDbSpline
210
0.0
220
0.0
230
1.0
 70
     8
 71
     3
 72
    11
 73
     7
 74
     0
 42
0.0000000001
 43
0.0000000001
 40
0.0
 40
0.0
 40
0.0
 40
0.0
 40
1.0
 40
1.0
 40
1.0
 40
2.0
 40
2.0
 40
2.0
 40
2.0
 10
47.20624863186163
 20
31.60702852942463
 30
0.0
 10
47.20624863186163
 20
31.77032605542547
 30
0.0
 10
47.07412922000231
 20
31.90261772205907
 30
0.0
 10
46.91100394877572
 20
31.90261772205907
 30
0.0
 10
46.74805093232341
 20
31.90261772205907
 30
0.0
 10
46.61575926568981
 20
31.77032605542547
 30
0.0
 10
46.61575926568981
 20
31.60702852942463
 30
0.0
  0
ENDBLK
  5
F4
330
F1
100
AcDbEntity
  8
0
100
AcDbBlockEnd
  0
BLOCK
  5
F8
330
F6
100
AcDbEntity
  8
0
100
AcDbBlockBegin
  2
block 29
 70
     0
 71
     0
 10
0.0
 20
0.0
 30
0.0
  3
block 29
  1

  0
POLYLINE
  5
FA
330
F6
100
AcDbEntity
  8
cuerpo
 62
     7
420
 16777215
370
    30
100
AcDb2dPolyline
 66
     1
 10
0.0
 20
0.0
 30
0.0
  0
VERTEX
  5
FB
330
FA
100
AcDbEntity
  8
cuerpo
 62
     7
420
 16777215
370
    30
100
AcDbVertex
100
AcDb2dVertex
 10
46.52739256649316
 20
29.95407171560176
 30
0.0
  0
VERTEX
  5
FC
330
FA
100
AcDbEntity
  8
cuerpo
 62
     7
420
 16777215
370
    30
100
AcDbVertex
100
AcDb2dVertex
 10
46.52739256649316
 20
31.60702852942463
 30
0.0
  0
SEQEND
  5
FD
330
FA
100
AcDbEntity
  8
cuerpo
370
    30
  0
ENDBLK
  5
F9
330
F6
100
AcDbEntity
  8
0
100
AcDbBlockEnd
  0
BLOCK
  5
100
330
FE
100
AcDbEntity
  8
0
100
AcDbBlockBegin
  2
block 30
 70
     0
 71
     0
 10
0.0
 20
0.0
 30
0.0
  3
block 30
  1

  0
POLYLINE
  5
102
330
FE
100
AcDbEntity
  8
cuerpo
 62
     7
420
 16777215
370
    30
100
AcDb2dPolyline
 66
     1
 10
0.0
 20
0.0
 30
0.0
  0
VERTEX
  5
103
330
102
100
AcDbEntity
  8
cuerpo
 62
     7
420
 16777215
370
    30
100
AcDbVertex
100
AcDb2dVertex
 10
46.29105901620502
 20
32.90617403691235
 30
0.0
  0
VERTEX
  5
104
330
102
100
AcDbEntity
  8
cuerpo
 62
     7
420
 16777215
370
    30
100
AcDbVertex
100
AcDb2dVertex
 10
49.1251668171458
 20
32.90617403691235
 30
0.0
  0
SEQEND
  5
105
330
102
100
AcDbEntity
  8
cuerpo
370
    30
  0
ENDBLK
  5
101
330
FE
100
AcDbEntity
  8
0
100
AcDbBlockEnd
  0
BLOCK
  5
108
330
106
100
AcDbEntity
  8
0
100
AcDbBlockBegin
  2
block 31
 70
     0
 71
     0
 10
0.0
 20
0.0
 30
0.0
  3
block 31
  1

  0
POLYLINE
  5
10A
330
106
100
AcDbEntity
  8
cuerpo
 62
     7
420
 16777215
370
    30
100
AcDb2dPolyline
 66
     1
 10
0.0
 20
0.0
 30
0.0
  0
VERTEX
  5
10B
330
10A
100
AcDbEntity
  8
cuerpo
 62
     7
420
 16777215
370
    30
100
AcDbVertex
100
AcDb2dVertex
 10
44.82999402091056
 20
34.85368651472408
 30
0.0
  0
VERTEX
  5
10C
330
10A
100
AcDbEntity
  8
cuerpo
 62
     7
420
 16777215
370
    30
100
AcDbVertex
100
AcDb2dVertex
 10
44.03503823768916
 20
34.85368651472408
 30
0.0
  0
SEQEND
  5
10D
330
10A
100
AcDbEntity
  8
cuerpo
370
    30
  0
ENDBLK
  5
109
330
106
100
AcDbEntity
  8
0
100
AcDbBlockEnd
  0
BLOCK
  5
110
330
10E
100
AcDbEntity
  8
0
100
AcDbBlockBegin
  2
block 32
 70
     0
 71
     0
 10
0.0
 20
0.0
 30
0.0
  3
block 32
  1

  0
SPLINE
  5
112
330
10E
100
AcDbEntity
  8
cuerpo
 62
     7
420
 16777215
370
    30
100
AcDbSpline
210
0.0
220
0.0
230
1.0
 70
     8
 71
     3
 72
     8
 73
     4
 74
     0
 42
0.0000000001
 43
0.0000000001
 40
0.0
 40
0.0
 40
0.0
 40
0.0
 40
1.0
 40
1.0
 40
1.0
 40
1.0
 10
44.03503823768916
 20
34.34966904523203
 30
0.0
 10
44.36197779923937
 20
34.39101019105502
 30
0.0
 10
44.65326062251724
 20
34.57601181861294
 30
0.0
 10
44.82999402091056
 20
34.85368651472408
 30
0.0
  0
ENDBLK
  5
111
330
10E
100
AcDbEntity
  8
0
100
AcDbBlockEnd
  0
BLOCK
  5
115
330
113
100
AcDbEntity
  8
0
100
AcDbBlockBegin
  2
block 33
 70
     0
 71
     0
 10
0.0
 20
0.0
 30
0.0
  3
block 33
  1

  0
POLYLINE
  5
117
330
113
100
AcDbEntity
  8
cuerpo
 62
     7
420
 16777215
370
    30
100
AcDb2dPolyline
 66
     1
 10
0.0
 20
0.0
 30
0.0
  0
VERTEX
  5
118
330
117
100
AcDbEntity
  8
cuerpo
 62
     7
420
 16777215
370
    30
100
AcDbVertex
100
AcDb2dVertex
 10
43.75443521041556
 20
34.85368651472408
 30
0.0
  0
VERTEX
  5
119
330
117
100
AcDbEntity
  8
cuerpo
 62
     7
420
 16777215
370
    30
100
AcDbVertex
100
AcDb2dVertex
 10
42.95965168196842
 20
34.85368651472408
 30
0.0
  0
SEQEND
  5
11A
330
117
100
AcDbEntity
  8
cuerpo
370
    30
  0
ENDBLK
  5
116
330
113
100
AcDbEntity
  8
0
100
AcDbBlockEnd
  0
BLOCK
  5
11D
330
11B
100
AcDbEntity
  8
0
100
AcDbBlockBegin
  2
block 34
 70
     0
 71
     0
 10
0.0
 20
0.0
 30
0.0
  3
block 34
  1

  0
POLYLINE
  5
11F
330
11B
100
AcDbEntity
  8
cuerpo
 62
     7
420
 16777215
370
    30
100
AcDb2dPolyline
 66
     1
 10
0.0
 20
0.0
 30
0.0
  0
VERTEX
  5
120
330
11F
100
AcDbEntity
  8
cuerpo
 62
     7
420
 16777215
370
    30
100
AcDbVertex
100
AcDb2dVertex
 10
43.75443521041556
 20
35.04178872821872
 30
0.0
  0
VERTEX
  5
121
330
11F
100
AcDbEntity
  8
cuerpo
 62
     7
420
 16777215
370
    30
100
AcDbVertex
100
AcDb2dVertex
 10
44.03503823768916
 20
35.04178872821872
 30
0.0
  0
SEQEND
  5
122
330
11F
100
AcDbEntity
  8
cuerpo
370
    30
  0
ENDBLK
  5
11E
330
11B
100
AcDbEntity
  8
0
100
AcDbBlockEnd
  0
BLOCK
  5
125
330
123
100
AcDbEntity
  8
0
100
AcDbBlockBegin
  2
block 35
 70
     0
 71
     0
 10
0.0
 20
0.0
 30
0.0
  3
block 35
  1

  0
POLYLINE
  5
127
330
123
100
AcDbEntity
  8
cuerpo
 62
     7
420
 16777215
370
    30
100
AcDb2dPolyline
 66
     1
 10
0.0
 20
0.0
 30
0.0
  0
VERTEX
  5
128
330
127
100
AcDbEntity
  8
cuerpo
 62
     7
420
 16777215
370
    30
100
AcDbVertex
100
AcDb2dVertex
 10
44.03503823768916
 20
35.04178872821872
 30
0.0
  0
VERTEX
  5
129
330
127
100
AcDbEntity
  8
cuerpo
 62
     7
420
 16777215
370
    30
100
AcDbVertex
100
AcDb2dVertex
 10
44.03503823768916
 20
34.34966904523203
 30
0.0
  0
SEQEND
  5
12A
330
127
100
AcDbEntity
  8
cuerpo
370
    30
  0
ENDBLK
  5
126
330
123
100
AcDbEntity
  8
0
100
AcDbBlockEnd
  0
BLOCK
  5
12D
330
12B
100
AcDbEntity
  8
0
100
AcDbBlockBegin
  2
block 36
 70
     0
 71
     0
 10
0.0
 20
0.0
 30
0.0
  3
block 36
  1

  0
POLYLINE
  5
12F
330
12B
100
AcDbEntity
  8
cuerpo
 62
     7
420
 16777215
370
    30
100
AcDb2dPolyline
 66
     1
 10
0.0
 20
0.0
 30
0.0
  0
VERTEX
  5
130
330
12F
100
AcDbEntity
  8
cuerpo
 62
     7
420
 16777215
370
    30
100
AcDbVertex
100
AcDb2dVertex
 10
43.75443521041556
 20
35.04178872821872
 30
0.0
  0
VERTEX
  5
131
330
12F
100
AcDbEntity
  8
cuerpo
 62
     7
420
 16777215
370
    30
100
AcDbVertex
100
AcDb2dVertex
 10
43.75443521041556
 20
34.34966904523203
 30
0.0
  0
SEQEND
  5
132
330
12F
100
AcDbEntity
  8
cuerpo
370
    30
  0
ENDBLK
  5
12E
330
12B
100
AcDbEntity
  8
0
100
AcDbBlockEnd
  0
BLOCK
  5
135
330
133
100
AcDbEntity
  8
0
100
AcDbBlockBegin
  2
block 37
 70
     0
 71
     0
 10
0.0
 20
0.0
 30
0.0
  3
block 37
  1

  0
SPLINE
  5
137
330
133
100
AcDbEntity
  8
cuerpo
 62
     7
420
 16777215
370
    30
100
AcDbSpline
210
0.0
220
0.0
230
1.0
 70
     8
 71
     3
 72
     8
 73
     4
 74
     0
 42
0.0000000001
 43
0.0000000001
 40
0.0
 40
0.0
 40
0.0
 40
0.0
 40
1.0
 40
1.0
 40
1.0
 40
1.0
 10
42.95965168196842
 20
34.85368651472408
 30
0.0
 10
43.13638508036174
 20
34.57601181861294
 30
0.0
 10
43.42766790363962
 20
34.39101019105502
 30
0.0
 10
43.75443521041556
 20
34.34966904523203
 30
0.0
  0
ENDBLK
  5
136
330
133
100
AcDbEntity
  8
0
100
AcDbBlockEnd
  0
BLOCK
  5
13A
330
138
100
AcDbEntity
  8
0
100
AcDbBlockBegin
  2
block 38
 70
     0
 71
     0
 10
0.0
 20
0.0
 30
0.0
  3
block 38
  1

  0
POLYLINE
  5
13C
330
138
100
AcDbEntity
  8
cuerpo
 62
     7
420
 16777215
370
    30
100
AcDb2dPolyline
 66
     1
 10
0.0
 20
0.0
 30
0.0
  0
VERTEX
  5
13D
330
13C
100
AcDbEntity
  8
cuerpo
 62
     7
420
 16777215
370
    30
100
AcDbVertex
100
AcDb2dVertex
 10
45.37965900558217
 20
41.14890949492111
 30
0.0
  0
VERTEX
  5
13E
330
13C
100
AcDbEntity
  8
cuerpo
 62
     7
420
 16777215
370
    30
100
AcDbVertex
100
AcDb2dVertex
 10
45.37965900558217
 20
37.87537976483672
 30
0.0
  0
SEQEND
  5
13F
330
13C
100
AcDbEntity
  8
cuerpo
370
    30
  0
ENDBLK
  5
13B
330
138
100
AcDbEntity
  8
0
100
AcDbBlockEnd
  0
BLOCK
  5
142
330
140
100
AcDbEntity
  8
0
100
AcDbBlockBegin
  2
block 39
 70
     0
 71
     0
 10
0.0
 20
0.0
 30
0.0
  3
block 39
  1

  0
POLYLINE
  5
144
330
140
100
AcDbEntity
  8
cuerpo
 62
     7
420
 16777215
370
    30
100
AcDb2dPolyline
 66
     1
 10
0.0
 20
0.0
 30
0.0
  0
VERTEX
  5
145
330
144
100
AcDbEntity
  8
cuerpo
 62
     7
420
 16777215
370
    30
100
AcDbVertex
100
AcDb2dVertex
 10
43.15240477436815
 20
41.14890949492111
 30
0.0
  0
VERTEX
  5
146
330
144
100
AcDbEntity
  8
cuerpo
 62
     7
420
 16777215
370
    30
100
AcDbVertex
100
AcDb2dVertex
 10
43.15240477436815
 20
37.87537976483672
 30
0.0
  0
SEQEND
  5
147
330
144
100
AcDbEntity
  8
cuerpo
370
    30
  0
ENDBLK
  5
143
330
140
100
AcDbEntity
  8
0
100
AcDbBlockEnd
  0
BLOCK
  5
14A
330
148
100
AcDbEntity
  8
0
100
AcDbBlockBegin
  2
block 40
 70
     0
 71
     0
 10
0.0
 20
0.0
 30
0.0
  3
block 40
  1

  0
POLYLINE
  5
14C
330
148
100
AcDbEntity
  8
cuerpo
 62
     7
420
 16777215
370
    30
100
AcDb2dPolyline
 66
     1
 10
0.0
 20
0.0
 30
0.0
  0
VERTEX
  5
14D
330
14C
100
AcDbEntity
  8
cuerpo
 62
     7
420
 16777215
370
    30
100
AcDbVertex
100
AcDb2dVertex
 10
42.40998669729681
 20
41.14890949492111
 30
0.0
  0
VERTEX
  5
14E
330
14C
100
AcDbEntity
  8
cuerpo
 62
     7
420
 16777215
370
    30
100
AcDbVertex
100
AcDb2dVertex
 10
42.40998669729681
 20
37.87537976483672
 30
0.0
  0
SEQEND
  5
14F
330
14C
100
AcDbEntity
  8
cuerpo
370
    30
  0
ENDBLK
  5
14B
330
148
100
AcDbEntity
  8
0
100
AcDbBlockEnd
  0
BLOCK
  5
152
330
150
100
AcDbEntity
  8
0
100
AcDbBlockBegin
  2
block 41
 70
     0
 71
     0
 10
0.0
 20
0.0
 30
0.0
  3
block 41
  1

  0
POLYLINE
  5
154
330
150
100
AcDbEntity
  8
cuerpo
 62
     7
420
 16777215
370
    30
100
AcDb2dPolyline
 66
     1
 10
0.0
 20
0.0
 30
0.0
  0
VERTEX
  5
155
330
154
100
AcDbEntity
  8
cuerpo
 62
     7
420
 16777215
370
    30
100
AcDbVertex
100
AcDb2dVertex
 10
45.17725964582375
 20
37.75824651833822
 30
0.0
  0
VERTEX
  5
156
330
154
100
AcDbEntity
  8
cuerpo
 62
     7
420
 16777215
370
    30
100
AcDbVertex
100
AcDb2dVertex
 10
42.61238605705524
 20
37.75824651833822
 30
0.0
  0
SEQEND
  5
157
330
154
100
AcDbEntity
  8
cuerpo
370
    30
  0
ENDBLK
  5
153
330
150
100
AcDbEntity
  8
0
100
AcDbBlockEnd
  0
BLOCK
  5
15A
330
158
100
AcDbEntity
  8
0
100
AcDbBlockBegin
  2
block 42
 70
     0
 71
     0
 10
0.0
 20
0.0
 30
0.0
  3
block 42
  1

  0
SPLINE
  5
15C
330
158
100
AcDbEntity
  8
cuerpo
 62
     7
420
 16777215
370
    30
100
AcDbSpline
210
0.0
220
0.0
230
1.0
 70
     8
 71
     3
 72
     8
 73
     4
 74
     0
 42
0.0000000001
 43
0.0000000001
 40
0.0
 40
0.0
 40
0.0
 40
0.0
 40
1.0
 40
1.0
 40
1.0
 40
1.0
 10
42.78067897150969
 20
37.75824651833822
 30
0.0
 10
42.91348740246607
 20
37.75824651833822
 30
0.0
 10
43.04336750225999
 20
37.79889864506416
 30
0.0
 10
43.15240477436815
 20
37.87537976483672
 30
0.0
  0
ENDBLK
  5
15B
330
158
100
AcDbEntity
  8
0
100
AcDbBlockEnd
  0
BLOCK
  5
15F
330
15D
100
AcDbEntity
  8
0
100
AcDbBlockBegin
  2
block 43
 70
     0
 71
     0
 10
0.0
 20
0.0
 30
0.0
  3
block 43
  1

  0
POLYLINE
  5
161
330
15D
100
AcDbEntity
  8
cuerpo
 62
     7
420
 16777215
370
    30
100
AcDb2dPolyline
 66
     1
 10
0.0
 20
0.0
 30
0.0
  0
VERTEX
  5
162
330
161
100
AcDbEntity
  8
cuerpo
 62
     7
420
 16777215
370
    30
100
AcDbVertex
100
AcDb2dVertex
 10
42.40998669729681
 20
37.87537976483672
 30
0.0
  0
VERTEX
  5
163
330
161
100
AcDbEntity
  8
cuerpo
 62
     7
420
 16777215
370
    30
100
AcDbVertex
100
AcDb2dVertex
 10
42.61238605705524
 20
37.75824651833822
 30
0.0
  0
SEQEND
  5
164
330
161
100
AcDbEntity
  8
cuerpo
370
    30
  0
ENDBLK
  5
160
330
15D
100
AcDbEntity
  8
0
100
AcDbBlockEnd
  0
BLOCK
  5
167
330
165
100
AcDbEntity
  8
0
100
AcDbBlockBegin
  2
block 44
 70
     0
 71
     0
 10
0.0
 20
0.0
 30
0.0
  3
block 44
  1

  0
POLYLINE
  5
169
330
165
100
AcDbEntity
  8
cuerpo
 62
     7
420
 16777215
370
    30
100
AcDb2dPolyline
 66
     1
 10
0.0
 20
0.0
 30
0.0
  0
VERTEX
  5
16A
330
169
100
AcDbEntity
  8
cuerpo
 62
     7
420
 16777215
370
    30
100
AcDbVertex
100
AcDb2dVertex
 10
45.37965900558217
 20
37.87537976483672
 30
0.0
  0
VERTEX
  5
16B
330
169
100
AcDbEntity
  8
cuerpo
 62
     7
420
 16777215
370
    30
100
AcDbVertex
100
AcDb2dVertex
 10
45.17725964582375
 20
37.75824651833822
 30
0.0
  0
SEQEND
  5
16C
330
169
100
AcDbEntity
  8
cuerpo
370
    30
  0
ENDBLK
  5
168
330
165
100
AcDbEntity
  8
0
100
AcDbBlockEnd
  0
BLOCK
  5
16F
330
16D
100
AcDbEntity
  8
0
100
AcDbBlockBegin
  2
block 45
 70
     0
 71
     0
 10
0.0
 20
0.0
 30
0.0
  3
block 45
  1

  0
POLYLINE
  5
171
330
16D
100
AcDbEntity
  8
cuerpo
 62
     7
420
 16777215
370
    30
100
AcDb2dPolyline
 66
     1
 10
0.0
 20
0.0
 30
0.0
  0
VERTEX
  5
172
330
171
100
AcDbEntity
  8
cuerpo
 62
     7
420
 16777215
370
    30
100
AcDbVertex
100
AcDb2dVertex
 10
42.40998669729681
 20
41.14890949492111
 30
0.0
  0
VERTEX
  5
173
330
171
100
AcDbEntity
  8
cuerpo
 62
     7
420
 16777215
370
    30
100
AcDbVertex
100
AcDb2dVertex
 10
42.61238605705524
 20
41.26535372232255
 30
0.0
  0
SEQEND
  5
174
330
171
100
AcDbEntity
  8
cuerpo
370
    30
  0
ENDBLK
  5
170
330
16D
100
AcDbEntity
  8
0
100
AcDbBlockEnd
  0
BLOCK
  5
177
330
175
100
AcDbEntity
  8
0
100
AcDbBlockBegin
  2
block 46
 70
     0
 71
     0
 10
0.0
 20
0.0
 30
0.0
  3
block 46
  1

  0
SPLINE
  5
179
330
175
100
AcDbEntity
  8
cuerpo
 62
     7
420
 16777215
370
    30
100
AcDbSpline
210
0.0
220
0.0
230
1.0
 70
     8
 71
     3
 72
     8
 73
     4
 74
     0
 42
0.0000000001
 43
0.0000000001
 40
0.0
 40
0.0
 40
0.0
 40
0.0
 40
1.0
 40
1.0
 40
1.0
 40
1.0
 10
43.15240477436815
 20
41.14890949492111
 30
0.0
 10
43.04336750225999
 20
41.22504610514513
 30
0.0
 10
42.91348740246607
 20
41.26535372232255
 30
0.0
 10
42.78067897150969
 20
41.26535372232255
 30
0.0
  0
ENDBLK
  5
178
330
175
100
AcDbEntity
  8
0
100
AcDbBlockEnd
  0
BLOCK
  5
17C
330
17A
100
AcDbEntity
  8
0
100
AcDbBlockBegin
  2
block 47
 70
     0
 71
     0
 10
0.0
 20
0.0
 30
0.0
  3
block 47
  1

  0
POLYLINE
  5
17E
330
17A
100
AcDbEntity
  8
cuerpo
 62
     7
420
 16777215
370
    30
100
AcDb2dPolyline
 66
     1
 10
0.0
 20
0.0
 30
0.0
  0
VERTEX
  5
17F
330
17E
100
AcDbEntity
  8
cuerpo
 62
     7
420
 16777215
370
    30
100
AcDbVertex
100
AcDb2dVertex
 10
52.29999456157778
 20
43.97216524508335
 30
0.0
  0
VERTEX
  5
180
330
17E
100
AcDbEntity
  8
cuerpo
 62
     7
420
 16777215
370
    30
100
AcDbVertex
100
AcDb2dVertex
 10
52.29999456157778
 20
44.67358668588022
 30
0.0
  0
SEQEND
  5
181
330
17E
100
AcDbEntity
  8
cuerpo
370
    30
  0
ENDBLK
  5
17D
330
17A
100
AcDbEntity
  8
0
100
AcDbBlockEnd
  0
BLOCK
  5
184
330
182
100
AcDbEntity
  8
0
100
AcDbBlockBegin
  2
block 48
 70
     0
 71
     0
 10
0.0
 20
0.0
 30
0.0
  3
block 48
  1

  0
POLYLINE
  5
186
330
182
100
AcDbEntity
  8
cuerpo
 62
     7
420
 16777215
370
    30
100
AcDb2dPolyline
 66
     1
 10
0.0
 20
0.0
 30
0.0
  0
VERTEX
  5
187
330
186
100
AcDbEntity
  8
cuerpo
 62
     7
420
 16777215
370
    30
100
AcDbVertex
100
AcDb2dVertex
 10
47.77365585828228
 20
41.26535372232255
 30
0.0
  0
VERTEX
  5
188
330
186
100
AcDbEntity
  8
cuerpo
 62
     7
420
 16777215
370
    30
100
AcDbVertex
100
AcDb2dVertex
 10
51.29850530401566
 20
41.26535372232255
 30
0.0
  0
SEQEND
  5
189
330
186
100
AcDbEntity
  8
cuerpo
370
    30
  0
ENDBLK
  5
185
330
182
100
AcDbEntity
  8
0
100
AcDbBlockEnd
  0
BLOCK
  5
18C
330
18A
100
AcDbEntity
  8
0
100
AcDbBlockBegin
  2
block 49
 70
     0
 71
     0
 10
0.0
 20
0.0
 30
0.0
  3
block 49
  1

  0
POLYLINE
  5
18E
330
18A
100
AcDbEntity
  8
cuerpo
 62
     7
420
 16777215
370
    30
100
AcDb2dPolyline
 66
     1
 10
0.0
 20
0.0
 30
0.0
  0
VERTEX
  5
18F
330
18E
100
AcDbEntity
  8
cuerpo
 62
     7
420
 16777215
370
    30
100
AcDbVertex
100
AcDb2dVertex
 10
40.33827852724182
 20
43.97216524508335
 30
0.0
  0
VERTEX
  5
190
330
18E
100
AcDbEntity
  8
cuerpo
 62
     7
420
 16777215
370
    30
100
AcDbVertex
100
AcDb2dVertex
 10
52.29999456157778
 20
43.97216524508335
 30
0.0
  0
SEQEND
  5
191
330
18E
100
AcDbEntity
  8
cuerpo
370
    30
  0
ENDBLK
  5
18D
330
18A
100
AcDbEntity
  8
0
100
AcDbBlockEnd
  0
BLOCK
  5
194
330
192
100
AcDbEntity
  8
0
100
AcDbBlockBegin
  2
block 50
 70
     0
 71
     0
 10
0.0
 20
0.0
 30
0.0
  3
block 50
  1

  0
SPLINE
  5
196
330
192
100
AcDbEntity
  8
cuerpo
 62
     7
420
 16777215
370
    30
100
AcDbSpline
210
0.0
220
0.0
230
1.0
 70
     8
 71
     3
 72
     8
 73
     4
 74
     0
 42
0.0000000001
 43
0.0000000001
 40
0.0
 40
0.0
 40
0.0
 40
0.0
 40
1.0
 40
1.0
 40
1.0
 40
1.0
 10
44.62535534908672
 20
41.15235459040636
 30
0.0
 10
44.14579805753994
 20
41.3032497726603
 30
0.0
 10
43.63127304681788
 20
41.3018717344662
 30
0.0
 10
43.15240477436815
 20
41.14890949492111
 30
0.0
  0
ENDBLK
  5
195
330
192
100
AcDbEntity
  8
0
100
AcDbBlockEnd
  0
BLOCK
  5
199
330
197
100
AcDbEntity
  8
0
100
AcDbBlockBegin
  2
block 51
 70
     0
 71
     0
 10
0.0
 20
0.0
 30
0.0
  3
block 51
  1

  0
SPLINE
  5
19B
330
197
100
AcDbEntity
  8
cuerpo
 62
     7
420
 16777215
370
    30
100
AcDbSpline
210
0.0
220
0.0
230
1.0
 70
     8
 71
     3
 72
     8
 73
     4
 74
     0
 42
0.0000000001
 43
0.0000000001
 40
0.0
 40
0.0
 40
0.0
 40
0.0
 40
1.0
 40
1.0
 40
1.0
 40
1.0
 10
43.15240477436815
 20
37.87537976483672
 30
0.0
 10
43.63523490662592
 20
37.72069497754899
 30
0.0
 10
44.15441079625307
 20
37.72069497754899
 30
0.0
 10
44.63724092851083
 20
37.87537976483672
 30
0.0
  0
ENDBLK
  5
19A
330
197
100
AcDbEntity
  8
0
100
AcDbBlockEnd
  0
BLOCK
  5
19E
330
19C
100
AcDbEntity
  8
0
100
AcDbBlockBegin
  2
block 52
 70
     0
 71
     0
 10
0.0
 20
0.0
 30
0.0
  3
block 52
  1

  0
SPLINE
  5
1A0
330
19C
100
AcDbEntity
  8
cuerpo
 62
     7
420
 16777215
370
    30
100
AcDbSpline
210
0.0
220
0.0
230
1.0
 70
     8
 71
     3
 72
     8
 73
     4
 74
     0
 42
0.0000000001
 43
0.0000000001
 40
0.0
 40
0.0
 40
0.0
 40
0.0
 40
1.0
 40
1.0
 40
1.0
 40
1.0
 10
44.63724092851083
 20
37.87537976483672
 30
0.0
 10
44.74627820061899
 20
37.79889864506416
 30
0.0
 10
44.87598604563865
 20
37.75824651833822
 30
0.0
 10
45.00896673136929
 20
37.75824651833822
 30
0.0
  0
ENDBLK
  5
19F
330
19C
100
AcDbEntity
  8
0
100
AcDbBlockEnd
  0
BLOCK
  5
1A3
330
1A1
100
AcDbEntity
  8
0
100
AcDbBlockBegin
  2
block 53
 70
     0
 71
     0
 10
0.0
 20
0.0
 30
0.0
  3
block 53
  1

  0
POLYLINE
  5
1A5
330
1A1
100
AcDbEntity
  8
cuerpo
 62
     7
420
 16777215
370
    30
100
AcDb2dPolyline
 66
     1
 10
0.0
 20
0.0
 30
0.0
  0
VERTEX
  5
1A6
330
1A5
100
AcDbEntity
  8
cuerpo
 62
     7
420
 16777215
370
    30
100
AcDbVertex
100
AcDb2dVertex
 10
44.63724092851083
 20
41.13547362252864
 30
0.0
  0
VERTEX
  5
1A7
330
1A5
100
AcDbEntity
  8
cuerpo
 62
     7
420
 16777215
370
    30
100
AcDbVertex
100
AcDb2dVertex
 10
44.63724092851083
 20
37.87537976483672
 30
0.0
  0
SEQEND
  5
1A8
330
1A5
100
AcDbEntity
  8
cuerpo
370
    30
  0
ENDBLK
  5
1A4
330
1A1
100
AcDbEntity
  8
0
100
AcDbBlockEnd
  0
BLOCK
  5
1AB
330
1A9
100
AcDbEntity
  8
0
100
AcDbBlockBegin
  2
block 54
 70
     0
 71
     0
 10
0.0
 20
0.0
 30
0.0
  3
block 54
  1

  0
POLYLINE
  5
1AD
330
1A9
100
AcDbEntity
  8
cuerpo
 62
     7
420
 16777215
370
    30
100
AcDb2dPolyline
 66
     1
 10
0.0
 20
0.0
 30
0.0
  0
VERTEX
  5
1AE
330
1AD
100
AcDbEntity
  8
cuerpo
 62
     7
420
 16777215
370
    30
100
AcDbVertex
100
AcDb2dVertex
 10
45.37965900558217
 20
41.14890949492111
 30
0.0
  0
VERTEX
  5
1AF
330
1AD
100
AcDbEntity
  8
cuerpo
 62
     7
420
 16777215
370
    30
100
AcDbVertex
100
AcDb2dVertex
 10
45.17725964582375
 20
41.26535372232255
 30
0.0
  0
SEQEND
  5
1B0
330
1AD
100
AcDbEntity
  8
cuerpo
370
    30
  0
ENDBLK
  5
1AC
330
1A9
100
AcDbEntity
  8
0
100
AcDbBlockEnd
  0
BLOCK
  5
1B3
330
1B1
100
AcDbEntity
  8
0
100
AcDbBlockBegin
  2
block 55
 70
     0
 71
     0
 10
0.0
 20
0.0
 30
0.0
  3
block 55
  1

  0
SPLINE
  5
1B5
330
1B1
100
AcDbEntity
  8
cuerpo
 62
     7
420
 16777215
370
    30
100
AcDbSpline
210
0.0
220
0.0
230
1.0
 70
     8
 71
     3
 72
     8
 73
     4
 74
     0
 42
0.0000000001
 43
0.0000000001
 40
0.0
 40
0.0
 40
0.0
 40
0.0
 40
1.0
 40
1.0
 40
1.0
 40
1.0
 10
45.00896673136929
 20
41.26535372232255
 30
0.0
 10
44.87598604563865
 20
41.26535372232255
 30
0.0
 10
44.74627820061899
 20
41.22504610514513
 30
0.0
 10
44.63724092851083
 20
41.14890949492111
 30
0.0
  0
ENDBLK
  5
1B4
330
1B1
100
AcDbEntity
  8
0
100
AcDbBlockEnd
  0
BLOCK
  5
1B8
330
1B6
100
AcDbEntity
  8
0
100
AcDbBlockBegin
  2
block 56
 70
     0
 71
     0
 10
0.0
 20
0.0
 30
0.0
  3
block 56
  1

  0
POLYLINE
  5
1BA
330
1B6
100
AcDbEntity
  8
cuerpo
 62
     7
420
 16777215
370
    30
100
AcDb2dPolyline
 66
     1
 10
0.0
 20
0.0
 30
0.0
  0
VERTEX
  5
1BB
330
1BA
100
AcDbEntity
  8
cuerpo
 62
     7
420
 16777215
370
    30
100
AcDbVertex
100
AcDb2dVertex
 10
40.33827852724182
 20
43.97216524508335
 30
0.0
  0
VERTEX
  5
1BC
330
1BA
100
AcDbEntity
  8
cuerpo
 62
     7
420
 16777215
370
    30
100
AcDbVertex
100
AcDb2dVertex
 10
40.33827852724182
 20
44.67358668588022
 30
0.0
  0
SEQEND
  5
1BD
330
1BA
100
AcDbEntity
  8
cuerpo
370
    30
  0
ENDBLK
  5
1B9
330
1B6
100
AcDbEntity
  8
0
100
AcDbBlockEnd
  0
BLOCK
  5
1C0
330
1BE
100
AcDbEntity
  8
0
100
AcDbBlockBegin
  2
block 57
 70
     0
 71
     0
 10
0.0
 20
0.0
 30
0.0
  3
block 57
  1

  0
POLYLINE
  5
1C2
330
1BE
100
AcDbEntity
  8
cuerpo
 62
     7
420
 16777215
370
    30
100
AcDb2dPolyline
 66
     1
 10
0.0
 20
0.0
 30
0.0
  0
VERTEX
  5
1C3
330
1C2
100
AcDbEntity
  8
cuerpo
 62
     7
420
 16777215
370
    30
100
AcDbVertex
100
AcDb2dVertex
 10
40.33827852724182
 20
44.67358668588022
 30
0.0
  0
VERTEX
  5
1C4
330
1C2
100
AcDbEntity
  8
cuerpo
 62
     7
420
 16777215
370
    30
100
AcDbVertex
100
AcDb2dVertex
 10
52.29999456157778
 20
44.67358668588022
 30
0.0
  0
SEQEND
  5
1C5
330
1C2
100
AcDbEntity
  8
cuerpo
370
    30
  0
ENDBLK
  5
1C1
330
1BE
100
AcDbEntity
  8
0
100
AcDbBlockEnd
  0
BLOCK
  5
1C8
330
1C6
100
AcDbEntity
  8
0
100
AcDbBlockBegin
  2
block 58
 70
     0
 71
     0
 10
0.0
 20
0.0
 30
0.0
  3
block 58
  1

  0
POLYLINE
  5
1CA
330
1C6
100
AcDbEntity
  8
cuerpo
 62
     7
420
 16777215
370
    30
100
AcDb2dPolyline
 66
     1
 10
0.0
 20
0.0
 30
0.0
  0
VERTEX
  5
1CB
330
1CA
100
AcDbEntity
  8
cuerpo
 62
     7
420
 16777215
370
    30
100
AcDbVertex
100
AcDb2dVertex
 10
48.83646781548186
 20
42.67543130443531
 30
0.0
  0
VERTEX
  5
1CC
330
1CA
100
AcDbEntity
  8
cuerpo
 62
     7
420
 16777215
370
    30
100
AcDbVertex
100
AcDb2dVertex
 10
48.83646781548186
 20
41.26535372232255
 30
0.0
  0
SEQEND
  5
1CD
330
1CA
100
AcDbEntity
  8
cuerpo
370
    30
  0
ENDBLK
  5
1C9
330
1C6
100
AcDbEntity
  8
0
100
AcDbBlockEnd
  0
BLOCK
  5
1D0
330
1CE
100
AcDbEntity
  8
0
100
AcDbBlockBegin
  2
block 59
 70
     0
 71
     0
 10
0.0
 20
0.0
 30
0.0
  3
block 59
  1

  0
POLYLINE
  5
1D2
330
1CE
100
AcDbEntity
  8
cuerpo
 62
     7
420
 16777215
370
    30
100
AcDb2dPolyline
 66
     1
 10
0.0
 20
0.0
 30
0.0
  0
VERTEX
  5
1D3
330
1D2
100
AcDbEntity
  8
cuerpo
 62
     7
420
 16777215
370
    30
100
AcDbVertex
100
AcDb2dVertex
 10
47.77365585828228
 20
41.26535372232255
 30
0.0
  0
VERTEX
  5
1D4
330
1D2
100
AcDbEntity
  8
cuerpo
 62
     7
420
 16777215
370
    30
100
AcDbVertex
100
AcDb2dVertex
 10
41.38748235727466
 20
41.26535372232255
 30
0.0
  0
SEQEND
  5
1D5
330
1D2
100
AcDbEntity
  8
cuerpo
370
    30
  0
ENDBLK
  5
1D1
330
1CE
100
AcDbEntity
  8
0
100
AcDbBlockEnd
  0
BLOCK
  5
1D8
330
1D6
100
AcDbEntity
  8
0
100
AcDbBlockBegin
  2
block 60
 70
     0
 71
     0
 10
0.0
 20
0.0
 30
0.0
  3
block 60
  1

  0
POLYLINE
  5
1DA
330
1D6
100
AcDbEntity
  8
cuerpo
 62
     7
420
 16777215
370
    30
100
AcDb2dPolyline
 66
     1
 10
0.0
 20
0.0
 30
0.0
  0
VERTEX
  5
1DB
330
1DA
100
AcDbEntity
  8
cuerpo
 62
     7
420
 16777215
370
    30
100
AcDbVertex
100
AcDb2dVertex
 10
41.16320664118489
 20
42.67543130443531
 30
0.0
  0
VERTEX
  5
1DC
330
1DA
100
AcDbEntity
  8
cuerpo
 62
     7
420
 16777215
370
    30
100
AcDbVertex
100
AcDb2dVertex
 10
41.38748235727466
 20
41.26535372232255
 30
0.0
  0
SEQEND
  5
1DD
330
1DA
100
AcDbEntity
  8
cuerpo
370
    30
  0
ENDBLK
  5
1D9
330
1D6
100
AcDbEntity
  8
0
100
AcDbBlockEnd
  0
BLOCK
  5
1E0
330
1DE
100
AcDbEntity
  8
0
100
AcDbBlockBegin
  2
block 61
 70
     0
 71
     0
 10
0.0
 20
0.0
 30
0.0
  3
block 61
  1

  0
POLYLINE
  5
1E2
330
1DE
100
AcDbEntity
  8
cuerpo
 62
     7
420
 16777215
370
    30
100
AcDb2dPolyline
 66
     1
 10
0.0
 20
0.0
 30
0.0
  0
VERTEX
  5
1E3
330
1E2
100
AcDbEntity
  8
cuerpo
 62
     7
420
 16777215
370
    30
100
AcDbVertex
100
AcDb2dVertex
 10
42.39189994599925
 20
42.67543130443531
 30
0.0
  0
VERTEX
  5
1E4
330
1E2
100
AcDbEntity
  8
cuerpo
 62
     7
420
 16777215
370
    30
100
AcDbVertex
100
AcDb2dVertex
 10
42.61600340731475
 20
41.26535372232255
 30
0.0
  0
SEQEND
  5
1E5
330
1E2
100
AcDbEntity
  8
cuerpo
370
    30
  0
ENDBLK
  5
1E1
330
1DE
100
AcDbEntity
  8
0
100
AcDbBlockEnd
  0
BLOCK
  5
1E8
330
1E6
100
AcDbEntity
  8
0
100
AcDbBlockBegin
  2
block 62
 70
     0
 71
     0
 10
0.0
 20
0.0
 30
0.0
  3
block 62
  1

  0
POLYLINE
  5
1EA
330
1E6
100
AcDbEntity
  8
cuerpo
 62
     7
420
 16777215
370
    30
100
AcDb2dPolyline
 66
     1
 10
0.0
 20
0.0
 30
0.0
  0
VERTEX
  5
1EB
330
1EA
100
AcDbEntity
  8
cuerpo
 62
     7
420
 16777215
370
    30
100
AcDbVertex
100
AcDb2dVertex
 10
44.19592419685033
 20
42.67543130443531
 30
0.0
  0
VERTEX
  5
1EC
330
1EA
100
AcDbEntity
  8
cuerpo
 62
     7
420
 16777215
370
    30
100
AcDbVertex
100
AcDb2dVertex
 10
44.42002765816583
 20
41.26535372232255
 30
0.0
  0
SEQEND
  5
1ED
330
1EA
100
AcDbEntity
  8
cuerpo
370
    30
  0
ENDBLK
  5
1E9
330
1E6
100
AcDbEntity
  8
0
100
AcDbBlockEnd
  0
BLOCK
  5
1F0
330
1EE
100
AcDbEntity
  8
0
100
AcDbBlockBegin
  2
block 63
 70
     0
 71
     0
 10
0.0
 20
0.0
 30
0.0
  3
block 63
  1

  0
POLYLINE
  5
1F2
330
1EE
100
AcDbEntity
  8
cuerpo
 62
     7
420
 16777215
370
    30
100
AcDb2dPolyline
 66
     1
 10
0.0
 20
0.0
 30
0.0
  0
VERTEX
  5
1F3
330
1F2
100
AcDbEntity
  8
cuerpo
 62
     7
420
 16777215
370
    30
100
AcDbVertex
100
AcDb2dVertex
 10
46.71101615585697
 20
42.67543130443531
 30
0.0
  0
VERTEX
  5
1F4
330
1F2
100
AcDbEntity
  8
cuerpo
 62
     7
420
 16777215
370
    30
100
AcDbVertex
100
AcDb2dVertex
 10
46.71101615585697
 20
41.26535372232255
 30
0.0
  0
SEQEND
  5
1F5
330
1F2
100
AcDbEntity
  8
cuerpo
370
    30
  0
ENDBLK
  5
1F1
330
1EE
100
AcDbEntity
  8
0
100
AcDbBlockEnd
  0
BLOCK
  5
1F8
330
1F6
100
AcDbEntity
  8
0
100
AcDbBlockBegin
  2
block 64
 70
     0
 71
     0
 10
0.0
 20
0.0
 30
0.0
  3
block 64
  1

  0
POLYLINE
  5
1FA
330
1F6
100
AcDbEntity
  8
cuerpo
 62
     7
420
 16777215
370
    30
100
AcDb2dPolyline
 66
     1
 10
0.0
 20
0.0
 30
0.0
  0
VERTEX
  5
1FB
330
1FA
100
AcDbEntity
  8
cuerpo
 62
     7
420
 16777215
370
    30
100
AcDbVertex
100
AcDb2dVertex
 10
41.24158256347433
 20
44.67358668588022
 30
0.0
  0
VERTEX
  5
1FC
330
1FA
100
AcDbEntity
  8
cuerpo
 62
     7
420
 16777215
370
    30
100
AcDbVertex
100
AcDb2dVertex
 10
51.39669052534527
 20
44.67358668588022
 30
0.0
  0
SEQEND
  5
1FD
330
1FA
100
AcDbEntity
  8
cuerpo
370
    30
  0
ENDBLK
  5
1F9
330
1F6
100
AcDbEntity
  8
0
100
AcDbBlockEnd
  0
BLOCK
  5
200
330
1FE
100
AcDbEntity
  8
0
100
AcDbBlockBegin
  2
block 65
 70
     0
 71
     0
 10
0.0
 20
0.0
 30
0.0
  3
block 65
  1

  0
POLYLINE
  5
202
330
1FE
100
AcDbEntity
  8
cuerpo
 62
     7
420
 16777215
370
    30
100
AcDb2dPolyline
 66
     1
 10
0.0
 20
0.0
 30
0.0
  0
VERTEX
  5
203
330
202
100
AcDbEntity
  8
cuerpo
 62
     7
420
 16777215
370
    30
100
AcDbVertex
100
AcDb2dVertex
 10
48.89555120305389
 20
32.90617403691235
 30
0.0
  0
VERTEX
  5
204
330
202
100
AcDbEntity
  8
cuerpo
 62
     7
420
 16777215
370
    30
100
AcDbVertex
100
AcDb2dVertex
 10
48.89555120305389
 20
35.34667967866333
 30
0.0
  0
SEQEND
  5
205
330
202
100
AcDbEntity
  8
cuerpo
370
    30
  0
ENDBLK
  5
201
330
1FE
100
AcDbEntity
  8
0
100
AcDbBlockEnd
  0
BLOCK
  5
208
330
206
100
AcDbEntity
  8
0
100
AcDbBlockBegin
  2
block 66
 70
     0
 71
     0
 10
0.0
 20
0.0
 30
0.0
  3
block 66
  1

  0
POLYLINE
  5
20A
330
206
100
AcDbEntity
  8
cuerpo
 62
     7
420
 16777215
370
    30
100
AcDb2dPolyline
 66
     1
 10
0.0
 20
0.0
 30
0.0
  0
VERTEX
  5
20B
330
20A
100
AcDbEntity
  8
cuerpo
 62
     7
420
 16777215
370
    30
100
AcDbVertex
100
AcDb2dVertex
 10
48.88900552163192
 20
38.141341136298
 30
0.0
  0
VERTEX
  5
20C
330
20A
100
AcDbEntity
  8
cuerpo
 62
     7
420
 16777215
370
    30
100
AcDbVertex
100
AcDb2dVertex
 10
48.88900552163192
 20
41.26535372232255
 30
0.0
  0
SEQEND
  5
20D
330
20A
100
AcDbEntity
  8
cuerpo
370
    30
  0
ENDBLK
  5
209
330
206
100
AcDbEntity
  8
0
100
AcDbBlockEnd
  0
BLOCK
  5
210
330
20E
100
AcDbEntity
  8
0
100
AcDbBlockBegin
  2
block 67
 70
     0
 71
     0
 10
0.0
 20
0.0
 30
0.0
  3
block 67
  1

  0
POLYLINE
  5
212
330
20E
100
AcDbEntity
  8
cuerpo
 62
     7
420
 16777215
370
    30
100
AcDb2dPolyline
 66
     1
 10
0.0
 20
0.0
 30
0.0
  0
VERTEX
  5
213
330
212
100
AcDbEntity
  8
cuerpo
 62
     7
420
 16777215
370
    30
100
AcDbVertex
100
AcDb2dVertex
 10
46.53376599314087
 20
32.90617403691235
 30
0.0
  0
VERTEX
  5
214
330
212
100
AcDbEntity
  8
cuerpo
 62
     7
420
 16777215
370
    30
100
AcDbVertex
100
AcDb2dVertex
 10
46.53376599314087
 20
34.71381563802294
 30
0.0
  0
SEQEND
  5
215
330
212
100
AcDbEntity
  8
cuerpo
370
    30
  0
ENDBLK
  5
211
330
20E
100
AcDbEntity
  8
0
100
AcDbBlockEnd
  0
BLOCK
  5
218
330
216
100
AcDbEntity
  8
0
100
AcDbBlockBegin
  2
block 68
 70
     0
 71
     0
 10
0.0
 20
0.0
 30
0.0
  3
block 68
  1

  0
POLYLINE
  5
21A
330
216
100
AcDbEntity
  8
cuerpo
 62
     7
420
 16777215
370
    30
100
AcDb2dPolyline
 66
     1
 10
0.0
 20
0.0
 30
0.0
  0
VERTEX
  5
21B
330
21A
100
AcDbEntity
  8
cuerpo
 62
     7
420
 16777215
370
    30
100
AcDbVertex
100
AcDb2dVertex
 10
46.52739256649316
 20
37.5084770956576
 30
0.0
  0
VERTEX
  5
21C
330
21A
100
AcDbEntity
  8
cuerpo
 62
     7
420
 16777215
370
    30
100
AcDbVertex
100
AcDb2dVertex
 10
46.52739256649316
 20
41.26535372232255
 30
0.0
  0
SEQEND
  5
21D
330
21A
100
AcDbEntity
  8
cuerpo
370
    30
  0
ENDBLK
  5
219
330
216
100
AcDbEntity
  8
0
100
AcDbBlockEnd
  0
BLOCK
  5
220
330
21E
100
AcDbEntity
  8
0
100
AcDbBlockBegin
  2
block 69
 70
     0
 71
     0
 10
0.0
 20
0.0
 30
0.0
  3
block 69
  1

  0
POLYLINE
  5
222
330
21E
100
AcDbEntity
  8
cuerpo
 62
     7
420
 16777215
370
    30
100
AcDb2dPolyline
 66
     1
 10
0.0
 20
0.0
 30
0.0
  0
VERTEX
  5
223
330
222
100
AcDbEntity
  8
cuerpo
 62
     7
420
 16777215
370
    30
100
AcDbVertex
100
AcDb2dVertex
 10
51.29850530401566
 20
41.26535372232255
 30
0.0
  0
VERTEX
  5
224
330
222
100
AcDbEntity
  8
cuerpo
 62
     7
420
 16777215
370
    30
100
AcDbVertex
100
AcDb2dVertex
 10
51.29850530401566
 20
42.67543130443531
 30
0.0
  0
SEQEND
  5
225
330
222
100
AcDbEntity
  8
cuerpo
370
    30
  0
ENDBLK
  5
221
330
21E
100
AcDbEntity
  8
0
100
AcDbBlockEnd
  0
BLOCK
  5
228
330
226
100
AcDbEntity
  8
0
100
AcDbBlockBegin
  2
block 70
 70
     0
 71
     0
 10
0.0
 20
0.0
 30
0.0
  3
block 70
  1

  0
POLYLINE
  5
22A
330
226
100
AcDbEntity
  8
cuerpo
 62
     7
420
 16777215
370
    30
100
AcDb2dPolyline
 66
     1
 10
0.0
 20
0.0
 30
0.0
  0
VERTEX
  5
22B
330
22A
100
AcDbEntity
  8
cuerpo
 62
     7
420
 16777215
370
    30
100
AcDbVertex
100
AcDb2dVertex
 10
46.64538708686296
 20
29.00942653354626
 30
0.0
  0
VERTEX
  5
22C
330
22A
100
AcDbEntity
  8
cuerpo
 62
     7
420
 16777215
370
    30
100
AcDbVertex
100
AcDb2dVertex
 10
48.77066649171358
 20
29.00942653354626
 30
0.0
  0
SEQEND
  5
22D
330
22A
100
AcDbEntity
  8
cuerpo
370
    30
  0
ENDBLK
  5
229
330
226
100
AcDbEntity
  8
0
100
AcDbBlockEnd
  0
BLOCK
  5
230
330
22E
100
AcDbEntity
  8
0
100
AcDbBlockBegin
  2
block 71
 70
     0
 71
     0
 10
0.0
 20
0.0
 30
0.0
  3
block 71
  1

  0
POLYLINE
  5
232
330
22E
100
AcDbEntity
  8
cuerpo
 62
     7
420
 16777215
370
    30
100
AcDb2dPolyline
 66
     1
 10
0.0
 20
0.0
 30
0.0
  0
VERTEX
  5
233
330
232
100
AcDbEntity
  8
cuerpo
 62
     7
420
 16777215
370
    30
100
AcDbVertex
100
AcDb2dVertex
 10
46.53893363636874
 20
28.65906032269635
 30
0.0
  0
VERTEX
  5
234
330
232
100
AcDbEntity
  8
cuerpo
 62
     7
420
 16777215
370
    30
100
AcDbVertex
100
AcDb2dVertex
 10
46.53893363636874
 20
28.89263779659629
 30
0.0
  0
SEQEND
  5
235
330
232
100
AcDbEntity
  8
cuerpo
370
    30
  0
ENDBLK
  5
231
330
22E
100
AcDbEntity
  8
0
100
AcDbBlockEnd
  0
BLOCK
  5
238
330
236
100
AcDbEntity
  8
0
100
AcDbBlockBegin
  2
block 72
 70
     0
 71
     0
 10
0.0
 20
0.0
 30
0.0
  3
block 72
  1

  0
POLYLINE
  5
23A
330
236
100
AcDbEntity
  8
cuerpo
 62
     7
420
 16777215
370
    30
100
AcDb2dPolyline
 66
     1
 10
0.0
 20
0.0
 30
0.0
  0
VERTEX
  5
23B
330
23A
100
AcDbEntity
  8
cuerpo
 62
     7
420
 16777215
370
    30
100
AcDbVertex
100
AcDb2dVertex
 10
45.95464544207037
 20
28.65906032269635
 30
0.0
  0
VERTEX
  5
23C
330
23A
100
AcDbEntity
  8
cuerpo
 62
     7
420
 16777215
370
    30
100
AcDbVertex
100
AcDb2dVertex
 10
49.46158039128044
 20
28.65906032269635
 30
0.0
  0
SEQEND
  5
23D
330
23A
100
AcDbEntity
  8
cuerpo
370
    30
  0
ENDBLK
  5
239
330
236
100
AcDbEntity
  8
0
100
AcDbBlockEnd
  0
BLOCK
  5
240
330
23E
100
AcDbEntity
  8
0
100
AcDbBlockBegin
  2
block 73
 70
     0
 71
     0
 10
0.0
 20
0.0
 30
0.0
  3
block 73
  1

  0
POLYLINE
  5
242
330
23E
100
AcDbEntity
  8
cuerpo
 62
     7
420
 16777215
370
    30
100
AcDb2dPolyline
 66
     1
 10
0.0
 20
0.0
 30
0.0
  0
VERTEX
  5
243
330
242
100
AcDbEntity
  8
cuerpo
 62
     7
420
 16777215
370
    30
100
AcDbVertex
100
AcDb2dVertex
 10
48.87711994220781
 20
28.65906032269635
 30
0.0
  0
VERTEX
  5
244
330
242
100
AcDbEntity
  8
cuerpo
 62
     7
420
 16777215
370
    30
100
AcDbVertex
100
AcDb2dVertex
 10
48.87711994220781
 20
28.89263779659629
 30
0.0
  0
SEQEND
  5
245
330
242
100
AcDbEntity
  8
cuerpo
370
    30
  0
ENDBLK
  5
241
330
23E
100
AcDbEntity
  8
0
100
AcDbBlockEnd
  0
BLOCK
  5
248
330
246
100
AcDbEntity
  8
0
100
AcDbBlockBegin
  2
block 74
 70
     0
 71
     0
 10
0.0
 20
0.0
 30
0.0
  3
block 74
  1

  0
SPLINE
  5
24A
330
246
100
AcDbEntity
  8
cuerpo
 62
     7
420
 16777215
370
    30
100
AcDbSpline
210
0.0
220
0.0
230
1.0
 70
     8
 71
     3
 72
     8
 73
     4
 74
     0
 42
0.0000000001
 43
0.0000000001
 40
0.0
 40
0.0
 40
0.0
 40
0.0
 40
1.0
 40
1.0
 40
1.0
 40
1.0
 10
48.87711994220781
 20
28.89263779659629
 30
0.0
 10
48.87711994220781
 20
28.95706108217046
 30
0.0
 10
48.82492674560627
 20
29.00942653354626
 30
0.0
 10
48.76015895048357
 20
29.00942653354626
 30
0.0
  0
ENDBLK
  5
249
330
246
100
AcDbEntity
  8
0
100
AcDbBlockEnd
  0
BLOCK
  5
24D
330
24B
100
AcDbEntity
  8
0
100
AcDbBlockBegin
  2
block 75
 70
     0
 71
     0
 10
0.0
 20
0.0
 30
0.0
  3
block 75
  1

  0
POLYLINE
  5
24F
330
24B
100
AcDbEntity
  8
cuerpo
 62
     7
420
 16777215
370
    30
100
AcDb2dPolyline
 66
     1
 10
0.0
 20
0.0
 30
0.0
  0
VERTEX
  5
250
330
24F
100
AcDbEntity
  8
cuerpo
 62
     7
420
 16777215
370
    30
100
AcDbVertex
100
AcDb2dVertex
 10
49.81229111167887
 20
28.45648870816366
 30
0.0
  0
VERTEX
  5
251
330
24F
100
AcDbEntity
  8
cuerpo
 62
     7
420
 16777215
370
    30
100
AcDbVertex
100
AcDb2dVertex
 10
49.81229111167887
 20
26.52344563138997
 30
0.0
  0
SEQEND
  5
252
330
24F
100
AcDbEntity
  8
cuerpo
370
    30
  0
ENDBLK
  5
24E
330
24B
100
AcDbEntity
  8
0
100
AcDbBlockEnd
  0
BLOCK
  5
255
330
253
100
AcDbEntity
  8
0
100
AcDbBlockBegin
  2
block 76
 70
     0
 71
     0
 10
0.0
 20
0.0
 30
0.0
  3
block 76
  1

  0
POLYLINE
  5
257
330
253
100
AcDbEntity
  8
cuerpo
 62
     7
420
 16777215
370
    30
100
AcDb2dPolyline
 66
     1
 10
0.0
 20
0.0
 30
0.0
  0
VERTEX
  5
258
330
257
100
AcDbEntity
  8
cuerpo
 62
     7
420
 16777215
370
    30
100
AcDbVertex
100
AcDb2dVertex
 10
49.46158039128044
 20
26.32087401685728
 30
0.0
  0
VERTEX
  5
259
330
257
100
AcDbEntity
  8
cuerpo
 62
     7
420
 16777215
370
    30
100
AcDbVertex
100
AcDb2dVertex
 10
45.95464544207037
 20
26.32087401685728
 30
0.0
  0
SEQEND
  5
25A
330
257
100
AcDbEntity
  8
cuerpo
370
    30
  0
ENDBLK
  5
256
330
253
100
AcDbEntity
  8
0
100
AcDbBlockEnd
  0
BLOCK
  5
25D
330
25B
100
AcDbEntity
  8
0
100
AcDbBlockBegin
  2
block 77
 70
     0
 71
     0
 10
0.0
 20
0.0
 30
0.0
  3
block 77
  1

  0
SPLINE
  5
25F
330
25B
100
AcDbEntity
  8
cuerpo
 62
     7
420
 16777215
370
    30
100
AcDbSpline
210
0.0
220
0.0
230
1.0
 70
     8
 71
     3
 72
     8
 73
     4
 74
     0
 42
0.0000000001
 43
0.0000000001
 40
0.0
 40
0.0
 40
0.0
 40
0.0
 40
1.0
 40
1.0
 40
1.0
 40
1.0
 10
46.65606688286724
 20
29.00942653354626
 30
0.0
 10
46.5914713425188
 20
29.00942653354626
 30
0.0
 10
46.53893363636874
 20
28.95706108217046
 30
0.0
 10
46.53893363636874
 20
28.89263779659629
 30
0.0
  0
ENDBLK
  5
25E
330
25B
100
AcDbEntity
  8
0
100
AcDbBlockEnd
  0
BLOCK
  5
262
330
260
100
AcDbEntity
  8
0
100
AcDbBlockBegin
  2
block 78
 70
     0
 71
     0
 10
0.0
 20
0.0
 30
0.0
  3
block 78
  1

  0
POLYLINE
  5
264
330
260
100
AcDbEntity
  8
cuerpo
 62
     7
420
 16777215
370
    30
100
AcDb2dPolyline
 66
     1
 10
0.0
 20
0.0
 30
0.0
  0
VERTEX
  5
265
330
264
100
AcDbEntity
  8
cuerpo
 62
     7
420
 16777215
370
    30
100
AcDbVertex
100
AcDb2dVertex
 10
49.46158039128044
 20
28.65906032269635
 30
0.0
  0
VERTEX
  5
266
330
264
100
AcDbEntity
  8
cuerpo
 62
     7
420
 16777215
370
    30
100
AcDbVertex
100
AcDb2dVertex
 10
49.81229111167887
 20
28.45648870816366
 30
0.0
  0
SEQEND
  5
267
330
264
100
AcDbEntity
  8
cuerpo
370
    30
  0
ENDBLK
  5
263
330
260
100
AcDbEntity
  8
0
100
AcDbBlockEnd
  0
BLOCK
  5
26A
330
268
100
AcDbEntity
  8
0
100
AcDbBlockBegin
  2
block 79
 70
     0
 71
     0
 10
0.0
 20
0.0
 30
0.0
  3
block 79
  1

  0
POLYLINE
  5
26C
330
268
100
AcDbEntity
  8
cuerpo
 62
     7
420
 16777215
370
    30
100
AcDb2dPolyline
 66
     1
 10
0.0
 20
0.0
 30
0.0
  0
VERTEX
  5
26D
330
26C
100
AcDbEntity
  8
cuerpo
 62
     7
420
 16777215
370
    30
100
AcDbVertex
100
AcDb2dVertex
 10
49.46158039128044
 20
26.32087401685728
 30
0.0
  0
VERTEX
  5
26E
330
26C
100
AcDbEntity
  8
cuerpo
 62
     7
420
 16777215
370
    30
100
AcDbVertex
100
AcDb2dVertex
 10
49.81229111167887
 20
26.52344563138997
 30
0.0
  0
SEQEND
  5
26F
330
26C
100
AcDbEntity
  8
cuerpo
370
    30
  0
ENDBLK
  5
26B
330
268
100
AcDbEntity
  8
0
100
AcDbBlockEnd
  0
BLOCK
  5
272
330
270
100
AcDbEntity
  8
0
100
AcDbBlockBegin
  2
block 80
 70
     0
 71
     0
 10
0.0
 20
0.0
 30
0.0
  3
block 80
  1

  0
POLYLINE
  5
274
330
270
100
AcDbEntity
  8
cuerpo
 62
     7
420
 16777215
370
    30
100
AcDb2dPolyline
 66
     1
 10
0.0
 20
0.0
 30
0.0
  0
VERTEX
  5
275
330
274
100
AcDbEntity
  8
cuerpo
 62
     7
420
 16777215
370
    30
100
AcDbVertex
100
AcDb2dVertex
 10
46.53893363636874
 20
28.45648870816366
 30
0.0
  0
VERTEX
  5
276
330
274
100
AcDbEntity
  8
cuerpo
 62
     7
420
 16777215
370
    30
100
AcDbVertex
100
AcDb2dVertex
 10
46.53893363636874
 20
26.52344563138997
 30
0.0
  0
SEQEND
  5
277
330
274
100
AcDbEntity
  8
cuerpo
370
    30
  0
ENDBLK
  5
273
330
270
100
AcDbEntity
  8
0
100
AcDbBlockEnd
  0
BLOCK
  5
27A
330
278
100
AcDbEntity
  8
0
100
AcDbBlockBegin
  2
block 81
 70
     0
 71
     0
 10
0.0
 20
0.0
 30
0.0
  3
block 81
  1

  0
POLYLINE
  5
27C
330
278
100
AcDbEntity
  8
cuerpo
 62
     7
420
 16777215
370
    30
100
AcDb2dPolyline
 66
     1
 10
0.0
 20
0.0
 30
0.0
  0
VERTEX
  5
27D
330
27C
100
AcDbEntity
  8
cuerpo
 62
     7
420
 16777215
370
    30
100
AcDbVertex
100
AcDb2dVertex
 10
48.87711994220781
 20
28.45648870816366
 30
0.0
  0
VERTEX
  5
27E
330
27C
100
AcDbEntity
  8
cuerpo
 62
     7
420
 16777215
370
    30
100
AcDbVertex
100
AcDb2dVertex
 10
48.87711994220781
 20
26.52344563138997
 30
0.0
  0
SEQEND
  5
27F
330
27C
100
AcDbEntity
  8
cuerpo
370
    30
  0
ENDBLK
  5
27B
330
278
100
AcDbEntity
  8
0
100
AcDbBlockEnd
  0
BLOCK
  5
282
330
280
100
AcDbEntity
  8
0
100
AcDbBlockBegin
  2
block 82
 70
     0
 71
     0
 10
0.0
 20
0.0
 30
0.0
  3
block 82
  1

  0
SPLINE
  5
284
330
280
100
AcDbEntity
  8
cuerpo
 62
     7
420
 16777215
370
    30
100
AcDbSpline
210
0.0
220
0.0
230
1.0
 70
     8
 71
     3
 72
     8
 73
     4
 74
     0
 42
0.0000000001
 43
0.0000000001
 40
0.0
 40
0.0
 40
0.0
 40
0.0
 40
1.0
 40
1.0
 40
1.0
 40
1.0
 10
48.87711994220781
 20
28.45648870816366
 30
0.0
 10
48.12109373796973
 20
28.72623968465872
 30
0.0
 10
47.29495984060681
 20
28.72623968465872
 30
0.0
 10
46.53893363636874
 20
28.45648870816366
 30
0.0
  0
ENDBLK
  5
283
330
280
100
AcDbEntity
  8
0
100
AcDbBlockEnd
  0
BLOCK
  5
287
330
285
100
AcDbEntity
  8
0
100
AcDbBlockBegin
  2
block 83
 70
     0
 71
     0
 10
0.0
 20
0.0
 30
0.0
  3
block 83
  1

  0
SPLINE
  5
289
330
285
100
AcDbEntity
  8
cuerpo
 62
     7
420
 16777215
370
    30
100
AcDbSpline
210
0.0
220
0.0
230
1.0
 70
     8
 71
     3
 72
     8
 73
     4
 74
     0
 42
0.0000000001
 43
0.0000000001
 40
0.0
 40
0.0
 40
0.0
 40
0.0
 40
1.0
 40
1.0
 40
1.0
 40
1.0
 10
46.53893363636874
 20
26.52344563138997
 30
0.0
 10
47.29495984060681
 20
26.25335014534638
 30
0.0
 10
48.12109373796973
 20
26.25335014534638
 30
0.0
 10
48.87711994220781
 20
26.52344563138997
 30
0.0
  0
ENDBLK
  5
288
330
285
100
AcDbEntity
  8
0
100
AcDbBlockEnd
  0
BLOCK
  5
28C
330
28A
100
AcDbEntity
  8
0
100
AcDbBlockBegin
  2
block 84
 70
     0
 71
     0
 10
0.0
 20
0.0
 30
0.0
  3
block 84
  1

  0
SPLINE
  5
28E
330
28A
100
AcDbEntity
  8
cuerpo
 62
     7
420
 16777215
370
    30
100
AcDbSpline
210
0.0
220
0.0
230
1.0
 70
     8
 71
     3
 72
     8
 73
     4
 74
     0
 42
0.0000000001
 43
0.0000000001
 40
0.0
 40
0.0
 40
0.0
 40
0.0
 40
1.0
 40
1.0
 40
1.0
 40
1.0
 10
45.95464544207037
 20
26.32087401685728
 30
0.0
 10
46.16789685260733
 20
26.31226127814416
 30
0.0
 10
46.37666963901347
 20
26.3846082833344
 30
0.0
 10
46.53893363636874
 20
26.52344563138997
 30
0.0
  0
ENDBLK
  5
28D
330
28A
100
AcDbEntity
  8
0
100
AcDbBlockEnd
  0
BLOCK
  5
291
330
28F
100
AcDbEntity
  8
0
100
AcDbBlockBegin
  2
block 85
 70
     0
 71
     0
 10
0.0
 20
0.0
 30
0.0
  3
block 85
  1

  0
SPLINE
  5
293
330
28F
100
AcDbEntity
  8
cuerpo
 62
     7
420
 16777215
370
    30
100
AcDbSpline
210
0.0
220
0.0
230
1.0
 70
     8
 71
     3
 72
     8
 73
     4
 74
     0
 42
0.0000000001
 43
0.0000000001
 40
0.0
 40
0.0
 40
0.0
 40
0.0
 40
1.0
 40
1.0
 40
1.0
 40
1.0
 10
46.53893363636874
 20
28.45648870816366
 30
0.0
 10
46.37666963901347
 20
28.5949815466707
 30
0.0
 10
46.16789685260733
 20
28.66732855186095
 30
0.0
 10
45.95464544207037
 20
28.65906032269635
 30
0.0
  0
ENDBLK
  5
292
330
28F
100
AcDbEntity
  8
0
100
AcDbBlockEnd
  0
BLOCK
  5
296
330
294
100
AcDbEntity
  8
0
100
AcDbBlockBegin
  2
block 86
 70
     0
 71
     0
 10
0.0
 20
0.0
 30
0.0
  3
block 86
  1

  0
SPLINE
  5
298
330
294
100
AcDbEntity
  8
cuerpo
 62
     7
420
 16777215
370
    30
100
AcDbSpline
210
0.0
220
0.0
230
1.0
 70
     8
 71
     3
 72
     8
 73
     4
 74
     0
 42
0.0000000001
 43
0.0000000001
 40
0.0
 40
0.0
 40
0.0
 40
0.0
 40
1.0
 40
1.0
 40
1.0
 40
1.0
 10
49.46158039128044
 20
28.65906032269635
 30
0.0
 10
49.24815672596921
 20
28.66732855186095
 30
0.0
 10
49.03955619433734
 20
28.5949815466707
 30
0.0
 10
48.87711994220781
 20
28.45648870816366
 30
0.0
  0
ENDBLK
  5
297
330
294
100
AcDbEntity
  8
0
100
AcDbBlockEnd
  0
BLOCK
  5
29B
330
299
100
AcDbEntity
  8
0
100
AcDbBlockBegin
  2
block 87
 70
     0
 71
     0
 10
0.0
 20
0.0
 30
0.0
  3
block 87
  1

  0
SPLINE
  5
29D
330
299
100
AcDbEntity
  8
cuerpo
 62
     7
420
 16777215
370
    30
100
AcDbSpline
210
0.0
220
0.0
230
1.0
 70
     8
 71
     3
 72
     8
 73
     4
 74
     0
 42
0.0000000001
 43
0.0000000001
 40
0.0
 40
0.0
 40
0.0
 40
0.0
 40
1.0
 40
1.0
 40
1.0
 40
1.0
 10
48.87711994220781
 20
26.52344563138997
 30
0.0
 10
49.03955619433734
 20
26.3846082833344
 30
0.0
 10
49.24815672596921
 20
26.31226127814416
 30
0.0
 10
49.46158039128044
 20
26.32087401685728
 30
0.0
  0
ENDBLK
  5
29C
330
299
100
AcDbEntity
  8
0
100
AcDbBlockEnd
  0
BLOCK
  5
2A0
330
29E
100
AcDbEntity
  8
0
100
AcDbBlockBegin
  2
block 88
 70
     0
 71
     0
 10
0.0
 20
0.0
 30
0.0
  3
block 88
  1

  0
POLYLINE
  5
2A2
330
29E
100
AcDbEntity
  8
cuerpo
 62
     7
420
 16777215
370
    30
100
AcDb2dPolyline
 66
     1
 10
0.0
 20
0.0
 30
0.0
  0
VERTEX
  5
2A3
330
2A2
100
AcDbEntity
  8
cuerpo
 62
     7
420
 16777215
370
    30
100
AcDbVertex
100
AcDb2dVertex
 10
45.60393472167193
 20
28.45648870816366
 30
0.0
  0
VERTEX
  5
2A4
330
2A2
100
AcDbEntity
  8
cuerpo
 62
     7
420
 16777215
370
    30
100
AcDbVertex
100
AcDb2dVertex
 10
45.60393472167193
 20
26.52344563138997
 30
0.0
  0
SEQEND
  5
2A5
330
2A2
100
AcDbEntity
  8
cuerpo
370
    30
  0
ENDBLK
  5
2A1
330
29E
100
AcDbEntity
  8
0
100
AcDbBlockEnd
  0
BLOCK
  5
2A8
330
2A6
100
AcDbEntity
  8
0
100
AcDbBlockBegin
  2
block 89
 70
     0
 71
     0
 10
0.0
 20
0.0
 30
0.0
  3
block 89
  1

  0
POLYLINE
  5
2AA
330
2A6
100
AcDbEntity
  8
cuerpo
 62
     7
420
 16777215
370
    30
100
AcDb2dPolyline
 66
     1
 10
0.0
 20
0.0
 30
0.0
  0
VERTEX
  5
2AB
330
2AA
100
AcDbEntity
  8
cuerpo
 62
     7
420
 16777215
370
    30
100
AcDbVertex
100
AcDb2dVertex
 10
45.95464544207037
 20
28.65906032269635
 30
0.0
  0
VERTEX
  5
2AC
330
2AA
100
AcDbEntity
  8
cuerpo
 62
     7
420
 16777215
370
    30
100
AcDbVertex
100
AcDb2dVertex
 10
45.60393472167193
 20
28.45648870816366
 30
0.0
  0
SEQEND
  5
2AD
330
2AA
100
AcDbEntity
  8
cuerpo
370
    30
  0
ENDBLK
  5
2A9
330
2A6
100
AcDbEntity
  8
0
100
AcDbBlockEnd
  0
BLOCK
  5
2B0
330
2AE
100
AcDbEntity
  8
0
100
AcDbBlockBegin
  2
block 90
 70
     0
 71
     0
 10
0.0
 20
0.0
 30
0.0
  3
block 90
  1

  0
POLYLINE
  5
2B2
330
2AE
100
AcDbEntity
  8
cuerpo
 62
     7
420
 16777215
370
    30
100
AcDb2dPolyline
 66
     1
 10
0.0
 20
0.0
 30
0.0
  0
VERTEX
  5
2B3
330
2B2
100
AcDbEntity
  8
cuerpo
 62
     7
420
 16777215
370
    30
100
AcDbVertex
100
AcDb2dVertex
 10
45.95464544207037
 20
26.32087401685728
 30
0.0
  0
VERTEX
  5
2B4
330
2B2
100
AcDbEntity
  8
cuerpo
 62
     7
420
 16777215
370
    30
100
AcDbVertex
100
AcDb2dVertex
 10
45.60393472167193
 20
26.52344563138997
 30
0.0
  0
SEQEND
  5
2B5
330
2B2
100
AcDbEntity
  8
cuerpo
370
    30
  0
ENDBLK
  5
2B1
330
2AE
100
AcDbEntity
  8
0
100
AcDbBlockEnd
  0
BLOCK
  5
2B8
330
2B6
100
AcDbEntity
  8
0
100
AcDbBlockBegin
  2
block 91
 70
     0
 71
     0
 10
0.0
 20
0.0
 30
0.0
  3
block 91
  1

  0
POLYLINE
  5
2BA
330
2B6
100
AcDbEntity
  8
cuerpo
 62
     7
420
 16777215
370
    30
100
AcDb2dPolyline
 66
     1
 10
0.0
 20
0.0
 30
0.0
  0
VERTEX
  5
2BB
330
2BA
100
AcDbEntity
  8
cuerpo
 62
     7
420
 16777215
370
    30
100
AcDbVertex
100
AcDb2dVertex
 10
42.95965168196842
 20
35.04178872821872
 30
0.0
  0
VERTEX
  5
2BC
330
2BA
100
AcDbEntity
  8
cuerpo
 62
     7
420
 16777215
370
    30
100
AcDbVertex
100
AcDb2dVertex
 10
44.82999402091056
 20
35.04178872821872
 30
0.0
  0
SEQEND
  5
2BD
330
2BA
100
AcDbEntity
  8
cuerpo
370
    30
  0
ENDBLK
  5
2B9
330
2B6
100
AcDbEntity
  8
0
100
AcDbBlockEnd
  0
BLOCK
  5
2C0
330
2BE
100
AcDbEntity
  8
0
100
AcDbBlockBegin
  2
block 92
 70
     0
 71
     0
 10
0.0
 20
0.0
 30
0.0
  3
block 92
  1

  0
POLYLINE
  5
2C2
330
2BE
100
AcDbEntity
  8
cuerpo
 62
     7
420
 16777215
370
    30
100
AcDb2dPolyline
 66
     1
 10
0.0
 20
0.0
 30
0.0
  0
VERTEX
  5
2C3
330
2C2
100
AcDbEntity
  8
cuerpo
 62
     7
420
 16777215
370
    30
100
AcDbVertex
100
AcDb2dVertex
 10
44.81414658167841
 20
34.85368651472408
 30
0.0
  0
VERTEX
  5
2C4
330
2C2
100
AcDbEntity
  8
cuerpo
 62
     7
420
 16777215
370
    30
100
AcDbVertex
100
AcDb2dVertex
 10
44.81414658167841
 20
37.75824651833822
 30
0.0
  0
SEQEND
  5
2C5
330
2C2
100
AcDbEntity
  8
cuerpo
370
    30
  0
ENDBLK
  5
2C1
330
2BE
100
AcDbEntity
  8
0
100
AcDbBlockEnd
  0
BLOCK
  5
2C8
330
2C6
100
AcDbEntity
  8
0
100
AcDbBlockBegin
  2
block 93
 70
     0
 71
     0
 10
0.0
 20
0.0
 30
0.0
  3
block 93
  1

  0
POLYLINE
  5
2CA
330
2C6
100
AcDbEntity
  8
cuerpo
 62
     7
420
 16777215
370
    30
100
AcDb2dPolyline
 66
     1
 10
0.0
 20
0.0
 30
0.0
  0
VERTEX
  5
2CB
330
2CA
100
AcDbEntity
  8
cuerpo
 62
     7
420
 16777215
370
    30
100
AcDbVertex
100
AcDb2dVertex
 10
42.95965168196842
 20
34.85368651472408
 30
0.0
  0
VERTEX
  5
2CC
330
2CA
100
AcDbEntity
  8
cuerpo
 62
     7
420
 16777215
370
    30
100
AcDbVertex
100
AcDb2dVertex
 10
42.95965168196842
 20
37.75824651833822
 30
0.0
  0
SEQEND
  5
2CD
330
2CA
100
AcDbEntity
  8
cuerpo
370
    30
  0
ENDBLK
  5
2C9
330
2C6
100
AcDbEntity
  8
0
100
AcDbBlockEnd
  0
BLOCK
  5
2D0
330
2CE
100
AcDbEntity
  8
0
100
AcDbBlockBegin
  2
block 94
 70
     0
 71
     0
 10
0.0
 20
0.0
 30
0.0
  3
block 94
  1

  0
POLYLINE
  5
2D2
330
2CE
100
AcDbEntity
  8
cuerpo
 62
     7
420
 16777215
370
    30
100
AcDb2dPolyline
 66
     1
 10
0.0
 20
0.0
 30
0.0
  0
VERTEX
  5
2D3
330
2D2
100
AcDbEntity
  8
cuerpo
 62
     7
420
 16777215
370
    30
100
AcDbVertex
100
AcDb2dVertex
 10
50.45187308851551
 20
76.41462942968107
 30
0.0
  0
VERTEX
  5
2D4
330
2D2
100
AcDbEntity
  8
cuerpo
 62
     7
420
 16777215
370
    30
100
AcDbVertex
100
AcDb2dVertex
 10
42.1864000003041
 20
76.41462942968107
 30
0.0
  0
SEQEND
  5
2D5
330
2D2
100
AcDbEntity
  8
cuerpo
370
    30
  0
ENDBLK
  5
2D1
330
2CE
100
AcDbEntity
  8
0
100
AcDbBlockEnd
  0
BLOCK
  5
2D8
330
2D6
100
AcDbEntity
  8
0
100
AcDbBlockBegin
  2
block 95
 70
     0
 71
     0
 10
0.0
 20
0.0
 30
0.0
  3
block 95
  1

  0
POLYLINE
  5
2DA
330
2D6
100
AcDbEntity
  8
cuerpo
 62
     7
420
 16777215
370
    30
100
AcDb2dPolyline
 66
     1
 10
0.0
 20
0.0
 30
0.0
  0
VERTEX
  5
2DB
330
2DA
100
AcDbEntity
  8
cuerpo
 62
     7
420
 16777215
370
    30
100
AcDbVertex
100
AcDb2dVertex
 10
60.84314234590033
 20
70.24480792514713
 30
0.0
  0
VERTEX
  5
2DC
330
2DA
100
AcDbEntity
  8
cuerpo
 62
     7
420
 16777215
370
    30
100
AcDbVertex
100
AcDb2dVertex
 10
60.84314234590033
 20
65.04925942384186
 30
0.0
  0
SEQEND
  5
2DD
330
2DA
100
AcDbEntity
  8
cuerpo
370
    30
  0
ENDBLK
  5
2D9
330
2D6
100
AcDbEntity
  8
0
100
AcDbBlockEnd
  0
BLOCK
  5
2E0
330
2DE
100
AcDbEntity
  8
0
100
AcDbBlockBegin
  2
block 96
 70
     0
 71
     0
 10
0.0
 20
0.0
 30
0.0
  3
block 96
  1

  0
POLYLINE
  5
2E2
330
2DE
100
AcDbEntity
  8
cuerpo
 62
     7
420
 16777215
370
    30
100
AcDb2dPolyline
 66
     1
 10
0.0
 20
0.0
 30
0.0
  0
VERTEX
  5
2E3
330
2E2
100
AcDbEntity
  8
cuerpo
 62
     7
420
 16777215
370
    30
100
AcDbVertex
100
AcDb2dVertex
 10
60.27642413857673
 20
65.04925942384186
 30
0.0
  0
VERTEX
  5
2E4
330
2E2
100
AcDbEntity
  8
cuerpo
 62
     7
420
 16777215
370
    30
100
AcDbVertex
100
AcDb2dVertex
 10
60.27642413857673
 20
70.24480792514713
 30
0.0
  0
SEQEND
  5
2E5
330
2E2
100
AcDbEntity
  8
cuerpo
370
    30
  0
ENDBLK
  5
2E1
330
2DE
100
AcDbEntity
  8
0
100
AcDbBlockEnd
  0
BLOCK
  5
2E8
330
2E6
100
AcDbEntity
  8
0
100
AcDbBlockBegin
  2
block 97
 70
     0
 71
     0
 10
0.0
 20
0.0
 30
0.0
  3
block 97
  1

  0
POLYLINE
  5
2EA
330
2E6
100
AcDbEntity
  8
cuerpo
 62
     7
420
 16777215
370
    30
100
AcDb2dPolyline
 66
     1
 10
0.0
 20
0.0
 30
0.0
  0
VERTEX
  5
2EB
330
2EA
100
AcDbEntity
  8
cuerpo
 62
     7
420
 16777215
370
    30
100
AcDbVertex
100
AcDb2dVertex
 10
69.34494898439988
 20
67.11872828183144
 30
0.0
  0
VERTEX
  5
2EC
330
2EA
100
AcDbEntity
  8
cuerpo
 62
     7
420
 16777215
370
    30
100
AcDbVertex
100
AcDb2dVertex
 10
69.34494898439988
 20
70.24480792514713
 30
0.0
  0
SEQEND
  5
2ED
330
2EA
100
AcDbEntity
  8
cuerpo
370
    30
  0
ENDBLK
  5
2E9
330
2E6
100
AcDbEntity
  8
0
100
AcDbBlockEnd
  0
BLOCK
  5
2F0
330
2EE
100
AcDbEntity
  8
0
100
AcDbBlockBegin
  2
block 98
 70
     0
 71
     0
 10
0.0
 20
0.0
 30
0.0
  3
block 98
  1

  0
POLYLINE
  5
2F2
330
2EE
100
AcDbEntity
  8
cuerpo
 62
     7
420
 16777215
370
    30
100
AcDb2dPolyline
 66
     1
 10
0.0
 20
0.0
 30
0.0
  0
VERTEX
  5
2F3
330
2F2
100
AcDbEntity
  8
cuerpo
 62
     7
420
 16777215
370
    30
100
AcDbVertex
100
AcDb2dVertex
 10
50.47547199258947
 20
70.24480792514713
 30
0.0
  0
VERTEX
  5
2F4
330
2F2
100
AcDbEntity
  8
cuerpo
 62
     7
420
 16777215
370
    30
100
AcDbVertex
100
AcDb2dVertex
 10
50.47547199258947
 20
65.04925942384186
 30
0.0
  0
SEQEND
  5
2F5
330
2F2
100
AcDbEntity
  8
cuerpo
370
    30
  0
ENDBLK
  5
2F1
330
2EE
100
AcDbEntity
  8
0
100
AcDbBlockEnd
  0
BLOCK
  5
2F8
330
2F6
100
AcDbEntity
  8
0
100
AcDbBlockBegin
  2
block 99
 70
     0
 71
     0
 10
0.0
 20
0.0
 30
0.0
  3
block 99
  1

  0
POLYLINE
  5
2FA
330
2F6
100
AcDbEntity
  8
cuerpo
 62
     7
420
 16777215
370
    30
100
AcDb2dPolyline
 66
     1
 10
0.0
 20
0.0
 30
0.0
  0
VERTEX
  5
2FB
330
2FA
100
AcDbEntity
  8
cuerpo
 62
     7
420
 16777215
370
    30
100
AcDbVertex
100
AcDb2dVertex
 10
50.47547199258947
 20
65.04925942384186
 30
0.0
  0
VERTEX
  5
2FC
330
2FA
100
AcDbEntity
  8
cuerpo
 62
     7
420
 16777215
370
    30
100
AcDbVertex
100
AcDb2dVertex
 10
60.27642413857673
 20
65.04925942384186
 30
0.0
  0
SEQEND
  5
2FD
330
2FA
100
AcDbEntity
  8
cuerpo
370
    30
  0
ENDBLK
  5
2F9
330
2F6
100
AcDbEntity
  8
0
100
AcDbBlockEnd
  0
BLOCK
  5
300
330
2FE
100
AcDbEntity
  8
0
100
AcDbBlockBegin
  2
block 100
 70
     0
 71
     0
 10
0.0
 20
0.0
 30
0.0
  3
block 100
  1

  0
POLYLINE
  5
302
330
2FE
100
AcDbEntity
  8
cuerpo
 62
     7
420
 16777215
370
    30
100
AcDb2dPolyline
 66
     1
 10
0.0
 20
0.0
 30
0.0
  0
VERTEX
  5
303
330
302
100
AcDbEntity
  8
cuerpo
 62
     7
420
 16777215
370
    30
100
AcDbVertex
100
AcDb2dVertex
 10
60.84314234590033
 20
65.04925942384186
 30
0.0
  0
VERTEX
  5
304
330
302
100
AcDbEntity
  8
cuerpo
 62
     7
420
 16777215
370
    30
100
AcDbVertex
100
AcDb2dVertex
 10
63.6584743764465
 20
65.04925942384186
 30
0.0
  0
SEQEND
  5
305
330
302
100
AcDbEntity
  8
cuerpo
370
    30
  0
ENDBLK
  5
301
330
2FE
100
AcDbEntity
  8
0
100
AcDbBlockEnd
  0
BLOCK
  5
308
330
306
100
AcDbEntity
  8
0
100
AcDbBlockBegin
  2
block 101
 70
     0
 71
     0
 10
0.0
 20
0.0
 30
0.0
  3
block 101
  1

  0
POLYLINE
  5
30A
330
306
100
AcDbEntity
  8
cuerpo
 62
     7
420
 16777215
370
    30
100
AcDb2dPolyline
 66
     1
 10
0.0
 20
0.0
 30
0.0
  0
VERTEX
  5
30B
330
30A
100
AcDbEntity
  8
cuerpo
 62
     7
420
 16777215
370
    30
100
AcDbVertex
100
AcDb2dVertex
 10
60.84314234590033
 20
70.24480792514713
 30
0.0
  0
VERTEX
  5
30C
330
30A
100
AcDbEntity
  8
cuerpo
 62
     7
420
 16777215
370
    30
100
AcDbVertex
100
AcDb2dVertex
 10
69.34494898439988
 20
70.24480792514713
 30
0.0
  0
SEQEND
  5
30D
330
30A
100
AcDbEntity
  8
cuerpo
370
    30
  0
ENDBLK
  5
309
330
306
100
AcDbEntity
  8
0
100
AcDbBlockEnd
  0
BLOCK
  5
310
330
30E
100
AcDbEntity
  8
0
100
AcDbBlockBegin
  2
block 102
 70
     0
 71
     0
 10
0.0
 20
0.0
 30
0.0
  3
block 102
  1

  0
POLYLINE
  5
312
330
30E
100
AcDbEntity
  8
cuerpo
 62
     7
420
 16777215
370
    30
100
AcDb2dPolyline
 66
     1
 10
0.0
 20
0.0
 30
0.0
  0
VERTEX
  5
313
330
312
100
AcDbEntity
  8
cuerpo
 62
     7
420
 16777215
370
    30
100
AcDbVertex
100
AcDb2dVertex
 10
50.47547199258947
 20
70.24480792514713
 30
0.0
  0
VERTEX
  5
314
330
312
100
AcDbEntity
  8
cuerpo
 62
     7
420
 16777215
370
    30
100
AcDbVertex
100
AcDb2dVertex
 10
60.27642413857673
 20
70.24480792514713
 30
0.0
  0
SEQEND
  5
315
330
312
100
AcDbEntity
  8
cuerpo
370
    30
  0
ENDBLK
  5
311
330
30E
100
AcDbEntity
  8
0
100
AcDbBlockEnd
  0
BLOCK
  5
318
330
316
100
AcDbEntity
  8
0
100
AcDbBlockBegin
  2
block 103
 70
     0
 71
     0
 10
0.0
 20
0.0
 30
0.0
  3
block 103
  1

  0
POLYLINE
  5
31A
330
316
100
AcDbEntity
  8
cuerpo
 62
     7
420
 16777215
370
    30
100
AcDb2dPolyline
 66
     1
 10
0.0
 20
0.0
 30
0.0
  0
VERTEX
  5
31B
330
31A
100
AcDbEntity
  8
cuerpo
 62
     7
420
 16777215
370
    30
100
AcDbVertex
100
AcDb2dVertex
 10
41.00542126796045
 20
47.95676268332331
 30
0.0
  0
VERTEX
  5
31C
330
31A
100
AcDbEntity
  8
cuerpo
 62
     7
420
 16777215
370
    30
100
AcDbVertex
100
AcDb2dVertex
 10
51.63285182085915
 20
47.95676268332331
 30
0.0
  0
SEQEND
  5
31D
330
31A
100
AcDbEntity
  8
cuerpo
370
    30
  0
ENDBLK
  5
319
330
316
100
AcDbEntity
  8
0
100
AcDbBlockEnd
  0
BLOCK
  5
320
330
31E
100
AcDbEntity
  8
0
100
AcDbBlockBegin
  2
block 104
 70
     0
 71
     0
 10
0.0
 20
0.0
 30
0.0
  3
block 104
  1

  0
POLYLINE
  5
322
330
31E
100
AcDbEntity
  8
cuerpo
 62
     7
420
 16777215
370
    30
100
AcDb2dPolyline
 66
     1
 10
0.0
 20
0.0
 30
0.0
  0
VERTEX
  5
323
330
322
100
AcDbEntity
  8
cuerpo
 62
     7
420
 16777215
370
    30
100
AcDbVertex
100
AcDb2dVertex
 10
41.00542126796045
 20
49.2555636812625
 30
0.0
  0
VERTEX
  5
324
330
322
100
AcDbEntity
  8
cuerpo
 62
     7
420
 16777215
370
    30
100
AcDbVertex
100
AcDb2dVertex
 10
41.00542126796045
 20
47.95676268332331
 30
0.0
  0
SEQEND
  5
325
330
322
100
AcDbEntity
  8
cuerpo
370
    30
  0
ENDBLK
  5
321
330
31E
100
AcDbEntity
  8
0
100
AcDbBlockEnd
  0
BLOCK
  5
328
330
326
100
AcDbEntity
  8
0
100
AcDbBlockBegin
  2
block 105
 70
     0
 71
     0
 10
0.0
 20
0.0
 30
0.0
  3
block 105
  1

  0
POLYLINE
  5
32A
330
326
100
AcDbEntity
  8
cuerpo
 62
     7
420
 16777215
370
    30
100
AcDb2dPolyline
 66
     1
 10
0.0
 20
0.0
 30
0.0
  0
VERTEX
  5
32B
330
32A
100
AcDbEntity
  8
cuerpo
 62
     7
420
 16777215
370
    30
100
AcDbVertex
100
AcDb2dVertex
 10
51.63285182085915
 20
47.95676268332331
 30
0.0
  0
VERTEX
  5
32C
330
32A
100
AcDbEntity
  8
cuerpo
 62
     7
420
 16777215
370
    30
100
AcDbVertex
100
AcDb2dVertex
 10
51.63285182085915
 20
49.2555636812625
 30
0.0
  0
SEQEND
  5
32D
330
32A
100
AcDbEntity
  8
cuerpo
370
    30
  0
ENDBLK
  5
329
330
326
100
AcDbEntity
  8
0
100
AcDbBlockEnd
  0
BLOCK
  5
330
330
32E
100
AcDbEntity
  8
0
100
AcDbBlockBegin
  2
block 106
 70
     0
 71
     0
 10
0.0
 20
0.0
 30
0.0
  3
block 106
  1

  0
POLYLINE
  5
332
330
32E
100
AcDbEntity
  8
cuerpo
 62
     7
420
 16777215
370
    30
100
AcDb2dPolyline
 66
     1
 10
0.0
 20
0.0
 30
0.0
  0
VERTEX
  5
333
330
332
100
AcDbEntity
  8
cuerpo
 62
     7
420
 16777215
370
    30
100
AcDbVertex
100
AcDb2dVertex
 10
42.1864000003041
 20
49.2555636812625
 30
0.0
  0
VERTEX
  5
334
330
332
100
AcDbEntity
  8
cuerpo
 62
     7
420
 16777215
370
    30
100
AcDbVertex
100
AcDb2dVertex
 10
42.1864000003041
 20
76.41462942968107
 30
0.0
  0
SEQEND
  5
335
330
332
100
AcDbEntity
  8
cuerpo
370
    30
  0
ENDBLK
  5
331
330
32E
100
AcDbEntity
  8
0
100
AcDbBlockEnd
  0
BLOCK
  5
338
330
336
100
AcDbEntity
  8
0
100
AcDbBlockBegin
  2
block 107
 70
     0
 71
     0
 10
0.0
 20
0.0
 30
0.0
  3
block 107
  1

  0
POLYLINE
  5
33A
330
336
100
AcDbEntity
  8
cuerpo
 62
     7
420
 16777215
370
    30
100
AcDb2dPolyline
 66
     1
 10
0.0
 20
0.0
 30
0.0
  0
VERTEX
  5
33B
330
33A
100
AcDbEntity
  8
cuerpo
 62
     7
420
 16777215
370
    30
100
AcDbVertex
100
AcDb2dVertex
 10
50.45187308851551
 20
49.2555636812625
 30
0.0
  0
VERTEX
  5
33C
330
33A
100
AcDbEntity
  8
cuerpo
 62
     7
420
 16777215
370
    30
100
AcDbVertex
100
AcDb2dVertex
 10
50.45187308851551
 20
76.41462942968107
 30
0.0
  0
SEQEND
  5
33D
330
33A
100
AcDbEntity
  8
cuerpo
370
    30
  0
ENDBLK
  5
339
330
336
100
AcDbEntity
  8
0
100
AcDbBlockEnd
  0
BLOCK
  5
340
330
33E
100
AcDbEntity
  8
0
100
AcDbBlockBegin
  2
block 108
 70
     0
 71
     0
 10
0.0
 20
0.0
 30
0.0
  3
block 108
  1

  0
POLYLINE
  5
342
330
33E
100
AcDbEntity
  8
cuerpo
 62
     7
420
 16777215
370
    30
100
AcDb2dPolyline
 66
     1
 10
0.0
 20
0.0
 30
0.0
  0
VERTEX
  5
343
330
342
100
AcDbEntity
  8
cuerpo
 62
     7
420
 16777215
370
    30
100
AcDbVertex
100
AcDb2dVertex
 10
51.63285182085915
 20
49.2555636812625
 30
0.0
  0
VERTEX
  5
344
330
342
100
AcDbEntity
  8
cuerpo
 62
     7
420
 16777215
370
    30
100
AcDbVertex
100
AcDb2dVertex
 10
41.00542126796045
 20
49.2555636812625
 30
0.0
  0
SEQEND
  5
345
330
342
100
AcDbEntity
  8
cuerpo
370
    30
  0
ENDBLK
  5
341
330
33E
100
AcDbEntity
  8
0
100
AcDbBlockEnd
  0
BLOCK
  5
348
330
346
100
AcDbEntity
  8
0
100
AcDbBlockBegin
  2
block 109
 70
     0
 71
     0
 10
0.0
 20
0.0
 30
0.0
  3
block 109
  1

  0
POLYLINE
  5
34A
330
346
100
AcDbEntity
  8
cuerpo
 62
     7
420
 16777215
370
    30
100
AcDb2dPolyline
 66
     1
 10
0.0
 20
0.0
 30
0.0
  0
VERTEX
  5
34B
330
34A
100
AcDbEntity
  8
cuerpo
 62
     7
420
 16777215
370
    30
100
AcDbVertex
100
AcDb2dVertex
 10
66.09674070613207
 20
64.77434080411892
 30
0.0
  0
VERTEX
  5
34C
330
34A
100
AcDbEntity
  8
cuerpo
 62
     7
420
 16777215
370
    30
100
AcDbVertex
100
AcDb2dVertex
 10
67.26790091634275
 20
65.20049911564432
 30
0.0
  0
SEQEND
  5
34D
330
34A
100
AcDbEntity
  8
cuerpo
370
    30
  0
ENDBLK
  5
349
330
346
100
AcDbEntity
  8
0
100
AcDbBlockEnd
  0
BLOCK
  5
350
330
34E
100
AcDbEntity
  8
0
100
AcDbBlockBegin
  2
block 110
 70
     0
 71
     0
 10
0.0
 20
0.0
 30
0.0
  3
block 110
  1

  0
POLYLINE
  5
352
330
34E
100
AcDbEntity
  8
cuerpo
 62
     7
420
 16777215
370
    30
100
AcDb2dPolyline
 66
     1
 10
0.0
 20
0.0
 30
0.0
  0
VERTEX
  5
353
330
352
100
AcDbEntity
  8
cuerpo
 62
     7
420
 16777215
370
    30
100
AcDbVertex
100
AcDb2dVertex
 10
68.75652667551921
 20
65.0885335123737
 30
0.0
  0
VERTEX
  5
354
330
352
100
AcDbEntity
  8
cuerpo
 62
     7
420
 16777215
370
    30
100
AcDbVertex
100
AcDb2dVertex
 10
65.02807208660757
 20
63.73185491028232
 30
0.0
  0
SEQEND
  5
355
330
352
100
AcDbEntity
  8
cuerpo
370
    30
  0
ENDBLK
  5
351
330
34E
100
AcDbEntity
  8
0
100
AcDbBlockEnd
  0
BLOCK
  5
358
330
356
100
AcDbEntity
  8
0
100
AcDbBlockBegin
  2
block 111
 70
     0
 71
     0
 10
0.0
 20
0.0
 30
0.0
  3
block 111
  1

  0
POLYLINE
  5
35A
330
356
100
AcDbEntity
  8
cuerpo
 62
     7
420
 16777215
370
    30
100
AcDb2dPolyline
 66
     1
 10
0.0
 20
0.0
 30
0.0
  0
VERTEX
  5
35B
330
35A
100
AcDbEntity
  8
cuerpo
 62
     7
420
 16777215
370
    30
100
AcDbVertex
100
AcDb2dVertex
 10
63.6584743764465
 20
65.04925942384186
 30
0.0
  0
VERTEX
  5
35C
330
35A
100
AcDbEntity
  8
cuerpo
 62
     7
420
 16777215
370
    30
100
AcDbVertex
100
AcDb2dVertex
 10
69.34494898439988
 20
67.11872828183144
 30
0.0
  0
SEQEND
  5
35D
330
35A
100
AcDbEntity
  8
cuerpo
370
    30
  0
ENDBLK
  5
359
330
356
100
AcDbEntity
  8
0
100
AcDbBlockEnd
  0
BLOCK
  5
360
330
35E
100
AcDbEntity
  8
0
100
AcDbBlockBegin
  2
block 112
 70
     0
 71
     0
 10
0.0
 20
0.0
 30
0.0
  3
block 112
  1

  0
POLYLINE
  5
362
330
35E
100
AcDbEntity
  8
cuerpo
 62
     7
420
 16777215
370
    30
100
AcDb2dPolyline
 66
     1
 10
0.0
 20
0.0
 30
0.0
  0
VERTEX
  5
363
330
362
100
AcDbEntity
  8
cuerpo
 62
     7
420
 16777215
370
    30
100
AcDbVertex
100
AcDb2dVertex
 10
60.27642413857673
 20
66.6260796274407
 30
0.0
  0
VERTEX
  5
364
330
362
100
AcDbEntity
  8
cuerpo
 62
     7
420
 16777215
370
    30
100
AcDbVertex
100
AcDb2dVertex
 10
60.84314234590033
 20
66.6260796274407
 30
0.0
  0
SEQEND
  5
365
330
362
100
AcDbEntity
  8
cuerpo
370
    30
  0
ENDBLK
  5
361
330
35E
100
AcDbEntity
  8
0
100
AcDbBlockEnd
  0
BLOCK
  5
368
330
366
100
AcDbEntity
  8
0
100
AcDbBlockBegin
  2
block 113
 70
     0
 71
     0
 10
0.0
 20
0.0
 30
0.0
  3
block 113
  1

  0
POLYLINE
  5
36A
330
366
100
AcDbEntity
  8
cuerpo
 62
     7
420
 16777215
370
    30
100
AcDb2dPolyline
 66
     1
 10
0.0
 20
0.0
 30
0.0
  0
VERTEX
  5
36B
330
36A
100
AcDbEntity
  8
cuerpo
 62
     7
420
 16777215
370
    30
100
AcDbVertex
100
AcDb2dVertex
 10
60.84314234590033
 20
68.75170354183986
 30
0.0
  0
VERTEX
  5
36C
330
36A
100
AcDbEntity
  8
cuerpo
 62
     7
420
 16777215
370
    30
100
AcDbVertex
100
AcDb2dVertex
 10
60.27642413857673
 20
68.75170354183986
 30
0.0
  0
SEQEND
  5
36D
330
36A
100
AcDbEntity
  8
cuerpo
370
    30
  0
ENDBLK
  5
369
330
366
100
AcDbEntity
  8
0
100
AcDbBlockEnd
  0
BLOCK
  5
370
330
36E
100
AcDbEntity
  8
0
100
AcDbBlockBegin
  2
block 114
 70
     0
 71
     0
 10
0.0
 20
0.0
 30
0.0
  3
block 114
  1

  0
POLYLINE
  5
372
330
36E
100
AcDbEntity
  8
cuerpo
 62
     7
420
 16777215
370
    30
100
AcDb2dPolyline
 66
     1
 10
0.0
 20
0.0
 30
0.0
  0
VERTEX
  5
373
330
372
100
AcDbEntity
  8
cuerpo
 62
     7
420
 16777215
370
    30
100
AcDbVertex
100
AcDb2dVertex
 10
66.30706378550657
 20
64.19728731033958
 30
0.0
  0
VERTEX
  5
374
330
372
100
AcDbEntity
  8
cuerpo
 62
     7
420
 16777215
370
    30
100
AcDbVertex
100
AcDb2dVertex
 10
66.09674070613207
 20
64.77434080411892
 30
0.0
  0
SEQEND
  5
375
330
372
100
AcDbEntity
  8
cuerpo
370
    30
  0
ENDBLK
  5
371
330
36E
100
AcDbEntity
  8
0
100
AcDbBlockEnd
  0
BLOCK
  5
378
330
376
100
AcDbEntity
  8
0
100
AcDbBlockBegin
  2
block 115
 70
     0
 71
     0
 10
0.0
 20
0.0
 30
0.0
  3
block 115
  1

  0
POLYLINE
  5
37A
330
376
100
AcDbEntity
  8
cuerpo
 62
     7
420
 16777215
370
    30
100
AcDb2dPolyline
 66
     1
 10
0.0
 20
0.0
 30
0.0
  0
VERTEX
  5
37B
330
37A
100
AcDbEntity
  8
cuerpo
 62
     7
420
 16777215
370
    30
100
AcDbVertex
100
AcDb2dVertex
 10
67.26790091634275
 20
65.20049911564432
 30
0.0
  0
VERTEX
  5
37C
330
37A
100
AcDbEntity
  8
cuerpo
 62
     7
420
 16777215
370
    30
100
AcDbVertex
100
AcDb2dVertex
 10
67.47805174094299
 20
64.62344562186497
 30
0.0
  0
SEQEND
  5
37D
330
37A
100
AcDbEntity
  8
cuerpo
370
    30
  0
ENDBLK
  5
379
330
376
100
AcDbEntity
  8
0
100
AcDbBlockEnd
  0
BLOCK
  5
380
330
37E
100
AcDbEntity
  8
0
100
AcDbBlockBegin
  2
block 116
 70
     0
 71
     0
 10
0.0
 20
0.0
 30
0.0
  3
block 116
  1

  0
POLYLINE
  5
382
330
37E
100
AcDbEntity
  8
cuerpo
 62
     7
420
 16777215
370
    30
100
AcDb2dPolyline
 66
     1
 10
0.0
 20
0.0
 30
0.0
  0
VERTEX
  5
383
330
382
100
AcDbEntity
  8
cuerpo
 62
     7
420
 16777215
370
    30
100
AcDbVertex
100
AcDb2dVertex
 10
64.87666014003084
 20
63.80247936772994
 30
0.0
  0
VERTEX
  5
384
330
382
100
AcDbEntity
  8
cuerpo
 62
     7
420
 16777215
370
    30
100
AcDbVertex
100
AcDb2dVertex
 10
65.02807208660757
 20
63.73185491028232
 30
0.0
  0
SEQEND
  5
385
330
382
100
AcDbEntity
  8
cuerpo
370
    30
  0
ENDBLK
  5
381
330
37E
100
AcDbEntity
  8
0
100
AcDbBlockEnd
  0
BLOCK
  5
388
330
386
100
AcDbEntity
  8
0
100
AcDbBlockBegin
  2
block 117
 70
     0
 71
     0
 10
0.0
 20
0.0
 30
0.0
  3
block 117
  1

  0
POLYLINE
  5
38A
330
386
100
AcDbEntity
  8
cuerpo
 62
     7
420
 16777215
370
    30
100
AcDb2dPolyline
 66
     1
 10
0.0
 20
0.0
 30
0.0
  0
VERTEX
  5
38B
330
38A
100
AcDbEntity
  8
cuerpo
 62
     7
420
 16777215
370
    30
100
AcDbVertex
100
AcDb2dVertex
 10
68.75652667551921
 20
65.0885335123737
 30
0.0
  0
VERTEX
  5
38C
330
38A
100
AcDbEntity
  8
cuerpo
 62
     7
420
 16777215
370
    30
100
AcDbVertex
100
AcDb2dVertex
 10
68.82697887819256
 20
65.2401177137247
 30
0.0
  0
SEQEND
  5
38D
330
38A
100
AcDbEntity
  8
cuerpo
370
    30
  0
ENDBLK
  5
389
330
386
100
AcDbEntity
  8
0
100
AcDbBlockEnd
  0
BLOCK
  5
390
330
38E
100
AcDbEntity
  8
0
100
AcDbBlockBegin
  2
block 118
 70
     0
 71
     0
 10
0.0
 20
0.0
 30
0.0
  3
block 118
  1

  0
POLYLINE
  5
392
330
38E
100
AcDbEntity
  8
cuerpo
 62
     7
420
 16777215
370
    30
100
AcDb2dPolyline
 66
     1
 10
0.0
 20
0.0
 30
0.0
  0
VERTEX
  5
393
330
392
100
AcDbEntity
  8
cuerpo
 62
     7
420
 16777215
370
    30
100
AcDbVertex
100
AcDb2dVertex
 10
64.33371309155547
 20
65.29489473194016
 30
0.0
  0
VERTEX
  5
394
330
392
100
AcDbEntity
  8
cuerpo
 62
     7
420
 16777215
370
    30
100
AcDbVertex
100
AcDb2dVertex
 10
64.87666014003084
 20
63.80247936772994
 30
0.0
  0
SEQEND
  5
395
330
392
100
AcDbEntity
  8
cuerpo
370
    30
  0
ENDBLK
  5
391
330
38E
100
AcDbEntity
  8
0
100
AcDbBlockEnd
  0
BLOCK
  5
398
330
396
100
AcDbEntity
  8
0
100
AcDbBlockBegin
  2
block 119
 70
     0
 71
     0
 10
0.0
 20
0.0
 30
0.0
  3
block 119
  1

  0
POLYLINE
  5
39A
330
396
100
AcDbEntity
  8
cuerpo
 62
     7
420
 16777215
370
    30
100
AcDb2dPolyline
 66
     1
 10
0.0
 20
0.0
 30
0.0
  0
VERTEX
  5
39B
330
39A
100
AcDbEntity
  8
cuerpo
 62
     7
420
 16777215
370
    30
100
AcDbVertex
100
AcDb2dVertex
 10
68.2840318297172
 20
66.73253307793493
 30
0.0
  0
VERTEX
  5
39C
330
39A
100
AcDbEntity
  8
cuerpo
 62
     7
420
 16777215
370
    30
100
AcDbVertex
100
AcDb2dVertex
 10
68.82697887819256
 20
65.2401177137247
 30
0.0
  0
SEQEND
  5
39D
330
39A
100
AcDbEntity
  8
cuerpo
370
    30
  0
ENDBLK
  5
399
330
396
100
AcDbEntity
  8
0
100
AcDbBlockEnd
  0
BLOCK
  5
3A0
330
39E
100
AcDbEntity
  8
0
100
AcDbBlockBegin
  2
block 120
 70
     0
 71
     0
 10
0.0
 20
0.0
 30
0.0
  3
block 120
  1

  0
POLYLINE
  5
3A2
330
39E
100
AcDbEntity
  8
cuerpo
 62
     7
420
 16777215
370
    30
100
AcDb2dPolyline
 66
     1
 10
0.0
 20
0.0
 30
0.0
  0
VERTEX
  5
3A3
330
3A2
100
AcDbEntity
  8
cuerpo
 62
     7
420
 16777215
370
    30
100
AcDbVertex
100
AcDb2dVertex
 10
66.91288382658776
 20
64.4432671279864
 30
0.0
  0
VERTEX
  5
3A4
330
3A2
100
AcDbEntity
  8
cuerpo
 62
     7
420
 16777215
370
    30
100
AcDbVertex
100
AcDb2dVertex
 10
67.19951577096055
 20
63.37356497981634
 30
0.0
  0
SEQEND
  5
3A5
330
3A2
100
AcDbEntity
  8
cuerpo
370
    30
  0
ENDBLK
  5
3A1
330
39E
100
AcDbEntity
  8
0
100
AcDbBlockEnd
  0
BLOCK
  5
3A8
330
3A6
100
AcDbEntity
  8
0
100
AcDbBlockBegin
  2
block 121
 70
     0
 71
     0
 10
0.0
 20
0.0
 30
0.0
  3
block 121
  1

  0
POLYLINE
  5
3AA
330
3A6
100
AcDbEntity
  8
cuerpo
 62
     7
420
 16777215
370
    30
100
AcDb2dPolyline
 66
     1
 10
0.0
 20
0.0
 30
0.0
  0
VERTEX
  5
3AB
330
3AA
100
AcDbEntity
  8
cuerpo
 62
     7
420
 16777215
370
    30
100
AcDbVertex
100
AcDb2dVertex
 10
66.91288382658776
 20
64.4432671279864
 30
0.0
  0
VERTEX
  5
3AC
330
3AA
100
AcDbEntity
  8
cuerpo
 62
     7
420
 16777215
370
    30
100
AcDbVertex
100
AcDb2dVertex
 10
66.91288382658776
 20
63.38941241904848
 30
0.0
  0
SEQEND
  5
3AD
330
3AA
100
AcDbEntity
  8
cuerpo
370
    30
  0
ENDBLK
  5
3A9
330
3A6
100
AcDbEntity
  8
0
100
AcDbBlockEnd
  0
BLOCK
  5
3B0
330
3AE
100
AcDbEntity
  8
0
100
AcDbBlockBegin
  2
block 122
 70
     0
 71
     0
 10
0.0
 20
0.0
 30
0.0
  3
block 122
  1

  0
POLYLINE
  5
3B2
330
3AE
100
AcDbEntity
  8
cuerpo
 62
     7
420
 16777215
370
    30
100
AcDb2dPolyline
 66
     1
 10
0.0
 20
0.0
 30
0.0
  0
VERTEX
  5
3B3
330
3B2
100
AcDbEntity
  8
cuerpo
 62
     7
420
 16777215
370
    30
100
AcDbVertex
100
AcDb2dVertex
 10
42.1864000003041
 20
84.20777992686473
 30
0.0
  0
VERTEX
  5
3B4
330
3B2
100
AcDbEntity
  8
cuerpo
 62
     7
420
 16777215
370
    30
100
AcDbVertex
100
AcDb2dVertex
 10
50.45187308851551
 20
84.20777992686473
 30
0.0
  0
SEQEND
  5
3B5
330
3B2
100
AcDbEntity
  8
cuerpo
370
    30
  0
ENDBLK
  5
3B1
330
3AE
100
AcDbEntity
  8
0
100
AcDbBlockEnd
  0
BLOCK
  5
3B8
330
3B6
100
AcDbEntity
  8
0
100
AcDbBlockBegin
  2
block 123
 70
     0
 71
     0
 10
0.0
 20
0.0
 30
0.0
  3
block 123
  1

  0
POLYLINE
  5
3BA
330
3B6
100
AcDbEntity
  8
cuerpo
 62
     7
420
 16777215
370
    30
100
AcDb2dPolyline
 66
     1
 10
0.0
 20
0.0
 30
0.0
  0
VERTEX
  5
3BB
330
3BA
100
AcDbEntity
  8
cuerpo
 62
     7
420
 16777215
370
    30
100
AcDbVertex
100
AcDb2dVertex
 10
50.45187308851551
 20
83.26313474480922
 30
0.0
  0
VERTEX
  5
3BC
330
3BA
100
AcDbEntity
  8
cuerpo
 62
     7
420
 16777215
370
    30
100
AcDbVertex
100
AcDb2dVertex
 10
66.86551376366558
 20
83.26313474480922
 30
0.0
  0
SEQEND
  5
3BD
330
3BA
100
AcDbEntity
  8
cuerpo
370
    30
  0
ENDBLK
  5
3B9
330
3B6
100
AcDbEntity
  8
0
100
AcDbBlockEnd
  0
BLOCK
  5
3C0
330
3BE
100
AcDbEntity
  8
0
100
AcDbBlockBegin
  2
block 124
 70
     0
 71
     0
 10
0.0
 20
0.0
 30
0.0
  3
block 124
  1

  0
POLYLINE
  5
3C2
330
3BE
100
AcDbEntity
  8
cuerpo
 62
     7
420
 16777215
370
    30
100
AcDb2dPolyline
 66
     1
 10
0.0
 20
0.0
 30
0.0
  0
VERTEX
  5
3C3
330
3C2
100
AcDbEntity
  8
cuerpo
 62
     7
420
 16777215
370
    30
100
AcDbVertex
100
AcDb2dVertex
 10
66.86551376366558
 20
83.26313474480922
 30
0.0
  0
VERTEX
  5
3C4
330
3C2
100
AcDbEntity
  8
cuerpo
 62
     7
420
 16777215
370
    30
100
AcDbVertex
100
AcDb2dVertex
 10
66.86551376366558
 20
84.20777992686473
 30
0.0
  0
SEQEND
  5
3C5
330
3C2
100
AcDbEntity
  8
cuerpo
370
    30
  0
ENDBLK
  5
3C1
330
3BE
100
AcDbEntity
  8
0
100
AcDbBlockEnd
  0
BLOCK
  5
3C8
330
3C6
100
AcDbEntity
  8
0
100
AcDbBlockBegin
  2
block 125
 70
     0
 71
     0
 10
0.0
 20
0.0
 30
0.0
  3
block 125
  1

  0
POLYLINE
  5
3CA
330
3C6
100
AcDbEntity
  8
cuerpo
 62
     7
420
 16777215
370
    30
100
AcDb2dPolyline
 66
     1
 10
0.0
 20
0.0
 30
0.0
  0
VERTEX
  5
3CB
330
3CA
100
AcDbEntity
  8
cuerpo
 62
     7
420
 16777215
370
    30
100
AcDbVertex
100
AcDb2dVertex
 10
66.86551376366558
 20
84.20777992686473
 30
0.0
  0
VERTEX
  5
3CC
330
3CA
100
AcDbEntity
  8
cuerpo
 62
     7
420
 16777215
370
    30
100
AcDbVertex
100
AcDb2dVertex
 10
50.45187308851551
 20
84.20777992686473
 30
0.0
  0
SEQEND
  5
3CD
330
3CA
100
AcDbEntity
  8
cuerpo
370
    30
  0
ENDBLK
  5
3C9
330
3C6
100
AcDbEntity
  8
0
100
AcDbBlockEnd
  0
BLOCK
  5
3D0
330
3CE
100
AcDbEntity
  8
0
100
AcDbBlockBegin
  2
block 126
 70
     0
 71
     0
 10
0.0
 20
0.0
 30
0.0
  3
block 126
  1

  0
POLYLINE
  5
3D2
330
3CE
100
AcDbEntity
  8
cuerpo
 62
     7
420
 16777215
370
    30
100
AcDb2dPolyline
 66
     1
 10
0.0
 20
0.0
 30
0.0
  0
VERTEX
  5
3D3
330
3D2
100
AcDbEntity
  8
cuerpo
 62
     7
420
 16777215
370
    30
100
AcDbVertex
100
AcDb2dVertex
 10
42.1864000003041
 20
79.03841415124734
 30
0.0
  0
VERTEX
  5
3D4
330
3D2
100
AcDbEntity
  8
cuerpo
 62
     7
420
 16777215
370
    30
100
AcDbVertex
100
AcDb2dVertex
 10
42.1864000003041
 20
84.20777992686473
 30
0.0
  0
SEQEND
  5
3D5
330
3D2
100
AcDbEntity
  8
cuerpo
370
    30
  0
ENDBLK
  5
3D1
330
3CE
100
AcDbEntity
  8
0
100
AcDbBlockEnd
  0
BLOCK
  5
3D8
330
3D6
100
AcDbEntity
  8
0
100
AcDbBlockBegin
  2
block 127
 70
     0
 71
     0
 10
0.0
 20
0.0
 30
0.0
  3
block 127
  1

  0
POLYLINE
  5
3DA
330
3D6
100
AcDbEntity
  8
cuerpo
 62
     7
420
 16777215
370
    30
100
AcDb2dPolyline
 66
     1
 10
0.0
 20
0.0
 30
0.0
  0
VERTEX
  5
3DB
330
3DA
100
AcDbEntity
  8
cuerpo
 62
     7
420
 16777215
370
    30
100
AcDbVertex
100
AcDb2dVertex
 10
47.07481823909935
 20
76.8618028236665
 30
0.0
  0
VERTEX
  5
3DC
330
3DA
100
AcDbEntity
  8
cuerpo
 62
     7
420
 16777215
370
    30
100
AcDbVertex
100
AcDb2dVertex
 10
50.45187308851551
 20
76.8618028236665
 30
0.0
  0
SEQEND
  5
3DD
330
3DA
100
AcDbEntity
  8
cuerpo
370
    30
  0
ENDBLK
  5
3D9
330
3D6
100
AcDbEntity
  8
0
100
AcDbBlockEnd
  0
BLOCK
  5
3E0
330
3DE
100
AcDbEntity
  8
0
100
AcDbBlockBegin
  2
block 128
 70
     0
 71
     0
 10
0.0
 20
0.0
 30
0.0
  3
block 128
  1

  0
POLYLINE
  5
3E2
330
3DE
100
AcDbEntity
  8
cuerpo
 62
     7
420
 16777215
370
    30
100
AcDb2dPolyline
 66
     1
 10
0.0
 20
0.0
 30
0.0
  0
VERTEX
  5
3E3
330
3E2
100
AcDbEntity
  8
cuerpo
 62
     7
420
 16777215
370
    30
100
AcDbVertex
100
AcDb2dVertex
 10
42.1864000003041
 20
79.03841415124734
 30
0.0
  0
VERTEX
  5
3E4
330
3E2
100
AcDbEntity
  8
cuerpo
 62
     7
420
 16777215
370
    30
100
AcDbVertex
100
AcDb2dVertex
 10
47.07481823909935
 20
76.8618028236665
 30
0.0
  0
SEQEND
  5
3E5
330
3E2
100
AcDbEntity
  8
cuerpo
370
    30
  0
ENDBLK
  5
3E1
330
3DE
100
AcDbEntity
  8
0
100
AcDbBlockEnd
  0
BLOCK
  5
3E8
330
3E6
100
AcDbEntity
  8
0
100
AcDbBlockBegin
  2
block 129
 70
     0
 71
     0
 10
0.0
 20
0.0
 30
0.0
  3
block 129
  1

  0
POLYLINE
  5
3EA
330
3E6
100
AcDbEntity
  8
cuerpo
 62
     7
420
 16777215
370
    30
100
AcDb2dPolyline
 66
     1
 10
0.0
 20
0.0
 30
0.0
  0
VERTEX
  5
3EB
330
3EA
100
AcDbEntity
  8
cuerpo
 62
     7
420
 16777215
370
    30
100
AcDbVertex
100
AcDb2dVertex
 10
50.45187308851551
 20
84.20777992686473
 30
0.0
  0
VERTEX
  5
3EC
330
3EA
100
AcDbEntity
  8
cuerpo
 62
     7
420
 16777215
370
    30
100
AcDbVertex
100
AcDb2dVertex
 10
50.45187308851551
 20
76.8618028236665
 30
0.0
  0
SEQEND
  5
3ED
330
3EA
100
AcDbEntity
  8
cuerpo
370
    30
  0
ENDBLK
  5
3E9
330
3E6
100
AcDbEntity
  8
0
100
AcDbBlockEnd
  0
BLOCK
  5
3F0
330
3EE
100
AcDbEntity
  8
0
100
AcDbBlockBegin
  2
block 130
 70
     0
 71
     0
 10
0.0
 20
0.0
 30
0.0
  3
block 130
  1

  0
POLYLINE
  5
3F2
330
3EE
100
AcDbEntity
  8
cuerpo
 62
     7
420
 16777215
370
    30
100
AcDb2dPolyline
 66
     1
 10
0.0
 20
0.0
 30
0.0
  0
VERTEX
  5
3F3
330
3F2
100
AcDbEntity
  8
cuerpo
 62
     7
420
 16777215
370
    30
100
AcDbVertex
100
AcDb2dVertex
 10
49.73253715119534
 20
76.8618028236665
 30
0.0
  0
VERTEX
  5
3F4
330
3F2
100
AcDbEntity
  8
cuerpo
 62
     7
420
 16777215
370
    30
100
AcDbVertex
100
AcDb2dVertex
 10
49.79127602921885
 20
76.41462942968107
 30
0.0
  0
SEQEND
  5
3F5
330
3F2
100
AcDbEntity
  8
cuerpo
370
    30
  0
ENDBLK
  5
3F1
330
3EE
100
AcDbEntity
  8
0
100
AcDbBlockEnd
  0
BLOCK
  5
3F8
330
3F6
100
AcDbEntity
  8
0
100
AcDbBlockBegin
  2
block 131
 70
     0
 71
     0
 10
0.0
 20
0.0
 30
0.0
  3
block 131
  1

  0
POLYLINE
  5
3FA
330
3F6
100
AcDbEntity
  8
cuerpo
 62
     7
420
 16777215
370
    30
100
AcDb2dPolyline
 66
     1
 10
0.0
 20
0.0
 30
0.0
  0
VERTEX
  5
3FB
330
3FA
100
AcDbEntity
  8
cuerpo
 62
     7
420
 16777215
370
    30
100
AcDbVertex
100
AcDb2dVertex
 10
43.02579751528522
 20
77.77992077048557
 30
0.0
  0
VERTEX
  5
3FC
330
3FA
100
AcDbEntity
  8
cuerpo
 62
     7
420
 16777215
370
    30
100
AcDbVertex
100
AcDb2dVertex
 10
42.84716931437502
 20
76.41462942968107
 30
0.0
  0
SEQEND
  5
3FD
330
3FA
100
AcDbEntity
  8
cuerpo
370
    30
  0
ENDBLK
  5
3F9
330
3F6
100
AcDbEntity
  8
0
100
AcDbBlockEnd
  0
BLOCK
  5
400
330
3FE
100
AcDbEntity
  8
0
100
AcDbBlockBegin
  2
block 132
 70
     0
 71
     0
 10
0.0
 20
0.0
 30
0.0
  3
block 132
  1

  0
SPLINE
  5
402
330
3FE
100
AcDbEntity
  8
cuerpo
 62
     7
420
 16777215
370
    30
100
AcDbSpline
210
0.0
220
0.0
230
1.0
 70
     8
 71
     3
 72
    86
 73
    82
 74
     0
 42
0.0000000001
 43
0.0000000001
 40
0.0
 40
0.0
 40
0.0
 40
0.0
 40
1.0
 40
1.0
 40
1.0
 40
2.0
 40
2.0
 40
2.0
 40
3.0
 40
3.0
 40
3.0
 40
4.0
 40
4.0
 40
4.0
 40
5.0
 40
5.0
 40
5.0
 40
6.0
 40
6.0
 40
6.0
 40
7.0
 40
7.0
 40
7.0
 40
8.0
 40
8.0
 40
8.0
 40
9.0
 40
9.0
 40
9.0
 40
10.0
 40
10.0
 40
10.0
 40
11.0
 40
11.0
 40
11.0
 40
12.0
 40
12.0
 40
12.0
 40
13.0
 40
13.0
 40
13.0
 40
14.0
 40
14.0
 40
14.0
 40
15.0
 40
15.0
 40
15.0
 40
16.0
 40
16.0
 40
16.0
 40
17.0
 40
17.0
 40
17.0
 40
18.0
 40
18.0
 40
18.0
 40
19.0
 40
19.0
 40
19.0
 40
20.0
 40
20.0
 40
20.0
 40
21.0
 40
21.0
 40
21.0
 40
22.0
 40
22.0
 40
22.0
 40
23.0
 40
23.0
 40
23.0
 40
24.0
 40
24.0
 40
24.0
 40
25.0
 40
25.0
 40
25.0
 40
26.0
 40
26.0
 40
26.0
 40
27.0
 40
27.0
 40
27.0
 40
27.0
 10
43.26523165151008
 20
78.55816784060352
 30
0.0
 10
43.2509345052463
 20
78.52750649078479
 30
0.0
 10
43.2371541233053
 20
78.49684514096607
 30
0.0
 10
43.2233737413643
 20
78.46618379114734
 30
0.0
 10
43.2123494358115
 20
78.44137910365355
 30
0.0
 10
43.20184189458148
 20
78.41622990661122
 30
0.0
 10
43.19150660812574
 20
78.3910807095689
 30
0.0
 10
43.18582220057507
 20
78.37764483717642
 30
0.0
 10
43.18013779302441
 20
78.3635199456869
 30
0.0
 10
43.17445338547375
 20
78.3497395637459
 30
0.0
 10
43.17135279953703
 20
78.34181584412983
 30
0.0
 10
43.1682522136003
 20
78.33389212451375
 30
0.0
 10
43.16532388243784
 20
78.32665742399473
 30
0.0
 10
43.16291231559816
 20
78.31976723302422
 30
0.0
 10
43.16032849398422
 20
78.31356606115078
 30
0.0
 10
43.15791692714455
 20
78.3070203797288
 30
0.0
 10
43.15533310553062
 20
78.29978567920978
 30
0.0
 10
43.15257702914241
 20
78.29289548823928
 30
0.0
 10
43.14999320752847
 20
78.28600529726879
 30
0.0
 10
43.14740938591454
 20
78.27877059674975
 30
0.0
 10
43.1448255643006
 20
78.27153589623073
 30
0.0
 10
43.14241399746093
 20
78.26430119571171
 30
0.0
 10
43.13983017584699
 20
78.2574110047412
 30
0.0
 10
43.13724635423305
 20
78.25017630422218
 30
0.0
 10
43.13483478739337
 20
78.24294160370316
 30
0.0
 10
43.1324232205537
 20
78.23605141273266
 30
0.0
 10
43.12983939893977
 20
78.2284722026651
 30
0.0
 10
43.12742783210009
 20
78.22158201169461
 30
0.0
 10
43.12518852003468
 20
78.21434731117559
 30
0.0
 10
43.122776953195
 20
78.20711261065657
 30
0.0
 10
43.12036538635532
 20
78.19987791013753
 30
0.0
 10
43.11812607428992
 20
78.19264320961851
 30
0.0
 10
43.11571450745024
 20
78.18540850909949
 30
0.0
 10
43.11347519538483
 20
78.17851831812898
 30
0.0
 10
43.11106362854515
 20
78.17093910806143
 30
0.0
 10
43.108996571254
 20
78.16404891709094
 30
0.0
 10
43.10692951396285
 20
78.15646970702339
 30
0.0
 10
43.10469020189744
 20
78.14923500650436
 30
0.0
 10
43.10245088983203
 20
78.14200030598533
 30
0.0
 10
43.10038383254088
 20
78.13476560546631
 30
0.0
 10
43.09814452047546
 20
78.12753090494729
 30
0.0
 10
43.09624971795858
 20
78.12029620442826
 30
0.0
 10
43.09418266066743
 20
78.11306150390924
 30
0.0
 10
43.09211560337628
 20
78.10548229384169
 30
0.0
 10
43.09004854608513
 20
78.09824759332267
 30
0.0
 10
43.08798148879398
 20
78.09135740235216
 30
0.0
 10
43.08608668627709
 20
78.08377819228461
 30
0.0
 10
43.08419188376021
 20
78.07654349176559
 30
0.0
 10
43.08212482646906
 20
78.06896428169804
 30
0.0
 10
43.08023002395217
 20
78.06172958117901
 30
0.0
 10
43.07850747620954
 20
78.05449488065999
 30
0.0
 10
43.07661267369265
 20
78.04726018014097
 30
0.0
 10
43.07471787117576
 20
78.04002547962195
 30
0.0
 10
43.07299532343314
 20
78.0324462695544
 30
0.0
 10
43.07110052091625
 20
78.02521156903536
 30
0.0
 10
43.06937797317363
 20
78.01763235896782
 30
0.0
 10
43.06765542543101
 20
78.0103976584488
 30
0.0
 10
43.06610513246265
 20
78.00281844838125
 30
0.0
 10
43.06421032994575
 20
77.99558374786221
 30
0.0
 10
43.06248778220313
 20
77.98800453779467
 30
0.0
 10
43.06110974400903
 20
77.98076983727564
 30
0.0
 10
43.05938719626641
 20
77.9731906272081
 30
0.0
 10
43.05783690329805
 20
77.96595592668908
 30
0.0
 10
43.05628661032968
 20
77.95872122617004
 30
0.0
 10
43.05473631736132
 20
77.95183103519955
 30
0.0
 10
43.05353053394148
 20
77.94528535377758
 30
0.0
 10
43.05215249574738
 20
77.9387396723556
 30
0.0
 10
43.05060220277902
 20
77.930471443191
 30
0.0
 10
43.04887965503639
 20
77.92254772357492
 30
0.0
 10
43.04715710729377
 20
77.9139349848618
 30
0.0
 10
43.04715710729377
 20
77.9139349848618
 30
0.0
 10
43.04715710729377
 20
77.91359047531327
 30
0.0
 10
43.04698485251951
 20
77.91324596576474
 30
0.0
 10
43.04440103090557
 20
77.89843205517818
 30
0.0
 10
43.04181720929163
 20
77.88396265414012
 30
0.0
 10
43.03923338767769
 20
77.86949325310208
 30
0.0
 10
43.0373385851608
 20
77.8574354189037
 30
0.0
 10
43.03527152786965
 20
77.84572209425384
 30
0.0
 10
43.03337672535277
 20
77.83331975050694
 30
0.0
 10
43.03062064896457
 20
77.81574976353218
 30
0.0
 10
43.0282090821249
 20
77.79783526700888
 30
0.0
 10
43.02579751528522
 20
77.77992077048557
 30
0.0
  0
ENDBLK
  5
401
330
3FE
100
AcDbEntity
  8
0
100
AcDbBlockEnd
  0
BLOCK
  5
405
330
403
100
AcDbEntity
  8
0
100
AcDbBlockBegin
  2
block 133
 70
     0
 71
     0
 10
0.0
 20
0.0
 30
0.0
  3
block 133
  1

  0
POLYLINE
  5
407
330
403
100
AcDbEntity
  8
cuerpo
 62
     7
420
 16777215
370
    30
100
AcDb2dPolyline
 66
     1
 10
0.0
 20
0.0
 30
0.0
  0
VERTEX
  5
408
330
407
100
AcDbEntity
  8
cuerpo
 62
     7
420
 16777215
370
    30
100
AcDbVertex
100
AcDb2dVertex
 10
41.16320664118489
 20
42.67543130443531
 30
0.0
  0
VERTEX
  5
409
330
407
100
AcDbEntity
  8
cuerpo
 62
     7
420
 16777215
370
    30
100
AcDbVertex
100
AcDb2dVertex
 10
51.29850530401566
 20
42.67543130443531
 30
0.0
  0
SEQEND
  5
40A
330
407
100
AcDbEntity
  8
cuerpo
370
    30
  0
ENDBLK
  5
406
330
403
100
AcDbEntity
  8
0
100
AcDbBlockEnd
  0
BLOCK
  5
40D
330
40B
100
AcDbEntity
  8
0
100
AcDbBlockBegin
  2
block 134
 70
     0
 71
     0
 10
0.0
 20
0.0
 30
0.0
  3
block 134
  1

  0
POLYLINE
  5
40F
330
40B
100
AcDbEntity
  8
cuerpo
 62
     7
420
 16777215
370
    30
100
AcDb2dPolyline
 66
     1
 10
0.0
 20
0.0
 30
0.0
  0
VERTEX
  5
410
330
40F
100
AcDbEntity
  8
cuerpo
 62
     7
420
 16777215
370
    30
100
AcDbVertex
100
AcDb2dVertex
 10
48.88900552163192
 20
42.67543130443531
 30
0.0
  0
VERTEX
  5
411
330
40F
100
AcDbEntity
  8
cuerpo
 62
     7
420
 16777215
370
    30
100
AcDbVertex
100
AcDb2dVertex
 10
48.88900552163192
 20
43.97216524508335
 30
0.0
  0
SEQEND
  5
412
330
40F
100
AcDbEntity
  8
cuerpo
370
    30
  0
ENDBLK
  5
40E
330
40B
100
AcDbEntity
  8
0
100
AcDbBlockEnd
  0
BLOCK
  5
415
330
413
100
AcDbEntity
  8
0
100
AcDbBlockBegin
  2
block 135
 70
     0
 71
     0
 10
0.0
 20
0.0
 30
0.0
  3
block 135
  1

  0
POLYLINE
  5
417
330
413
100
AcDbEntity
  8
cuerpo
 62
     7
420
 16777215
370
    30
100
AcDb2dPolyline
 66
     1
 10
0.0
 20
0.0
 30
0.0
  0
VERTEX
  5
418
330
417
100
AcDbEntity
  8
cuerpo
 62
     7
420
 16777215
370
    30
100
AcDbVertex
100
AcDb2dVertex
 10
48.88900552163192
 20
44.67358668588022
 30
0.0
  0
VERTEX
  5
419
330
417
100
AcDbEntity
  8
cuerpo
 62
     7
420
 16777215
370
    30
100
AcDbVertex
100
AcDb2dVertex
 10
48.88900552163192
 20
47.95676268332331
 30
0.0
  0
SEQEND
  5
41A
330
417
100
AcDbEntity
  8
cuerpo
370
    30
  0
ENDBLK
  5
416
330
413
100
AcDbEntity
  8
0
100
AcDbBlockEnd
  0
BLOCK
  5
41D
330
41B
100
AcDbEntity
  8
0
100
AcDbBlockBegin
  2
block 136
 70
     0
 71
     0
 10
0.0
 20
0.0
 30
0.0
  3
block 136
  1

  0
POLYLINE
  5
41F
330
41B
100
AcDbEntity
  8
cuerpo
 62
     7
420
 16777215
370
    30
100
AcDb2dPolyline
 66
     1
 10
0.0
 20
0.0
 30
0.0
  0
VERTEX
  5
420
330
41F
100
AcDbEntity
  8
cuerpo
 62
     7
420
 16777215
370
    30
100
AcDbVertex
100
AcDb2dVertex
 10
46.52739256649316
 20
42.67543130443531
 30
0.0
  0
VERTEX
  5
421
330
41F
100
AcDbEntity
  8
cuerpo
 62
     7
420
 16777215
370
    30
100
AcDbVertex
100
AcDb2dVertex
 10
46.52739256649316
 20
43.97216524508335
 30
0.0
  0
SEQEND
  5
422
330
41F
100
AcDbEntity
  8
cuerpo
370
    30
  0
ENDBLK
  5
41E
330
41B
100
AcDbEntity
  8
0
100
AcDbBlockEnd
  0
BLOCK
  5
425
330
423
100
AcDbEntity
  8
0
100
AcDbBlockBegin
  2
block 137
 70
     0
 71
     0
 10
0.0
 20
0.0
 30
0.0
  3
block 137
  1

  0
POLYLINE
  5
427
330
423
100
AcDbEntity
  8
cuerpo
 62
     7
420
 16777215
370
    30
100
AcDb2dPolyline
 66
     1
 10
0.0
 20
0.0
 30
0.0
  0
VERTEX
  5
428
330
427
100
AcDbEntity
  8
cuerpo
 62
     7
420
 16777215
370
    30
100
AcDbVertex
100
AcDb2dVertex
 10
46.52739256649316
 20
44.67358668588022
 30
0.0
  0
VERTEX
  5
429
330
427
100
AcDbEntity
  8
cuerpo
 62
     7
420
 16777215
370
    30
100
AcDbVertex
100
AcDb2dVertex
 10
46.52739256649316
 20
47.95676268332331
 30
0.0
  0
SEQEND
  5
42A
330
427
100
AcDbEntity
  8
cuerpo
370
    30
  0
ENDBLK
  5
426
330
423
100
AcDbEntity
  8
0
100
AcDbBlockEnd
  0
BLOCK
  5
42D
330
42B
100
AcDbEntity
  8
0
100
AcDbBlockBegin
  2
block 138
 70
     0
 71
     0
 10
0.0
 20
0.0
 30
0.0
  3
block 138
  1

  0
POLYLINE
  5
42F
330
42B
100
AcDbEntity
  8
cuerpo
 62
     7
420
 16777215
370
    30
100
AcDb2dPolyline
 66
     1
 10
0.0
 20
0.0
 30
0.0
  0
VERTEX
  5
430
330
42F
100
AcDbEntity
  8
cuerpo
 62
     7
420
 16777215
370
    30
100
AcDbVertex
100
AcDb2dVertex
 10
42.95965168196842
 20
42.67543130443531
 30
0.0
  0
VERTEX
  5
431
330
42F
100
AcDbEntity
  8
cuerpo
 62
     7
420
 16777215
370
    30
100
AcDbVertex
100
AcDb2dVertex
 10
42.95965168196842
 20
43.97216524508335
 30
0.0
  0
SEQEND
  5
432
330
42F
100
AcDbEntity
  8
cuerpo
370
    30
  0
ENDBLK
  5
42E
330
42B
100
AcDbEntity
  8
0
100
AcDbBlockEnd
  0
BLOCK
  5
435
330
433
100
AcDbEntity
  8
0
100
AcDbBlockBegin
  2
block 139
 70
     0
 71
     0
 10
0.0
 20
0.0
 30
0.0
  3
block 139
  1

  0
POLYLINE
  5
437
330
433
100
AcDbEntity
  8
cuerpo
 62
     7
420
 16777215
370
    30
100
AcDb2dPolyline
 66
     1
 10
0.0
 20
0.0
 30
0.0
  0
VERTEX
  5
438
330
437
100
AcDbEntity
  8
cuerpo
 62
     7
420
 16777215
370
    30
100
AcDbVertex
100
AcDb2dVertex
 10
42.95965168196842
 20
44.67358668588022
 30
0.0
  0
VERTEX
  5
439
330
437
100
AcDbEntity
  8
cuerpo
 62
     7
420
 16777215
370
    30
100
AcDbVertex
100
AcDb2dVertex
 10
42.95965168196842
 20
47.95676268332331
 30
0.0
  0
SEQEND
  5
43A
330
437
100
AcDbEntity
  8
cuerpo
370
    30
  0
ENDBLK
  5
436
330
433
100
AcDbEntity
  8
0
100
AcDbBlockEnd
  0
BLOCK
  5
43D
330
43B
100
AcDbEntity
  8
0
100
AcDbBlockBegin
  2
block 140
 70
     0
 71
     0
 10
0.0
 20
0.0
 30
0.0
  3
block 140
  1

  0
POLYLINE
  5
43F
330
43B
100
AcDbEntity
  8
cuerpo
 62
     7
420
 16777215
370
    30
100
AcDb2dPolyline
 66
     1
 10
0.0
 20
0.0
 30
0.0
  0
VERTEX
  5
440
330
43F
100
AcDbEntity
  8
cuerpo
 62
     7
420
 16777215
370
    30
100
AcDbVertex
100
AcDb2dVertex
 10
44.81414658167841
 20
42.67543130443531
 30
0.0
  0
VERTEX
  5
441
330
43F
100
AcDbEntity
  8
cuerpo
 62
     7
420
 16777215
370
    30
100
AcDbVertex
100
AcDb2dVertex
 10
44.81414658167841
 20
43.97216524508335
 30
0.0
  0
SEQEND
  5
442
330
43F
100
AcDbEntity
  8
cuerpo
370
    30
  0
ENDBLK
  5
43E
330
43B
100
AcDbEntity
  8
0
100
AcDbBlockEnd
  0
BLOCK
  5
445
330
443
100
AcDbEntity
  8
0
100
AcDbBlockBegin
  2
block 141
 70
     0
 71
     0
 10
0.0
 20
0.0
 30
0.0
  3
block 141
  1

  0
POLYLINE
  5
447
330
443
100
AcDbEntity
  8
cuerpo
 62
     7
420
 16777215
370
    30
100
AcDb2dPolyline
 66
     1
 10
0.0
 20
0.0
 30
0.0
  0
VERTEX
  5
448
330
447
100
AcDbEntity
  8
cuerpo
 62
     7
420
 16777215
370
    30
100
AcDbVertex
100
AcDb2dVertex
 10
44.81414658167841
 20
44.67358668588022
 30
0.0
  0
VERTEX
  5
449
330
447
100
AcDbEntity
  8
cuerpo
 62
     7
420
 16777215
370
    30
100
AcDbVertex
100
AcDb2dVertex
 10
44.81414658167841
 20
47.95676268332331
 30
0.0
  0
SEQEND
  5
44A
330
447
100
AcDbEntity
  8
cuerpo
370
    30
  0
ENDBLK
  5
446
330
443
100
AcDbEntity
  8
0
100
AcDbBlockEnd
  0
BLOCK
  5
44D
330
44B
100
AcDbEntity
  8
0
100
AcDbBlockBegin
  2
block 142
 70
     0
 71
     0
 10
0.0
 20
0.0
 30
0.0
  3
block 142
  1

  0
POLYLINE
  5
44F
330
44B
100
AcDbEntity
  8
cuerpo
370
     0
100
AcDb2dPolyline
 66
     1
 10
0.0
 20
0.0
 30
0.0
  0
VERTEX
  5
450
330
44F
100
AcDbEntity
  8
cuerpo
370
     0
100
AcDbVertex
100
AcDb2dVertex
 10
46.52704805694463
 20
32.90548501781529
 30
0.0
  0
VERTEX
  5
451
330
44F
100
AcDbEntity
  8
cuerpo
370
     0
100
AcDbVertex
100
AcDb2dVertex
 10
48.88831650253487
 20
32.90548501781529
 30
0.0
  0
VERTEX
  5
452
330
44F
100
AcDbEntity
  8
cuerpo
370
     0
100
AcDbVertex
100
AcDb2dVertex
 10
48.88831650253487
 20
35.34771320730891
 30
0.0
  0
VERTEX
  5
453
330
44F
100
AcDbEntity
  8
cuerpo
370
     0
100
AcDbVertex
100
AcDb2dVertex
 10
46.52704805694463
 20
34.71484916666851
 30
0.0
  0
VERTEX
  5
454
330
44F
100
AcDbEntity
  8
cuerpo
370
     0
100
AcDbVertex
100
AcDb2dVertex
 10
46.52704805694463
 20
32.90548501781529
 30
0.0
  0
VERTEX
  5
455
330
44F
100
AcDbEntity
  8
cuerpo
370
     0
100
AcDbVertex
100
AcDb2dVertex
 10
46.52704805694463
 20
32.90548501781529
 30
0.0
  0
SEQEND
  5
456
330
44F
100
AcDbEntity
  8
cuerpo
370
     0
  0
POLYLINE
  5
457
330
44B
100
AcDbEntity
  8
cuerpo
370
     0
100
AcDb2dPolyline
 66
     1
 10
0.0
 20
0.0
 30
0.0
  0
VERTEX
  5
458
330
457
100
AcDbEntity
  8
cuerpo
370
     0
100
AcDbVertex
100
AcDb2dVertex
 10
48.88831650253487
 20
41.2646647032255
 30
0.0
  0
VERTEX
  5
459
330
457
100
AcDbEntity
  8
cuerpo
370
     0
100
AcDbVertex
100
AcDb2dVertex
 10
46.52704805694463
 20
41.2646647032255
 30
0.0
  0
VERTEX
  5
45A
330
457
100
AcDbEntity
  8
cuerpo
370
     0
100
AcDbVertex
100
AcDb2dVertex
 10
46.52704805694463
 20
37.50778807656055
 30
0.0
  0
VERTEX
  5
45B
330
457
100
AcDbEntity
  8
cuerpo
370
     0
100
AcDbVertex
100
AcDb2dVertex
 10
48.88831650253487
 20
38.14099662674948
 30
0.0
  0
VERTEX
  5
45C
330
457
100
AcDbEntity
  8
cuerpo
370
     0
100
AcDbVertex
100
AcDb2dVertex
 10
48.88831650253487
 20
41.2646647032255
 30
0.0
  0
VERTEX
  5
45D
330
457
100
AcDbEntity
  8
cuerpo
370
     0
100
AcDbVertex
100
AcDb2dVertex
 10
48.88831650253487
 20
41.2646647032255
 30
0.0
  0
SEQEND
  5
45E
330
457
100
AcDbEntity
  8
cuerpo
370
     0
  0
POLYLINE
  5
45F
330
44B
100
AcDbEntity
  8
cuerpo
370
     0
100
AcDb2dPolyline
 66
     1
 10
0.0
 20
0.0
 30
0.0
  0
VERTEX
  5
460
330
45F
100
AcDbEntity
  8
cuerpo
370
     0
100
AcDbVertex
100
AcDb2dVertex
 10
46.52704805694463
 20
44.67289766678316
 30
0.0
  0
VERTEX
  5
461
330
45F
100
AcDbEntity
  8
cuerpo
370
     0
100
AcDbVertex
100
AcDb2dVertex
 10
48.88831650253487
 20
44.67289766678316
 30
0.0
  0
VERTEX
  5
462
330
45F
100
AcDbEntity
  8
cuerpo
370
     0
100
AcDbVertex
100
AcDb2dVertex
 10
48.88831650253487
 20
47.95538464512921
 30
0.0
  0
VERTEX
  5
463
330
45F
100
AcDbEntity
  8
cuerpo
370
     0
100
AcDbVertex
100
AcDb2dVertex
 10
46.52704805694463
 20
47.95538464512921
 30
0.0
  0
VERTEX
  5
464
330
45F
100
AcDbEntity
  8
cuerpo
370
     0
100
AcDbVertex
100
AcDb2dVertex
 10
46.52704805694463
 20
44.67289766678316
 30
0.0
  0
VERTEX
  5
465
330
45F
100
AcDbEntity
  8
cuerpo
370
     0
100
AcDbVertex
100
AcDb2dVertex
 10
46.52704805694463
 20
44.67289766678316
 30
0.0
  0
SEQEND
  5
466
330
45F
100
AcDbEntity
  8
cuerpo
370
     0
  0
POLYLINE
  5
467
330
44B
100
AcDbEntity
  8
cuerpo
370
     0
100
AcDb2dPolyline
 66
     1
 10
0.0
 20
0.0
 30
0.0
  0
VERTEX
  5
468
330
467
100
AcDbEntity
  8
cuerpo
370
     0
100
AcDbVertex
100
AcDb2dVertex
 10
48.88831650253487
 20
43.97319877372892
 30
0.0
  0
VERTEX
  5
469
330
467
100
AcDbEntity
  8
cuerpo
370
     0
100
AcDbVertex
100
AcDb2dVertex
 10
46.52704805694463
 20
43.97319877372892
 30
0.0
  0
VERTEX
  5
46A
330
467
100
AcDbEntity
  8
cuerpo
370
     0
100
AcDbVertex
100
AcDb2dVertex
 10
46.52704805694463
 20
42.67646483308089
 30
0.0
  0
VERTEX
  5
46B
330
467
100
AcDbEntity
  8
cuerpo
370
     0
100
AcDbVertex
100
AcDb2dVertex
 10
48.88831650253487
 20
42.67646483308089
 30
0.0
  0
VERTEX
  5
46C
330
467
100
AcDbEntity
  8
cuerpo
370
     0
100
AcDbVertex
100
AcDb2dVertex
 10
48.88831650253487
 20
43.97319877372892
 30
0.0
  0
VERTEX
  5
46D
330
467
100
AcDbEntity
  8
cuerpo
370
     0
100
AcDbVertex
100
AcDb2dVertex
 10
48.88831650253487
 20
43.97319877372892
 30
0.0
  0
SEQEND
  5
46E
330
467
100
AcDbEntity
  8
cuerpo
370
     0
  0
POLYLINE
  5
46F
330
44B
100
AcDbEntity
  8
cuerpo
 62
   253
420
 11382189
370
    30
100
AcDb2dPolyline
 66
     1
 10
0.0
 20
0.0
 30
0.0
  0
VERTEX
  5
470
330
46F
100
AcDbEntity
  8
cuerpo
 62
   253
420
 11382189
370
    30
100
AcDbVertex
100
AcDb2dVertex
 10
46.52704805694463
 20
46.10020072632217
 30
0.0
  0
VERTEX
  5
471
330
46F
100
AcDbEntity
  8
cuerpo
 62
   253
420
 11382189
370
    30
100
AcDbVertex
100
AcDb2dVertex
 10
48.38498805213987
 20
47.95538464512921
 30
0.0
  0
SEQEND
  5
472
330
46F
100
AcDbEntity
  8
cuerpo
370
    30
  0
POLYLINE
  5
473
330
44B
100
AcDbEntity
  8
cuerpo
 62
   253
420
 11382189
370
    30
100
AcDb2dPolyline
 66
     1
 10
0.0
 20
0.0
 30
0.0
  0
VERTEX
  5
474
330
473
100
AcDbEntity
  8
cuerpo
 62
   253
420
 11382189
370
    30
100
AcDbVertex
100
AcDb2dVertex
 10
46.98059487757777
 20
44.67289766678316
 30
0.0
  0
VERTEX
  5
475
330
473
100
AcDbEntity
  8
cuerpo
 62
   253
420
 11382189
370
    30
100
AcDbVertex
100
AcDb2dVertex
 10
48.88831650253487
 20
46.5818250751601
 30
0.0
  0
SEQEND
  5
476
330
473
100
AcDbEntity
  8
cuerpo
370
    30
  0
POLYLINE
  5
477
330
44B
100
AcDbEntity
  8
cuerpo
 62
   253
420
 11382189
370
    30
100
AcDb2dPolyline
 66
     1
 10
0.0
 20
0.0
 30
0.0
  0
VERTEX
  5
478
330
477
100
AcDbEntity
  8
cuerpo
 62
   253
420
 11382189
370
    30
100
AcDbVertex
100
AcDb2dVertex
 10
46.86122231901386
 20
42.67646483308089
 30
0.0
  0
VERTEX
  5
479
330
477
100
AcDbEntity
  8
cuerpo
 62
   253
420
 11382189
370
    30
100
AcDbVertex
100
AcDb2dVertex
 10
48.15812851443616
 20
43.97319877372892
 30
0.0
  0
SEQEND
  5
47A
330
477
100
AcDbEntity
  8
cuerpo
370
    30
  0
POLYLINE
  5
47B
330
44B
100
AcDbEntity
  8
cuerpo
 62
   253
420
 11382189
370
    30
100
AcDb2dPolyline
 66
     1
 10
0.0
 20
0.0
 30
0.0
  0
VERTEX
  5
47C
330
47B
100
AcDbEntity
  8
cuerpo
 62
   253
420
 11382189
370
    30
100
AcDbVertex
100
AcDb2dVertex
 10
48.85886093613598
 20
44.67289766678316
 30
0.0
  0
VERTEX
  5
47D
330
47B
100
AcDbEntity
  8
cuerpo
 62
   253
420
 11382189
370
    30
100
AcDbVertex
100
AcDb2dVertex
 10
48.88831650253487
 20
44.70355901660189
 30
0.0
  0
SEQEND
  5
47E
330
47B
100
AcDbEntity
  8
cuerpo
370
    30
  0
POLYLINE
  5
47F
330
44B
100
AcDbEntity
  8
cuerpo
 62
   253
420
 11382189
370
    30
100
AcDb2dPolyline
 66
     1
 10
0.0
 20
0.0
 30
0.0
  0
VERTEX
  5
480
330
47F
100
AcDbEntity
  8
cuerpo
 62
   253
420
 11382189
370
    30
100
AcDbVertex
100
AcDb2dVertex
 10
46.52704805694463
 20
40.46264647425934
 30
0.0
  0
VERTEX
  5
481
330
47F
100
AcDbEntity
  8
cuerpo
 62
   253
420
 11382189
370
    30
100
AcDbVertex
100
AcDb2dVertex
 10
47.32889403113653
 20
41.2646647032255
 30
0.0
  0
SEQEND
  5
482
330
47F
100
AcDbEntity
  8
cuerpo
370
    30
  0
POLYLINE
  5
483
330
44B
100
AcDbEntity
  8
cuerpo
 62
   253
420
 11382189
370
    30
100
AcDb2dPolyline
 66
     1
 10
0.0
 20
0.0
 30
0.0
  0
VERTEX
  5
484
330
483
100
AcDbEntity
  8
cuerpo
 62
   253
420
 11382189
370
    30
100
AcDbVertex
100
AcDb2dVertex
 10
48.73966063234634
 20
42.67646483308089
 30
0.0
  0
VERTEX
  5
485
330
483
100
AcDbEntity
  8
cuerpo
 62
   253
420
 11382189
370
    30
100
AcDbVertex
100
AcDb2dVertex
 10
48.88831650253487
 20
42.82529295804368
 30
0.0
  0
SEQEND
  5
486
330
483
100
AcDbEntity
  8
cuerpo
370
    30
  0
POLYLINE
  5
487
330
44B
100
AcDbEntity
  8
cuerpo
 62
   253
420
 11382189
370
    30
100
AcDb2dPolyline
 66
     1
 10
0.0
 20
0.0
 30
0.0
  0
VERTEX
  5
488
330
487
100
AcDbEntity
  8
cuerpo
 62
   253
420
 11382189
370
    30
100
AcDbVertex
100
AcDb2dVertex
 10
46.52704805694463
 20
38.58438041570113
 30
0.0
  0
VERTEX
  5
489
330
487
100
AcDbEntity
  8
cuerpo
 62
   253
420
 11382189
370
    30
100
AcDbVertex
100
AcDb2dVertex
 10
48.88831650253487
 20
40.94702689948546
 30
0.0
  0
SEQEND
  5
48A
330
487
100
AcDbEntity
  8
cuerpo
370
    30
  0
POLYLINE
  5
48B
330
44B
100
AcDbEntity
  8
cuerpo
 62
   253
420
 11382189
370
    30
100
AcDb2dPolyline
 66
     1
 10
0.0
 20
0.0
 30
0.0
  0
VERTEX
  5
48C
330
48B
100
AcDbEntity
  8
cuerpo
 62
   253
420
 11382189
370
    30
100
AcDbVertex
100
AcDb2dVertex
 10
47.62379420467391
 20
37.80268825009794
 30
0.0
  0
VERTEX
  5
48D
330
48B
100
AcDbEntity
  8
cuerpo
 62
   253
420
 11382189
370
    30
100
AcDbVertex
100
AcDb2dVertex
 10
48.88831650253487
 20
39.06876084092725
 30
0.0
  0
SEQEND
  5
48E
330
48B
100
AcDbEntity
  8
cuerpo
370
    30
  0
POLYLINE
  5
48F
330
44B
100
AcDbEntity
  8
cuerpo
 62
   253
420
 11382189
370
    30
100
AcDb2dPolyline
 66
     1
 10
0.0
 20
0.0
 30
0.0
  0
VERTEX
  5
490
330
48F
100
AcDbEntity
  8
cuerpo
 62
   253
420
 11382189
370
    30
100
AcDbVertex
100
AcDb2dVertex
 10
46.52704805694463
 20
32.94923773047797
 30
0.0
  0
VERTEX
  5
491
330
48F
100
AcDbEntity
  8
cuerpo
 62
   253
420
 11382189
370
    30
100
AcDbVertex
100
AcDb2dVertex
 10
48.88831650253487
 20
35.30912813787411
 30
0.0
  0
SEQEND
  5
492
330
48F
100
AcDbEntity
  8
cuerpo
370
    30
  0
POLYLINE
  5
493
330
44B
100
AcDbEntity
  8
cuerpo
 62
   253
420
 11382189
370
    30
100
AcDb2dPolyline
 66
     1
 10
0.0
 20
0.0
 30
0.0
  0
VERTEX
  5
494
330
493
100
AcDbEntity
  8
cuerpo
 62
   253
420
 11382189
370
    30
100
AcDbVertex
100
AcDb2dVertex
 10
48.36311169580853
 20
32.90548501781529
 30
0.0
  0
VERTEX
  5
495
330
493
100
AcDbEntity
  8
cuerpo
 62
   253
420
 11382189
370
    30
100
AcDbVertex
100
AcDb2dVertex
 10
48.88831650253487
 20
33.43086207931589
 30
0.0
  0
SEQEND
  5
496
330
493
100
AcDbEntity
  8
cuerpo
370
    30
  0
POLYLINE
  5
497
330
44B
100
AcDbEntity
  8
cuerpo
 62
   253
420
 11382189
370
    30
100
AcDb2dPolyline
 66
     1
 10
0.0
 20
0.0
 30
0.0
  0
VERTEX
  5
498
330
497
100
AcDbEntity
  8
cuerpo
 62
   253
420
 11382189
370
    30
100
AcDbVertex
100
AcDb2dVertex
 10
48.00034314121172
 20
32.90548501781529
 30
0.0
  0
VERTEX
  5
499
330
497
100
AcDbEntity
  8
cuerpo
 62
   253
420
 11382189
370
    30
100
AcDbVertex
100
AcDb2dVertex
 10
46.52704805694463
 20
34.37895235685665
 30
0.0
  0
SEQEND
  5
49A
330
497
100
AcDbEntity
  8
cuerpo
370
    30
  0
POLYLINE
  5
49B
330
44B
100
AcDbEntity
  8
cuerpo
 62
   253
420
 11382189
370
    30
100
AcDb2dPolyline
 66
     1
 10
0.0
 20
0.0
 30
0.0
  0
VERTEX
  5
49C
330
49B
100
AcDbEntity
  8
cuerpo
 62
   253
420
 11382189
370
    30
100
AcDbVertex
100
AcDb2dVertex
 10
48.88831650253487
 20
33.89732800801873
 30
0.0
  0
VERTEX
  5
49D
330
49B
100
AcDbEntity
  8
cuerpo
 62
   253
420
 11382189
370
    30
100
AcDbVertex
100
AcDb2dVertex
 10
47.74540607530324
 20
35.04041069002462
 30
0.0
  0
SEQEND
  5
49E
330
49B
100
AcDbEntity
  8
cuerpo
370
    30
  0
POLYLINE
  5
49F
330
44B
100
AcDbEntity
  8
cuerpo
 62
   253
420
 11382189
370
    30
100
AcDb2dPolyline
 66
     1
 10
0.0
 20
0.0
 30
0.0
  0
VERTEX
  5
4A0
330
49F
100
AcDbEntity
  8
cuerpo
 62
   253
420
 11382189
370
    30
100
AcDbVertex
100
AcDb2dVertex
 10
47.02296955204634
 20
37.64145778138825
 30
0.0
  0
VERTEX
  5
4A1
330
49F
100
AcDbEntity
  8
cuerpo
 62
   253
420
 11382189
370
    30
100
AcDbVertex
100
AcDb2dVertex
 10
46.52704805694463
 20
38.1358289835216
 30
0.0
  0
SEQEND
  5
4A2
330
49F
100
AcDbEntity
  8
cuerpo
370
    30
  0
POLYLINE
  5
4A3
330
44B
100
AcDbEntity
  8
cuerpo
 62
   253
420
 11382189
370
    30
100
AcDb2dPolyline
 66
     1
 10
0.0
 20
0.0
 30
0.0
  0
VERTEX
  5
4A4
330
4A3
100
AcDbEntity
  8
cuerpo
 62
   253
420
 11382189
370
    30
100
AcDbVertex
100
AcDb2dVertex
 10
48.50401610115525
 20
38.03833278128903
 30
0.0
  0
VERTEX
  5
4A5
330
4A3
100
AcDbEntity
  8
cuerpo
 62
   253
420
 11382189
370
    30
100
AcDbVertex
100
AcDb2dVertex
 10
46.52704805694463
 20
40.01443955162834
 30
0.0
  0
SEQEND
  5
4A6
330
4A3
100
AcDbEntity
  8
cuerpo
370
    30
  0
POLYLINE
  5
4A7
330
44B
100
AcDbEntity
  8
cuerpo
 62
   253
420
 11382189
370
    30
100
AcDb2dPolyline
 66
     1
 10
0.0
 20
0.0
 30
0.0
  0
VERTEX
  5
4A8
330
4A7
100
AcDbEntity
  8
cuerpo
 62
   253
420
 11382189
370
    30
100
AcDbVertex
100
AcDb2dVertex
 10
48.88831650253487
 20
39.53212618369336
 30
0.0
  0
VERTEX
  5
4A9
330
4A7
100
AcDbEntity
  8
cuerpo
 62
   253
420
 11382189
370
    30
100
AcDbVertex
100
AcDb2dVertex
 10
47.15612249255125
 20
41.2646647032255
 30
0.0
  0
SEQEND
  5
4AA
330
4A7
100
AcDbEntity
  8
cuerpo
370
    30
  0
POLYLINE
  5
4AB
330
44B
100
AcDbEntity
  8
cuerpo
 62
   253
420
 11382189
370
    30
100
AcDb2dPolyline
 66
     1
 10
0.0
 20
0.0
 30
0.0
  0
VERTEX
  5
4AC
330
4AB
100
AcDbEntity
  8
cuerpo
 62
   253
420
 11382189
370
    30
100
AcDbVertex
100
AcDb2dVertex
 10
47.62499998809376
 20
42.67646483308089
 30
0.0
  0
VERTEX
  5
4AD
330
4AB
100
AcDbEntity
  8
cuerpo
 62
   253
420
 11382189
370
    30
100
AcDbVertex
100
AcDb2dVertex
 10
46.52704805694463
 20
43.77338323558443
 30
0.0
  0
SEQEND
  5
4AE
330
4AB
100
AcDbEntity
  8
cuerpo
370
    30
  0
POLYLINE
  5
4AF
330
44B
100
AcDbEntity
  8
cuerpo
 62
   253
420
 11382189
370
    30
100
AcDb2dPolyline
 66
     1
 10
0.0
 20
0.0
 30
0.0
  0
VERTEX
  5
4B0
330
4AF
100
AcDbEntity
  8
cuerpo
 62
   253
420
 11382189
370
    30
100
AcDbVertex
100
AcDb2dVertex
 10
48.88831650253487
 20
43.2890028103583
 30
0.0
  0
VERTEX
  5
4B1
330
4AF
100
AcDbEntity
  8
cuerpo
 62
   253
420
 11382189
370
    30
100
AcDbVertex
100
AcDb2dVertex
 10
48.20670436077819
 20
43.97319877372892
 30
0.0
  0
SEQEND
  5
4B2
330
4AF
100
AcDbEntity
  8
cuerpo
370
    30
  0
POLYLINE
  5
4B3
330
44B
100
AcDbEntity
  8
cuerpo
 62
   253
420
 11382189
370
    30
100
AcDb2dPolyline
 66
     1
 10
0.0
 20
0.0
 30
0.0
  0
VERTEX
  5
4B4
330
4B3
100
AcDbEntity
  8
cuerpo
 62
   253
420
 11382189
370
    30
100
AcDbVertex
100
AcDb2dVertex
 10
47.50459390088427
 20
44.67289766678316
 30
0.0
  0
VERTEX
  5
4B5
330
4B3
100
AcDbEntity
  8
cuerpo
 62
   253
420
 11382189
370
    30
100
AcDbVertex
100
AcDb2dVertex
 10
46.52704805694463
 20
45.65164929414264
 30
0.0
  0
SEQEND
  5
4B6
330
4B3
100
AcDbEntity
  8
cuerpo
370
    30
  0
POLYLINE
  5
4B7
330
44B
100
AcDbEntity
  8
cuerpo
 62
   253
420
 11382189
370
    30
100
AcDb2dPolyline
 66
     1
 10
0.0
 20
0.0
 30
0.0
  0
VERTEX
  5
4B8
330
4B7
100
AcDbEntity
  8
cuerpo
 62
   253
420
 11382189
370
    30
100
AcDbVertex
100
AcDb2dVertex
 10
48.88831650253487
 20
45.16761337846504
 30
0.0
  0
VERTEX
  5
4B9
330
4B7
100
AcDbEntity
  8
cuerpo
 62
   253
420
 11382189
370
    30
100
AcDbVertex
100
AcDb2dVertex
 10
46.52704805694463
 20
47.53025986224938
 30
0.0
  0
SEQEND
  5
4BA
330
4B7
100
AcDbEntity
  8
cuerpo
370
    30
  0
POLYLINE
  5
4BB
330
44B
100
AcDbEntity
  8
cuerpo
 62
   253
420
 11382189
370
    30
100
AcDb2dPolyline
 66
     1
 10
0.0
 20
0.0
 30
0.0
  0
VERTEX
  5
4BC
330
4BB
100
AcDbEntity
  8
cuerpo
 62
   253
420
 11382189
370
    30
100
AcDbVertex
100
AcDb2dVertex
 10
48.88831650253487
 20
47.04587943702325
 30
0.0
  0
VERTEX
  5
4BD
330
4BB
100
AcDbEntity
  8
cuerpo
 62
   253
420
 11382189
370
    30
100
AcDbVertex
100
AcDb2dVertex
 10
47.97881129442891
 20
47.95538464512921
 30
0.0
  0
SEQEND
  5
4BE
330
4BB
100
AcDbEntity
  8
cuerpo
370
    30
  0
ENDBLK
  5
44E
330
44B
100
AcDbEntity
  8
0
100
AcDbBlockEnd
  0
BLOCK
  5
4C2
330
4C0
100
AcDbEntity
  8
0
100
AcDbBlockBegin
  2
block 143
 70
     0
 71
     0
 10
0.0
 20
0.0
 30
0.0
  3
block 143
  1

  0
INSERT
  5
4C5
330
4C0
100
AcDbEntity
  8
cotas
100
AcDbBlockReference
  2
block 144
 10
0.0
 20
0.0
 30
0.0
  0
INSERT
  5
4CD
330
4C0
100
AcDbEntity
  8
cotas
100
AcDbBlockReference
  2
block 145
 10
0.0
 20
0.0
 30
0.0
  0
INSERT
  5
4D5
330
4C0
100
AcDbEntity
  8
cotas
100
AcDbBlockReference
  2
block 146
 10
0.0
 20
0.0
 30
0.0
  0
INSERT
  5
4DD
330
4C0
100
AcDbEntity
  8
cotas
100
AcDbBlockReference
  2
block 147
 10
0.0
 20
0.0
 30
0.0
  0
INSERT
  5
4E5
330
4C0
100
AcDbEntity
  8
cotas
100
AcDbBlockReference
  2
block 148
 10
0.0
 20
0.0
 30
0.0
  0
INSERT
  5
4F0
330
4C0
100
AcDbEntity
  8
cotas
100
AcDbBlockReference
  2
block 149
 10
0.0
 20
0.0
 30
0.0
  0
INSERT
  5
4F8
330
4C0
100
AcDbEntity
  8
cotas
100
AcDbBlockReference
  2
block 150
 10
0.0
 20
0.0
 30
0.0
  0
INSERT
  5
500
330
4C0
100
AcDbEntity
  8
cotas
100
AcDbBlockReference
  2
block 151
 10
0.0
 20
0.0
 30
0.0
  0
INSERT
  5
50B
330
4C0
100
AcDbEntity
  8
cotas
100
AcDbBlockReference
  2
block 152
 10
0.0
 20
0.0
 30
0.0
  0
INSERT
  5
513
330
4C0
100
AcDbEntity
  8
cotas
100
AcDbBlockReference
  2
block 153
 10
0.0
 20
0.0
 30
0.0
  0
INSERT
  5
51B
330
4C0
100
AcDbEntity
  8
cotas
100
AcDbBlockReference
  2
block 154
 10
0.0
 20
0.0
 30
0.0
  0
INSERT
  5
520
330
4C0
100
AcDbEntity
  8
cotas
100
AcDbBlockReference
  2
block 155
 10
0.0
 20
0.0
 30
0.0
  0
INSERT
  5
528
330
4C0
100
AcDbEntity
  8
cotas
100
AcDbBlockReference
  2
block 156
 10
0.0
 20
0.0
 30
0.0
  0
INSERT
  5
530
330
4C0
100
AcDbEntity
  8
cotas
100
AcDbBlockReference
  2
block 157
 10
0.0
 20
0.0
 30
0.0
  0
ENDBLK
  5
4C3
330
4C0
100
AcDbEntity
  8
0
100
AcDbBlockEnd
  0
BLOCK
  5
4C6
330
4C4
100
AcDbEntity
  8
0
100
AcDbBlockBegin
  2
block 144
 70
     0
 71
     0
 10
0.0
 20
0.0
 30
0.0
  3
block 144
  1

  0
POLYLINE
  5
4C8
330
4C4
100
AcDbEntity
  8
cotas
 62
   253
420
 11382189
370
    25
100
AcDb2dPolyline
 66
     1
 10
0.0
 20
0.0
 30
0.0
  0
VERTEX
  5
4C9
330
4C8
100
AcDbEntity
  8
cotas
 62
   253
420
 11382189
370
    25
100
AcDbVertex
100
AcDb2dVertex
 10
30.39073756835718
 20
57.56134438665134
 30
0.0
  0
VERTEX
  5
4CA
330
4C8
100
AcDbEntity
  8
cotas
 62
   253
420
 11382189
370
    25
100
AcDbVertex
100
AcDb2dVertex
 10
30.39073756835718
 20
62.01723088727347
 30
0.0
  0
SEQEND
  5
4CB
330
4C8
100
AcDbEntity
  8
cotas
370
    25
  0
ENDBLK
  5
4C7
330
4C4
100
AcDbEntity
  8
0
100
AcDbBlockEnd
  0
BLOCK
  5
4CE
330
4CC
100
AcDbEntity
  8
0
100
AcDbBlockBegin
  2
block 145
 70
     0
 71
     0
 10
0.0
 20
0.0
 30
0.0
  3
block 145
  1

  0
POLYLINE
  5
4D0
330
4CC
100
AcDbEntity
  8
cotas
 62
   253
420
 11382189
370
    25
100
AcDb2dPolyline
 66
     1
 10
0.0
 20
0.0
 30
0.0
  0
VERTEX
  5
4D1
330
4D0
100
AcDbEntity
  8
cotas
 62
   253
420
 11382189
370
    25
100
AcDbVertex
100
AcDb2dVertex
 10
41.31392956866458
 20
57.56134438665134
 30
0.0
  0
VERTEX
  5
4D2
330
4D0
100
AcDbEntity
  8
cotas
 62
   253
420
 11382189
370
    25
100
AcDbVertex
100
AcDb2dVertex
 10
41.31392956866458
 20
62.01723088727347
 30
0.0
  0
SEQEND
  5
4D3
330
4D0
100
AcDbEntity
  8
cotas
370
    25
  0
ENDBLK
  5
4CF
330
4CC
100
AcDbEntity
  8
0
100
AcDbBlockEnd
  0
BLOCK
  5
4D6
330
4D4
100
AcDbEntity
  8
0
100
AcDbBlockBegin
  2
block 146
 70
     0
 71
     0
 10
0.0
 20
0.0
 30
0.0
  3
block 146
  1

  0
POLYLINE
  5
4D8
330
4D4
100
AcDbEntity
  8
cotas
 62
   253
420
 11382189
370
    25
100
AcDb2dPolyline
 66
     1
 10
0.0
 20
0.0
 30
0.0
  0
VERTEX
  5
4D9
330
4D8
100
AcDbEntity
  8
cotas
 62
   253
420
 11382189
370
    25
100
AcDbVertex
100
AcDb2dVertex
 10
32.27864989427409
 20
60.66882051434668
 30
0.0
  0
VERTEX
  5
4DA
330
4D8
100
AcDbEntity
  8
cotas
 62
   253
420
 11382189
370
    25
100
AcDbVertex
100
AcDb2dVertex
 10
32.50757648926894
 20
60.66882051434668
 30
0.0
  0
SEQEND
  5
4DB
330
4D8
100
AcDbEntity
  8
cotas
370
    25
  0
ENDBLK
  5
4D7
330
4D4
100
AcDbEntity
  8
0
100
AcDbBlockEnd
  0
BLOCK
  5
4DE
330
4DC
100
AcDbEntity
  8
0
100
AcDbBlockBegin
  2
block 147
 70
     0
 71
     0
 10
0.0
 20
0.0
 30
0.0
  3
block 147
  1

  0
POLYLINE
  5
4E0
330
4DC
100
AcDbEntity
  8
cotas
 62
   253
420
 11382189
370
    25
100
AcDb2dPolyline
 66
     1
 10
0.0
 20
0.0
 30
0.0
  0
VERTEX
  5
4E1
330
4E0
100
AcDbEntity
  8
cotas
 62
   253
420
 11382189
370
    25
100
AcDbVertex
100
AcDb2dVertex
 10
39.42601724274766
 20
60.66882051434668
 30
0.0
  0
VERTEX
  5
4E2
330
4E0
100
AcDbEntity
  8
cotas
 62
   253
420
 11382189
370
    25
100
AcDbVertex
100
AcDb2dVertex
 10
39.19709064775281
 20
60.66882051434668
 30
0.0
  0
SEQEND
  5
4E3
330
4E0
100
AcDbEntity
  8
cotas
370
    25
  0
ENDBLK
  5
4DF
330
4DC
100
AcDbEntity
  8
0
100
AcDbBlockEnd
  0
BLOCK
  5
4E6
330
4E4
100
AcDbEntity
  8
0
100
AcDbBlockBegin
  2
block 148
 70
     0
 71
     0
 10
0.0
 20
0.0
 30
0.0
  3
block 148
  1

  0
POLYLINE
  5
4E8
330
4E4
100
AcDbEntity
  8
cotas
370
     0
100
AcDb2dPolyline
 66
     1
 10
0.0
 20
0.0
 30
0.0
  0
VERTEX
  5
4E9
330
4E8
100
AcDbEntity
  8
cotas
370
     0
100
AcDbVertex
100
AcDb2dVertex
 10
28.50282524244027
 20
60.98335773215
 30
0.0
  0
VERTEX
  5
4EA
330
4E8
100
AcDbEntity
  8
cotas
370
     0
100
AcDbVertex
100
AcDb2dVertex
 10
28.50282524244027
 20
60.35393878699485
 30
0.0
  0
VERTEX
  5
4EB
330
4E8
100
AcDbEntity
  8
cotas
370
     0
100
AcDbVertex
100
AcDb2dVertex
 10
30.39073756835718
 20
60.66882051434668
 30
0.0
  0
VERTEX
  5
4EC
330
4E8
100
AcDbEntity
  8
cotas
370
     0
100
AcDbVertex
100
AcDb2dVertex
 10
28.50282524244027
 20
60.98335773215
 30
0.0
  0
SEQEND
  5
4ED
330
4E8
100
AcDbEntity
  8
cotas
370
     0
  0
HATCH
  5
4EE
330
4E4
100
AcDbEntity
  8
cotas
 62
   253
420
 11382189
100
AcDbHatch
 10
0.0
 20
0.0
 30
0.0
210
0.0
220
0.0
230
1.0
  2
SOLID
 70
     1
 71
     0
 91
        1
 92
        1
 93
        3
 72
     1
 10
28.50282524244027
 20
60.98335773215
 11
28.50282524244027
 21
60.35393878699485
 72
     1
 10
28.50282524244027
 20
60.35393878699485
 11
30.39073756835718
 21
60.66882051434668
 72
     1
 10
30.39073756835718
 20
60.66882051434668
 11
28.50282524244027
 21
60.98335773215
 97
        0
 75
     2
 76
     1
 98
        0
  0
ENDBLK
  5
4E7
330
4E4
100
AcDbEntity
  8
0
100
AcDbBlockEnd
  0
BLOCK
  5
4F1
330
4EF
100
AcDbEntity
  8
0
100
AcDbBlockBegin
  2
block 149
 70
     0
 71
     0
 10
0.0
 20
0.0
 30
0.0
  3
block 149
  1

  0
POLYLINE
  5
4F3
330
4EF
100
AcDbEntity
  8
cotas
 62
   253
420
 11382189
370
    25
100
AcDb2dPolyline
 66
     1
 10
0.0
 20
0.0
 30
0.0
  0
VERTEX
  5
4F4
330
4F3
100
AcDbEntity
  8
cotas
 62
   253
420
 11382189
370
    25
100
AcDbVertex
100
AcDb2dVertex
 10
28.50282524244027
 20
60.66882051434668
 30
0.0
  0
VERTEX
  5
4F5
330
4F3
100
AcDbEntity
  8
cotas
 62
   253
420
 11382189
370
    25
100
AcDbVertex
100
AcDb2dVertex
 10
26.61474066174909
 20
60.66882051434668
 30
0.0
  0
SEQEND
  5
4F6
330
4F3
100
AcDbEntity
  8
cotas
370
    25
  0
ENDBLK
  5
4F2
330
4EF
100
AcDbEntity
  8
0
100
AcDbBlockEnd
  0
BLOCK
  5
4F9
330
4F7
100
AcDbEntity
  8
0
100
AcDbBlockBegin
  2
block 150
 70
     0
 71
     0
 10
0.0
 20
0.0
 30
0.0
  3
block 150
  1

  0
POLYLINE
  5
4FB
330
4F7
100
AcDbEntity
  8
cotas
 62
   253
420
 11382189
370
    25
100
AcDb2dPolyline
 66
     1
 10
0.0
 20
0.0
 30
0.0
  0
VERTEX
  5
4FC
330
4FB
100
AcDbEntity
  8
cotas
 62
   253
420
 11382189
370
    25
100
AcDbVertex
100
AcDb2dVertex
 10
30.39073756835718
 20
60.66882051434668
 30
0.0
  0
VERTEX
  5
4FD
330
4FB
100
AcDbEntity
  8
cotas
 62
   253
420
 11382189
370
    25
100
AcDbVertex
100
AcDb2dVertex
 10
32.27864989427409
 20
60.66882051434668
 30
0.0
  0
SEQEND
  5
4FE
330
4FB
100
AcDbEntity
  8
cotas
370
    25
  0
ENDBLK
  5
4FA
330
4F7
100
AcDbEntity
  8
0
100
AcDbBlockEnd
  0
BLOCK
  5
501
330
4FF
100
AcDbEntity
  8
0
100
AcDbBlockBegin
  2
block 151
 70
     0
 71
     0
 10
0.0
 20
0.0
 30
0.0
  3
block 151
  1

  0
POLYLINE
  5
503
330
4FF
100
AcDbEntity
  8
cotas
370
     0
100
AcDb2dPolyline
 66
     1
 10
0.0
 20
0.0
 30
0.0
  0
VERTEX
  5
504
330
503
100
AcDbEntity
  8
cotas
370
     0
100
AcDbVertex
100
AcDb2dVertex
 10
43.20201414935575
 20
60.98335773215
 30
0.0
  0
VERTEX
  5
505
330
503
100
AcDbEntity
  8
cotas
370
     0
100
AcDbVertex
100
AcDb2dVertex
 10
43.20201414935575
 20
60.35393878699485
 30
0.0
  0
VERTEX
  5
506
330
503
100
AcDbEntity
  8
cotas
370
     0
100
AcDbVertex
100
AcDb2dVertex
 10
41.31392956866458
 20
60.66882051434668
 30
0.0
  0
VERTEX
  5
507
330
503
100
AcDbEntity
  8
cotas
370
     0
100
AcDbVertex
100
AcDb2dVertex
 10
43.20201414935575
 20
60.98335773215
 30
0.0
  0
SEQEND
  5
508
330
503
100
AcDbEntity
  8
cotas
370
     0
  0
HATCH
  5
509
330
4FF
100
AcDbEntity
  8
cotas
 62
   253
420
 11382189
100
AcDbHatch
 10
0.0
 20
0.0
 30
0.0
210
0.0
220
0.0
230
1.0
  2
SOLID
 70
     1
 71
     0
 91
        1
 92
        1
 93
        3
 72
     1
 10
43.20201414935575
 20
60.98335773215
 11
43.20201414935575
 21
60.35393878699485
 72
     1
 10
43.20201414935575
 20
60.35393878699485
 11
41.31392956866458
 21
60.66882051434668
 72
     1
 10
41.31392956866458
 20
60.66882051434668
 11
43.20201414935575
 21
60.98335773215
 97
        0
 75
     2
 76
     1
 98
        0
  0
ENDBLK
  5
502
330
4FF
100
AcDbEntity
  8
0
100
AcDbBlockEnd
  0
BLOCK
  5
50C
330
50A
100
AcDbEntity
  8
0
100
AcDbBlockBegin
  2
block 152
 70
     0
 71
     0
 10
0.0
 20
0.0
 30
0.0
  3
block 152
  1

  0
POLYLINE
  5
50E
330
50A
100
AcDbEntity
  8
cotas
 62
   253
420
 11382189
370
    25
100
AcDb2dPolyline
 66
     1
 10
0.0
 20
0.0
 30
0.0
  0
VERTEX
  5
50F
330
50E
100
AcDbEntity
  8
cotas
 62
   253
420
 11382189
370
    25
100
AcDbVertex
100
AcDb2dVertex
 10
43.20201414935575
 20
60.66882051434668
 30
0.0
  0
VERTEX
  5
510
330
50E
100
AcDbEntity
  8
cotas
 62
   253
420
 11382189
370
    25
100
AcDbVertex
100
AcDb2dVertex
 10
45.08992647527266
 20
60.66882051434668
 30
0.0
  0
SEQEND
  5
511
330
50E
100
AcDbEntity
  8
cotas
370
    25
  0
ENDBLK
  5
50D
330
50A
100
AcDbEntity
  8
0
100
AcDbBlockEnd
  0
BLOCK
  5
514
330
512
100
AcDbEntity
  8
0
100
AcDbBlockBegin
  2
block 153
 70
     0
 71
     0
 10
0.0
 20
0.0
 30
0.0
  3
block 153
  1

  0
POLYLINE
  5
516
330
512
100
AcDbEntity
  8
cotas
 62
   253
420
 11382189
370
    25
100
AcDb2dPolyline
 66
     1
 10
0.0
 20
0.0
 30
0.0
  0
VERTEX
  5
517
330
516
100
AcDbEntity
  8
cotas
 62
   253
420
 11382189
370
    25
100
AcDbVertex
100
AcDb2dVertex
 10
41.31392956866458
 20
60.66882051434668
 30
0.0
  0
VERTEX
  5
518
330
516
100
AcDbEntity
  8
cotas
 62
   253
420
 11382189
370
    25
100
AcDbVertex
100
AcDb2dVertex
 10
39.42601724274766
 20
60.66882051434668
 30
0.0
  0
SEQEND
  5
519
330
516
100
AcDbEntity
  8
cotas
370
    25
  0
ENDBLK
  5
515
330
512
100
AcDbEntity
  8
0
100
AcDbBlockEnd
  0
BLOCK
  5
51C
330
51A
100
AcDbEntity
  8
0
100
AcDbBlockBegin
  2
block 154
 70
     0
 71
     0
 10
0.0
 20
0.0
 30
0.0
  3
block 154
  1

  0
MTEXT
  5
51E
330
51A
100
AcDbEntity
  8
cotas
 62
   253
420
 11382189
100
AcDbMText
 10
33.81051160179043
 20
59.34314777162255
 30
0.0
 40
2.697094805890905
 41
0.0
 71
     7
 72
     1
  1
\fArial|b0|i0|c0|p34;\W1;45
 73
     1
 44
1.0
  0
ENDBLK
  5
51D
330
51A
100
AcDbEntity
  8
0
100
AcDbBlockEnd
  0
BLOCK
  5
521
330
51F
100
AcDbEntity
  8
0
100
AcDbBlockBegin
  2
block 155
 70
     0
 71
     0
 10
0.0
 20
0.0
 30
0.0
  3
block 155
  1

  0
POLYLINE
  5
523
330
51F
100
AcDbEntity
  8
cotas
 62
   253
420
 11382189
370
    25
100
AcDb2dPolyline
 66
     1
 10
0.0
 20
0.0
 30
0.0
  0
VERTEX
  5
524
330
523
100
AcDbEntity
  8
cotas
 62
   253
420
 11382189
370
    25
100
AcDbVertex
100
AcDb2dVertex
 10
30.39073756835718
 20
56.21293401372455
 30
0.0
  0
VERTEX
  5
525
330
523
100
AcDbEntity
  8
cotas
 62
   253
420
 11382189
370
    25
100
AcDbVertex
100
AcDb2dVertex
 10
30.39073756835718
 20
56.21293401372455
 30
0.0
  0
SEQEND
  5
526
330
523
100
AcDbEntity
  8
cotas
370
    25
  0
ENDBLK
  5
522
330
51F
100
AcDbEntity
  8
0
100
AcDbBlockEnd
  0
BLOCK
  5
529
330
527
100
AcDbEntity
  8
0
100
AcDbBlockBegin
  2
block 156
 70
     0
 71
     0
 10
0.0
 20
0.0
 30
0.0
  3
block 156
  1

  0
POLYLINE
  5
52B
330
527
100
AcDbEntity
  8
cotas
 62
   253
420
 11382189
370
    25
100
AcDb2dPolyline
 66
     1
 10
0.0
 20
0.0
 30
0.0
  0
VERTEX
  5
52C
330
52B
100
AcDbEntity
  8
cotas
 62
   253
420
 11382189
370
    25
100
AcDbVertex
100
AcDb2dVertex
 10
41.31392956866458
 20
56.21293401372455
 30
0.0
  0
VERTEX
  5
52D
330
52B
100
AcDbEntity
  8
cotas
 62
   253
420
 11382189
370
    25
100
AcDbVertex
100
AcDb2dVertex
 10
41.31392956866458
 20
56.21293401372455
 30
0.0
  0
SEQEND
  5
52E
330
52B
100
AcDbEntity
  8
cotas
370
    25
  0
ENDBLK
  5
52A
330
527
100
AcDbEntity
  8
0
100
AcDbBlockEnd
  0
BLOCK
  5
531
330
52F
100
AcDbEntity
  8
0
100
AcDbBlockBegin
  2
block 157
 70
     0
 71
     0
 10
0.0
 20
0.0
 30
0.0
  3
block 157
  1

  0
POLYLINE
  5
533
330
52F
100
AcDbEntity
  8
cotas
 62
   253
420
 11382189
370
    25
100
AcDb2dPolyline
 66
     1
 10
0.0
 20
0.0
 30
0.0
  0
VERTEX
  5
534
330
533
100
AcDbEntity
  8
cotas
 62
   253
420
 11382189
370
    25
100
AcDbVertex
100
AcDb2dVertex
 10
41.31392956866458
 20
60.66882051434668
 30
0.0
  0
VERTEX
  5
535
330
533
100
AcDbEntity
  8
cotas
 62
   253
420
 11382189
370
    25
100
AcDbVertex
100
AcDb2dVertex
 10
41.31392956866458
 20
60.66882051434668
 30
0.0
  0
SEQEND
  5
536
330
533
100
AcDbEntity
  8
cotas
370
    25
  0
ENDBLK
  5
532
330
52F
100
AcDbEntity
  8
0
100
AcDbBlockEnd
  0
BLOCK
  5
539
330
537
100
AcDbEntity
  8
0
100
AcDbBlockBegin
  2
block 158
 70
     0
 71
     0
 10
0.0
 20
0.0
 30
0.0
  3
block 158
  1

  0
INSERT
  5
53C
330
537
100
AcDbEntity
  8
cotas
100
AcDbBlockReference
  2
block 159
 10
0.0
 20
0.0
 30
0.0
  0
INSERT
  5
544
330
537
100
AcDbEntity
  8
cotas
100
AcDbBlockReference
  2
block 160
 10
0.0
 20
0.0
 30
0.0
  0
INSERT
  5
54C
330
537
100
AcDbEntity
  8
cotas
100
AcDbBlockReference
  2
block 161
 10
0.0
 20
0.0
 30
0.0
  0
INSERT
  5
554
330
537
100
AcDbEntity
  8
cotas
100
AcDbBlockReference
  2
block 162
 10
0.0
 20
0.0
 30
0.0
  0
INSERT
  5
55C
330
537
100
AcDbEntity
  8
cotas
100
AcDbBlockReference
  2
block 163
 10
0.0
 20
0.0
 30
0.0
  0
INSERT
  5
567
330
537
100
AcDbEntity
  8
cotas
100
AcDbBlockReference
  2
block 164
 10
0.0
 20
0.0
 30
0.0
  0
INSERT
  5
572
330
537
100
AcDbEntity
  8
cotas
100
AcDbBlockReference
  2
block 165
 10
0.0
 20
0.0
 30
0.0
  0
INSERT
  5
577
330
537
100
AcDbEntity
  8
cotas
100
AcDbBlockReference
  2
block 166
 10
0.0
 20
0.0
 30
0.0
  0
INSERT
  5
57F
330
537
100
AcDbEntity
  8
cotas
100
AcDbBlockReference
  2
block 167
 10
0.0
 20
0.0
 30
0.0
  0
INSERT
  5
587
330
537
100
AcDbEntity
  8
cotas
100
AcDbBlockReference
  2
block 168
 10
0.0
 20
0.0
 30
0.0
  0
ENDBLK
  5
53A
330
537
100
AcDbEntity
  8
0
100
AcDbBlockEnd
  0
BLOCK
  5
53D
330
53B
100
AcDbEntity
  8
0
100
AcDbBlockBegin
  2
block 159
 70
     0
 71
     0
 10
0.0
 20
0.0
 30
0.0
  3
block 159
  1

  0
POLYLINE
  5
53F
330
53B
100
AcDbEntity
  8
cotas
 62
   253
420
 11382189
370
    25
100
AcDb2dPolyline
 66
     1
 10
0.0
 20
0.0
 30
0.0
  0
VERTEX
  5
540
330
53F
100
AcDbEntity
  8
cotas
 62
   253
420
 11382189
370
    25
100
AcDbVertex
100
AcDb2dVertex
 10
35.85241969589801
 20
63.36564126020026
 30
0.0
  0
VERTEX
  5
541
330
53F
100
AcDbEntity
  8
cotas
 62
   253
420
 11382189
370
    25
100
AcDbVertex
100
AcDb2dVertex
 10
35.85241969589801
 20
76.93656139569642
 30
0.0
  0
SEQEND
  5
542
330
53F
100
AcDbEntity
  8
cotas
370
    25
  0
ENDBLK
  5
53E
330
53B
100
AcDbEntity
  8
0
100
AcDbBlockEnd
  0
BLOCK
  5
545
330
543
100
AcDbEntity
  8
0
100
AcDbBlockBegin
  2
block 160
 70
     0
 71
     0
 10
0.0
 20
0.0
 30
0.0
  3
block 160
  1

  0
POLYLINE
  5
547
330
543
100
AcDbEntity
  8
cotas
 62
   253
420
 11382189
370
    25
100
AcDb2dPolyline
 66
     1
 10
0.0
 20
0.0
 30
0.0
  0
VERTEX
  5
548
330
547
100
AcDbEntity
  8
cotas
 62
   253
420
 11382189
370
    25
100
AcDbVertex
100
AcDb2dVertex
 10
70.04120278196886
 20
79.71261933771073
 30
0.0
  0
VERTEX
  5
549
330
547
100
AcDbEntity
  8
cotas
 62
   253
420
 11382189
370
    25
100
AcDbVertex
100
AcDb2dVertex
 10
70.04120278196886
 20
74.23905163074579
 30
0.0
  0
SEQEND
  5
54A
330
547
100
AcDbEntity
  8
cotas
370
    25
  0
ENDBLK
  5
546
330
543
100
AcDbEntity
  8
0
100
AcDbBlockEnd
  0
BLOCK
  5
54D
330
54B
100
AcDbEntity
  8
0
100
AcDbBlockBegin
  2
block 161
 70
     0
 71
     0
 10
0.0
 20
0.0
 30
0.0
  3
block 161
  1

  0
POLYLINE
  5
54F
330
54B
100
AcDbEntity
  8
cotas
 62
   253
420
 11382189
370
    25
100
AcDb2dPolyline
 66
     1
 10
0.0
 20
0.0
 30
0.0
  0
VERTEX
  5
550
330
54F
100
AcDbEntity
  8
cotas
 62
   253
420
 11382189
370
    25
100
AcDbVertex
100
AcDb2dVertex
 10
37.74033202181492
 20
75.58780651322111
 30
0.0
  0
VERTEX
  5
551
330
54F
100
AcDbEntity
  8
cotas
 62
   253
420
 11382189
370
    25
100
AcDbVertex
100
AcDb2dVertex
 10
47.34818656585393
 20
75.58780651322111
 30
0.0
  0
SEQEND
  5
552
330
54F
100
AcDbEntity
  8
cotas
370
    25
  0
ENDBLK
  5
54E
330
54B
100
AcDbEntity
  8
0
100
AcDbBlockEnd
  0
BLOCK
  5
555
330
553
100
AcDbEntity
  8
0
100
AcDbBlockBegin
  2
block 162
 70
     0
 71
     0
 10
0.0
 20
0.0
 30
0.0
  3
block 162
  1

  0
POLYLINE
  5
557
330
553
100
AcDbEntity
  8
cotas
 62
   253
420
 11382189
370
    25
100
AcDb2dPolyline
 66
     1
 10
0.0
 20
0.0
 30
0.0
  0
VERTEX
  5
558
330
557
100
AcDbEntity
  8
cotas
 62
   253
420
 11382189
370
    25
100
AcDbVertex
100
AcDb2dVertex
 10
68.15329045605196
 20
75.58780651322111
 30
0.0
  0
VERTEX
  5
559
330
557
100
AcDbEntity
  8
cotas
 62
   253
420
 11382189
370
    25
100
AcDbVertex
100
AcDb2dVertex
 10
58.43846569719594
 20
75.58780651322111
 30
0.0
  0
SEQEND
  5
55A
330
557
100
AcDbEntity
  8
cotas
370
    25
  0
ENDBLK
  5
556
330
553
100
AcDbEntity
  8
0
100
AcDbBlockEnd
  0
BLOCK
  5
55D
330
55B
100
AcDbEntity
  8
0
100
AcDbBlockBegin
  2
block 163
 70
     0
 71
     0
 10
0.0
 20
0.0
 30
0.0
  3
block 163
  1

  0
POLYLINE
  5
55F
330
55B
100
AcDbEntity
  8
cotas
370
     0
100
AcDb2dPolyline
 66
     1
 10
0.0
 20
0.0
 30
0.0
  0
VERTEX
  5
560
330
55F
100
AcDbEntity
  8
cotas
370
     0
100
AcDbVertex
100
AcDb2dVertex
 10
37.74033202181492
 20
75.90234373102442
 30
0.0
  0
VERTEX
  5
561
330
55F
100
AcDbEntity
  8
cotas
370
     0
100
AcDbVertex
100
AcDb2dVertex
 10
37.74033202181492
 20
75.27326929541779
 30
0.0
  0
VERTEX
  5
562
330
55F
100
AcDbEntity
  8
cotas
370
     0
100
AcDbVertex
100
AcDb2dVertex
 10
35.85241969589801
 20
75.58780651322111
 30
0.0
  0
VERTEX
  5
563
330
55F
100
AcDbEntity
  8
cotas
370
     0
100
AcDbVertex
100
AcDb2dVertex
 10
37.74033202181492
 20
75.90234373102442
 30
0.0
  0
SEQEND
  5
564
330
55F
100
AcDbEntity
  8
cotas
370
     0
  0
HATCH
  5
565
330
55B
100
AcDbEntity
  8
cotas
 62
   253
420
 11382189
100
AcDbHatch
 10
0.0
 20
0.0
 30
0.0
210
0.0
220
0.0
230
1.0
  2
SOLID
 70
     1
 71
     0
 91
        1
 92
        1
 93
        3
 72
     1
 10
37.74033202181492
 20
75.90234373102442
 11
37.74033202181492
 21
75.27326929541779
 72
     1
 10
37.74033202181492
 20
75.27326929541779
 11
35.85241969589801
 21
75.58780651322111
 72
     1
 10
35.85241969589801
 20
75.58780651322111
 11
37.74033202181492
 21
75.90234373102442
 97
        0
 75
     2
 76
     1
 98
        0
  0
ENDBLK
  5
55E
330
55B
100
AcDbEntity
  8
0
100
AcDbBlockEnd
  0
BLOCK
  5
568
330
566
100
AcDbEntity
  8
0
100
AcDbBlockBegin
  2
block 164
 70
     0
 71
     0
 10
0.0
 20
0.0
 30
0.0
  3
block 164
  1

  0
POLYLINE
  5
56A
330
566
100
AcDbEntity
  8
cotas
370
     0
100
AcDb2dPolyline
 66
     1
 10
0.0
 20
0.0
 30
0.0
  0
VERTEX
  5
56B
330
56A
100
AcDbEntity
  8
cotas
370
     0
100
AcDbVertex
100
AcDb2dVertex
 10
68.15329045605196
 20
75.90234373102442
 30
0.0
  0
VERTEX
  5
56C
330
56A
100
AcDbEntity
  8
cotas
370
     0
100
AcDbVertex
100
AcDb2dVertex
 10
68.15329045605196
 20
75.27326929541779
 30
0.0
  0
VERTEX
  5
56D
330
56A
100
AcDbEntity
  8
cotas
370
     0
100
AcDbVertex
100
AcDb2dVertex
 10
70.04120278196886
 20
75.58780651322111
 30
0.0
  0
VERTEX
  5
56E
330
56A
100
AcDbEntity
  8
cotas
370
     0
100
AcDbVertex
100
AcDb2dVertex
 10
68.15329045605196
 20
75.90234373102442
 30
0.0
  0
SEQEND
  5
56F
330
56A
100
AcDbEntity
  8
cotas
370
     0
  0
HATCH
  5
570
330
566
100
AcDbEntity
  8
cotas
 62
   253
420
 11382189
100
AcDbHatch
 10
0.0
 20
0.0
 30
0.0
210
0.0
220
0.0
230
1.0
  2
SOLID
 70
     1
 71
     0
 91
        1
 92
        1
 93
        3
 72
     1
 10
68.15329045605196
 20
75.90234373102442
 11
68.15329045605196
 21
75.27326929541779
 72
     1
 10
68.15329045605196
 20
75.27326929541779
 11
70.04120278196886
 21
75.58780651322111
 72
     1
 10
70.04120278196886
 20
75.58780651322111
 11
68.15329045605196
 21
75.90234373102442
 97
        0
 75
     2
 76
     1
 98
        0
  0
ENDBLK
  5
569
330
566
100
AcDbEntity
  8
0
100
AcDbBlockEnd
  0
BLOCK
  5
573
330
571
100
AcDbEntity
  8
0
100
AcDbBlockBegin
  2
block 165
 70
     0
 71
     0
 10
0.0
 20
0.0
 30
0.0
  3
block 165
  1

  0
MTEXT
  5
575
330
571
100
AcDbEntity
  8
cotas
 62
   253
420
 11382189
100
AcDbMText
 10
49.63917506354507
 20
74.2569661272691
 30
0.0
 40
2.697094805890905
 41
0.0
 71
     7
 72
     1
  1
\fArial|b0|i0|c0|p34;\W1;140
 73
     1
 44
1.0
  0
ENDBLK
  5
574
330
571
100
AcDbEntity
  8
0
100
AcDbBlockEnd
  0
BLOCK
  5
578
330
576
100
AcDbEntity
  8
0
100
AcDbBlockBegin
  2
block 166
 70
     0
 71
     0
 10
0.0
 20
0.0
 30
0.0
  3
block 166
  1

  0
POLYLINE
  5
57A
330
576
100
AcDbEntity
  8
cotas
 62
   253
420
 11382189
370
    25
100
AcDb2dPolyline
 66
     1
 10
0.0
 20
0.0
 30
0.0
  0
VERTEX
  5
57B
330
57A
100
AcDbEntity
  8
cotas
 62
   253
420
 11382189
370
    25
100
AcDbVertex
100
AcDb2dVertex
 10
35.85241969589801
 20
60.66882051434668
 30
0.0
  0
VERTEX
  5
57C
330
57A
100
AcDbEntity
  8
cotas
 62
   253
420
 11382189
370
    25
100
AcDbVertex
100
AcDb2dVertex
 10
35.85241969589801
 20
60.66882051434668
 30
0.0
  0
SEQEND
  5
57D
330
57A
100
AcDbEntity
  8
cotas
370
    25
  0
ENDBLK
  5
579
330
576
100
AcDbEntity
  8
0
100
AcDbBlockEnd
  0
BLOCK
  5
580
330
57E
100
AcDbEntity
  8
0
100
AcDbBlockBegin
  2
block 167
 70
     0
 71
     0
 10
0.0
 20
0.0
 30
0.0
  3
block 167
  1

  0
POLYLINE
  5
582
330
57E
100
AcDbEntity
  8
cotas
 62
   253
420
 11382189
370
    25
100
AcDb2dPolyline
 66
     1
 10
0.0
 20
0.0
 30
0.0
  0
VERTEX
  5
583
330
582
100
AcDbEntity
  8
cotas
 62
   253
420
 11382189
370
    25
100
AcDbVertex
100
AcDb2dVertex
 10
70.04120278196886
 20
82.41012910266136
 30
0.0
  0
VERTEX
  5
584
330
582
100
AcDbEntity
  8
cotas
 62
   253
420
 11382189
370
    25
100
AcDbVertex
100
AcDb2dVertex
 10
70.04120278196886
 20
82.41012910266136
 30
0.0
  0
SEQEND
  5
585
330
582
100
AcDbEntity
  8
cotas
370
    25
  0
ENDBLK
  5
581
330
57E
100
AcDbEntity
  8
0
100
AcDbBlockEnd
  0
BLOCK
  5
588
330
586
100
AcDbEntity
  8
0
100
AcDbBlockBegin
  2
block 168
 70
     0
 71
     0
 10
0.0
 20
0.0
 30
0.0
  3
block 168
  1

  0
POLYLINE
  5
58A
330
586
100
AcDbEntity
  8
cotas
 62
   253
420
 11382189
370
    25
100
AcDb2dPolyline
 66
     1
 10
0.0
 20
0.0
 30
0.0
  0
VERTEX
  5
58B
330
58A
100
AcDbEntity
  8
cotas
 62
   253
420
 11382189
370
    25
100
AcDbVertex
100
AcDb2dVertex
 10
70.04120278196886
 20
75.58780651322111
 30
0.0
  0
VERTEX
  5
58C
330
58A
100
AcDbEntity
  8
cotas
 62
   253
420
 11382189
370
    25
100
AcDbVertex
100
AcDb2dVertex
 10
70.04120278196886
 20
75.58780651322111
 30
0.0
  0
SEQEND
  5
58D
330
58A
100
AcDbEntity
  8
cotas
370
    25
  0
ENDBLK
  5
589
330
586
100
AcDbEntity
  8
0
100
AcDbBlockEnd
  0
BLOCK
  5
590
330
58E
100
AcDbEntity
  8
0
100
AcDbBlockBegin
  2
block 169
 70
     0
 71
     0
 10
0.0
 20
0.0
 30
0.0
  3
block 169
  1

  0
POLYLINE
  5
592
330
58E
100
AcDbEntity
  8
cotas
370
     0
100
AcDb2dPolyline
 66
     1
 10
0.0
 20
0.0
 30
0.0
  0
VERTEX
  5
593
330
592
100
AcDbEntity
  8
cotas
370
     0
100
AcDbVertex
100
AcDb2dVertex
 10
37.84299586727536
 20
29.26849771403704
 30
0.0
  0
VERTEX
  5
594
330
592
100
AcDbEntity
  8
cotas
370
     0
100
AcDbVertex
100
AcDb2dVertex
 10
34.92999537972236
 20
29.26849771403704
 30
0.0
  0
VERTEX
  5
595
330
592
100
AcDbEntity
  8
cotas
370
     0
100
AcDbVertex
100
AcDb2dVertex
 10
34.92999537972236
 20
23.17894693430943
 30
0.0
  0
VERTEX
  5
596
330
592
100
AcDbEntity
  8
cotas
370
     0
100
AcDbVertex
100
AcDb2dVertex
 10
37.84299586727536
 20
24.31410589669925
 30
0.0
  0
VERTEX
  5
597
330
592
100
AcDbEntity
  8
cotas
370
     0
100
AcDbVertex
100
AcDb2dVertex
 10
37.84299586727536
 20
29.26849771403704
 30
0.0
  0
SEQEND
  5
598
330
592
100
AcDbEntity
  8
cotas
370
     0
  0
POLYLINE
  5
599
330
58E
100
AcDbEntity
  8
cotas
370
     0
100
AcDb2dPolyline
 66
     1
 10
0.0
 20
0.0
 30
0.0
  0
VERTEX
  5
59A
330
599
100
AcDbEntity
  8
cotas
370
     0
100
AcDbVertex
100
AcDb2dVertex
 10
37.84299586727536
 20
23.01564940830859
 30
0.0
  0
VERTEX
  5
59B
330
599
100
AcDbEntity
  8
cotas
370
     0
100
AcDbVertex
100
AcDb2dVertex
 10
34.92999537972236
 20
21.87773436953057
 30
0.0
  0
VERTEX
  5
59C
330
599
100
AcDbEntity
  8
cotas
370
     0
100
AcDbVertex
100
AcDb2dVertex
 10
34.92999537972236
 20
18.1218912715112
 30
0.0
  0
VERTEX
  5
59D
330
599
100
AcDbEntity
  8
cotas
370
     0
100
AcDbVertex
100
AcDb2dVertex
 10
37.84299586727536
 20
18.1218912715112
 30
0.0
  0
VERTEX
  5
59E
330
599
100
AcDbEntity
  8
cotas
370
     0
100
AcDbVertex
100
AcDb2dVertex
 10
37.84299586727536
 20
23.01564940830859
 30
0.0
  0
SEQEND
  5
59F
330
599
100
AcDbEntity
  8
cotas
370
     0
  0
POLYLINE
  5
5A0
330
58E
100
AcDbEntity
  8
cotas
 62
   253
420
 11382189
370
    25
100
AcDb2dPolyline
 66
     1
 10
0.0
 20
0.0
 30
0.0
  0
VERTEX
  5
5A1
330
5A0
100
AcDbEntity
  8
cotas
 62
   253
420
 11382189
370
    25
100
AcDbVertex
100
AcDb2dVertex
 10
34.92999537972236
 20
28.98152126011573
 30
0.0
  0
VERTEX
  5
5A2
330
5A0
100
AcDbEntity
  8
cotas
 62
   253
420
 11382189
370
    25
100
AcDbVertex
100
AcDb2dVertex
 10
35.21714408841794
 20
29.26849771403704
 30
0.0
  0
SEQEND
  5
5A3
330
5A0
100
AcDbEntity
  8
cotas
370
    25
  0
POLYLINE
  5
5A4
330
58E
100
AcDbEntity
  8
cotas
 62
   253
420
 11382189
370
    25
100
AcDb2dPolyline
 66
     1
 10
0.0
 20
0.0
 30
0.0
  0
VERTEX
  5
5A5
330
5A4
100
AcDbEntity
  8
cotas
 62
   253
420
 11382189
370
    25
100
AcDbVertex
100
AcDb2dVertex
 10
34.92999537972236
 20
25.34935709001683
 30
0.0
  0
VERTEX
  5
5A6
330
5A4
100
AcDbEntity
  8
cotas
 62
   253
420
 11382189
370
    25
100
AcDbVertex
100
AcDb2dVertex
 10
37.84299586727536
 20
28.26252983234409
 30
0.0
  0
SEQEND
  5
5A7
330
5A4
100
AcDbEntity
  8
cotas
370
    25
  0
POLYLINE
  5
5A8
330
58E
100
AcDbEntity
  8
cotas
 62
   253
420
 11382189
370
    25
100
AcDb2dPolyline
 66
     1
 10
0.0
 20
0.0
 30
0.0
  0
VERTEX
  5
5A9
330
5A8
100
AcDbEntity
  8
cotas
 62
   253
420
 11382189
370
    25
100
AcDbVertex
100
AcDb2dVertex
 10
34.92999537972236
 20
21.71478135307825
 30
0.0
  0
VERTEX
  5
5AA
330
5A8
100
AcDbEntity
  8
cotas
 62
   253
420
 11382189
370
    25
100
AcDbVertex
100
AcDb2dVertex
 10
35.19595675118365
 20
21.98074272453954
 30
0.0
  0
SEQEND
  5
5AB
330
5A8
100
AcDbEntity
  8
cotas
370
    25
  0
POLYLINE
  5
5AC
330
58E
100
AcDbEntity
  8
cotas
 62
   253
420
 11382189
370
    25
100
AcDb2dPolyline
 66
     1
 10
0.0
 20
0.0
 30
0.0
  0
VERTEX
  5
5AD
330
5AC
100
AcDbEntity
  8
cotas
 62
   253
420
 11382189
370
    25
100
AcDbVertex
100
AcDb2dVertex
 10
37.32950438519887
 20
24.11394584900624
 30
0.0
  0
VERTEX
  5
5AE
330
5AC
100
AcDbEntity
  8
cotas
 62
   253
420
 11382189
370
    25
100
AcDbVertex
100
AcDb2dVertex
 10
37.84299586727536
 20
24.63036566224519
 30
0.0
  0
SEQEND
  5
5AF
330
5AC
100
AcDbEntity
  8
cotas
370
    25
  0
POLYLINE
  5
5B0
330
58E
100
AcDbEntity
  8
cotas
 62
   253
420
 11382189
370
    25
100
AcDb2dPolyline
 66
     1
 10
0.0
 20
0.0
 30
0.0
  0
VERTEX
  5
5B1
330
5B0
100
AcDbEntity
  8
cotas
 62
   253
420
 11382189
370
    25
100
AcDbVertex
100
AcDb2dVertex
 10
34.96823593960864
 20
18.1218912715112
 30
0.0
  0
VERTEX
  5
5B2
330
5B0
100
AcDbEntity
  8
cotas
 62
   253
420
 11382189
370
    25
100
AcDbVertex
100
AcDb2dVertex
 10
37.84299586727536
 20
20.99544541575808
 30
0.0
  0
SEQEND
  5
5B3
330
5B0
100
AcDbEntity
  8
cotas
370
    25
  0
POLYLINE
  5
5B4
330
58E
100
AcDbEntity
  8
cotas
 62
   253
420
 11382189
370
    25
100
AcDb2dPolyline
 66
     1
 10
0.0
 20
0.0
 30
0.0
  0
VERTEX
  5
5B5
330
5B4
100
AcDbEntity
  8
cotas
 62
   253
420
 11382189
370
    25
100
AcDbVertex
100
AcDb2dVertex
 10
35.5792236239177
 20
18.1218912715112
 30
0.0
  0
VERTEX
  5
5B6
330
5B4
100
AcDbEntity
  8
cotas
 62
   253
420
 11382189
370
    25
100
AcDbVertex
100
AcDb2dVertex
 10
34.92999537972236
 20
18.76991373228669
 30
0.0
  0
SEQEND
  5
5B7
330
5B4
100
AcDbEntity
  8
cotas
370
    25
  0
POLYLINE
  5
5B8
330
58E
100
AcDbEntity
  8
cotas
 62
   253
420
 11382189
370
    25
100
AcDb2dPolyline
 66
     1
 10
0.0
 20
0.0
 30
0.0
  0
VERTEX
  5
5B9
330
5B8
100
AcDbEntity
  8
cotas
 62
   253
420
 11382189
370
    25
100
AcDbVertex
100
AcDb2dVertex
 10
37.84299586727536
 20
19.49166123644653
 30
0.0
  0
VERTEX
  5
5BA
330
5B8
100
AcDbEntity
  8
cotas
 62
   253
420
 11382189
370
    25
100
AcDbVertex
100
AcDb2dVertex
 10
35.30930039264837
 20
22.02518445629926
 30
0.0
  0
SEQEND
  5
5BB
330
5B8
100
AcDbEntity
  8
cotas
370
    25
  0
POLYLINE
  5
5BC
330
58E
100
AcDbEntity
  8
cotas
 62
   253
420
 11382189
370
    25
100
AcDb2dPolyline
 66
     1
 10
0.0
 20
0.0
 30
0.0
  0
VERTEX
  5
5BD
330
5BC
100
AcDbEntity
  8
cotas
 62
   253
420
 11382189
370
    25
100
AcDbVertex
100
AcDb2dVertex
 10
36.98568385577094
 20
23.97958712508149
 30
0.0
  0
VERTEX
  5
5BE
330
5BC
100
AcDbEntity
  8
cotas
 62
   253
420
 11382189
370
    25
100
AcDbVertex
100
AcDb2dVertex
 10
34.92999537972236
 20
26.0369981488727
 30
0.0
  0
SEQEND
  5
5BF
330
5BC
100
AcDbEntity
  8
cotas
370
    25
  0
POLYLINE
  5
5C0
330
58E
100
AcDbEntity
  8
cotas
 62
   253
420
 11382189
370
    25
100
AcDb2dPolyline
 66
     1
 10
0.0
 20
0.0
 30
0.0
  0
VERTEX
  5
5C1
330
5C0
100
AcDbEntity
  8
cotas
 62
   253
420
 11382189
370
    25
100
AcDbVertex
100
AcDb2dVertex
 10
37.84299586727536
 20
26.75564506709581
 30
0.0
  0
VERTEX
  5
5C2
330
5C0
100
AcDbEntity
  8
cotas
 62
   253
420
 11382189
370
    25
100
AcDbVertex
100
AcDb2dVertex
 10
35.33152125852823
 20
29.26849771403704
 30
0.0
  0
SEQEND
  5
5C3
330
5C0
100
AcDbEntity
  8
cotas
370
    25
  0
ENDBLK
  5
591
330
58E
100
AcDbEntity
  8
0
100
AcDbBlockEnd
  0
BLOCK
  5
5C6
330
5C4
100
AcDbEntity
  8
0
100
AcDbBlockBegin
  2
block 170
 70
     0
 71
     0
 10
0.0
 20
0.0
 30
0.0
  3
block 170
  1

  0
INSERT
  5
5C9
330
5C4
100
AcDbEntity
  8
cotas
100
AcDbBlockReference
  2
block 171
 10
0.0
 20
0.0
 30
0.0
  0
INSERT
  5
5D1
330
5C4
100
AcDbEntity
  8
cotas
100
AcDbBlockReference
  2
block 172
 10
0.0
 20
0.0
 30
0.0
  0
INSERT
  5
5D9
330
5C4
100
AcDbEntity
  8
cotas
100
AcDbBlockReference
  2
block 173
 10
0.0
 20
0.0
 30
0.0
  0
INSERT
  5
5E1
330
5C4
100
AcDbEntity
  8
cotas
100
AcDbBlockReference
  2
block 174
 10
0.0
 20
0.0
 30
0.0
  0
INSERT
  5
5E9
330
5C4
100
AcDbEntity
  8
cotas
100
AcDbBlockReference
  2
block 175
 10
0.0
 20
0.0
 30
0.0
  0
INSERT
  5
5F1
330
5C4
100
AcDbEntity
  8
cotas
100
AcDbBlockReference
  2
block 176
 10
0.0
 20
0.0
 30
0.0
  0
INSERT
  5
5FC
330
5C4
100
AcDbEntity
  8
cotas
100
AcDbBlockReference
  2
block 177
 10
0.0
 20
0.0
 30
0.0
  0
INSERT
  5
607
330
5C4
100
AcDbEntity
  8
cotas
100
AcDbBlockReference
  2
block 178
 10
0.0
 20
0.0
 30
0.0
  0
INSERT
  5
60C
330
5C4
100
AcDbEntity
  8
cotas
100
AcDbBlockReference
  2
block 179
 10
0.0
 20
0.0
 30
0.0
  0
INSERT
  5
614
330
5C4
100
AcDbEntity
  8
cotas
100
AcDbBlockReference
  2
block 180
 10
0.0
 20
0.0
 30
0.0
  0
INSERT
  5
61C
330
5C4
100
AcDbEntity
  8
cotas
100
AcDbBlockReference
  2
block 181
 10
0.0
 20
0.0
 30
0.0
  0
ENDBLK
  5
5C7
330
5C4
100
AcDbEntity
  8
0
100
AcDbBlockEnd
  0
BLOCK
  5
5CA
330
5C8
100
AcDbEntity
  8
0
100
AcDbBlockBegin
  2
block 171
 70
     0
 71
     0
 10
0.0
 20
0.0
 30
0.0
  3
block 171
  1

  0
POLYLINE
  5
5CC
330
5C8
100
AcDbEntity
  8
cotas
 62
   253
420
 11382189
370
    25
100
AcDb2dPolyline
 66
     1
 10
0.0
 20
0.0
 30
0.0
  0
VERTEX
  5
5CD
330
5CC
100
AcDbEntity
  8
cotas
 62
   253
420
 11382189
370
    25
100
AcDbVertex
100
AcDb2dVertex
 10
34.80872801864157
 20
9.62869737172477
 30
0.0
  0
VERTEX
  5
5CE
330
5CC
100
AcDbEntity
  8
cotas
 62
   253
420
 11382189
370
    25
100
AcDbVertex
100
AcDb2dVertex
 10
34.80872801864157
 20
5.72437065829113
 30
0.0
  0
SEQEND
  5
5CF
330
5CC
100
AcDbEntity
  8
cotas
370
    25
  0
ENDBLK
  5
5CB
330
5C8
100
AcDbEntity
  8
0
100
AcDbBlockEnd
  0
BLOCK
  5
5D2
330
5D0
100
AcDbEntity
  8
0
100
AcDbBlockBegin
  2
block 172
 70
     0
 71
     0
 10
0.0
 20
0.0
 30
0.0
  3
block 172
  1

  0
POLYLINE
  5
5D4
330
5D0
100
AcDbEntity
  8
cotas
 62
   253
420
 11382189
370
    25
100
AcDb2dPolyline
 66
     1
 10
0.0
 20
0.0
 30
0.0
  0
VERTEX
  5
5D5
330
5D4
100
AcDbEntity
  8
cotas
 62
   253
420
 11382189
370
    25
100
AcDbVertex
100
AcDb2dVertex
 10
37.9649522474532
 20
9.672105574838918
 30
0.0
  0
VERTEX
  5
5D6
330
5D4
100
AcDbEntity
  8
cotas
 62
   253
420
 11382189
370
    25
100
AcDbVertex
100
AcDb2dVertex
 10
37.9649522474532
 20
5.72437065829113
 30
0.0
  0
SEQEND
  5
5D7
330
5D4
100
AcDbEntity
  8
cotas
370
    25
  0
ENDBLK
  5
5D3
330
5D0
100
AcDbEntity
  8
0
100
AcDbBlockEnd
  0
BLOCK
  5
5DA
330
5D8
100
AcDbEntity
  8
0
100
AcDbBlockBegin
  2
block 173
 70
     0
 71
     0
 10
0.0
 20
0.0
 30
0.0
  3
block 173
  1

  0
POLYLINE
  5
5DC
330
5D8
100
AcDbEntity
  8
cotas
 62
   253
420
 11382189
370
    25
100
AcDb2dPolyline
 66
     1
 10
0.0
 20
0.0
 30
0.0
  0
VERTEX
  5
5DD
330
5DC
100
AcDbEntity
  8
cotas
 62
   253
420
 11382189
370
    25
100
AcDbVertex
100
AcDb2dVertex
 10
32.92081569272466
 20
7.072781031217916
 30
0.0
  0
VERTEX
  5
5DE
330
5DC
100
AcDbEntity
  8
cotas
 62
   253
420
 11382189
370
    25
100
AcDbVertex
100
AcDb2dVertex
 10
31.03290336680775
 20
7.072781031217916
 30
0.0
  0
SEQEND
  5
5DF
330
5DC
100
AcDbEntity
  8
cotas
370
    25
  0
ENDBLK
  5
5DB
330
5D8
100
AcDbEntity
  8
0
100
AcDbBlockEnd
  0
BLOCK
  5
5E2
330
5E0
100
AcDbEntity
  8
0
100
AcDbBlockBegin
  2
block 174
 70
     0
 71
     0
 10
0.0
 20
0.0
 30
0.0
  3
block 174
  1

  0
POLYLINE
  5
5E4
330
5E0
100
AcDbEntity
  8
cotas
 62
   253
420
 11382189
370
    25
100
AcDb2dPolyline
 66
     1
 10
0.0
 20
0.0
 30
0.0
  0
VERTEX
  5
5E5
330
5E4
100
AcDbEntity
  8
cotas
 62
   253
420
 11382189
370
    25
100
AcDbVertex
100
AcDb2dVertex
 10
39.85286457337012
 20
7.072781031217916
 30
0.0
  0
VERTEX
  5
5E6
330
5E4
100
AcDbEntity
  8
cotas
 62
   253
420
 11382189
370
    25
100
AcDbVertex
100
AcDb2dVertex
 10
42.33471136094411
 20
7.072781031217916
 30
0.0
  0
SEQEND
  5
5E7
330
5E4
100
AcDbEntity
  8
cotas
370
    25
  0
ENDBLK
  5
5E3
330
5E0
100
AcDbEntity
  8
0
100
AcDbBlockEnd
  0
BLOCK
  5
5EA
330
5E8
100
AcDbEntity
  8
0
100
AcDbBlockBegin
  2
block 175
 70
     0
 71
     0
 10
0.0
 20
0.0
 30
0.0
  3
block 175
  1

  0
POLYLINE
  5
5EC
330
5E8
100
AcDbEntity
  8
cotas
 62
   253
420
 11382189
370
    25
100
AcDb2dPolyline
 66
     1
 10
0.0
 20
0.0
 30
0.0
  0
VERTEX
  5
5ED
330
5EC
100
AcDbEntity
  8
cotas
 62
   253
420
 11382189
370
    25
100
AcDbVertex
100
AcDb2dVertex
 10
34.80872801864157
 20
7.072781031217916
 30
0.0
  0
VERTEX
  5
5EE
330
5EC
100
AcDbEntity
  8
cotas
 62
   253
420
 11382189
370
    25
100
AcDbVertex
100
AcDb2dVertex
 10
37.9649522474532
 20
7.072781031217916
 30
0.0
  0
SEQEND
  5
5EF
330
5EC
100
AcDbEntity
  8
cotas
370
    25
  0
ENDBLK
  5
5EB
330
5E8
100
AcDbEntity
  8
0
100
AcDbBlockEnd
  0
BLOCK
  5
5F2
330
5F0
100
AcDbEntity
  8
0
100
AcDbBlockBegin
  2
block 176
 70
     0
 71
     0
 10
0.0
 20
0.0
 30
0.0
  3
block 176
  1

  0
POLYLINE
  5
5F4
330
5F0
100
AcDbEntity
  8
cotas
370
     0
100
AcDb2dPolyline
 66
     1
 10
0.0
 20
0.0
 30
0.0
  0
VERTEX
  5
5F5
330
5F4
100
AcDbEntity
  8
cotas
370
     0
100
AcDbVertex
100
AcDb2dVertex
 10
32.92081569272466
 20
7.387662758569752
 30
0.0
  0
VERTEX
  5
5F6
330
5F4
100
AcDbEntity
  8
cotas
370
     0
100
AcDbVertex
100
AcDb2dVertex
 10
32.92081569272466
 20
6.758243813414606
 30
0.0
  0
VERTEX
  5
5F7
330
5F4
100
AcDbEntity
  8
cotas
370
     0
100
AcDbVertex
100
AcDb2dVertex
 10
34.80872801864157
 20
7.072781031217916
 30
0.0
  0
VERTEX
  5
5F8
330
5F4
100
AcDbEntity
  8
cotas
370
     0
100
AcDbVertex
100
AcDb2dVertex
 10
32.92081569272466
 20
7.387662758569752
 30
0.0
  0
SEQEND
  5
5F9
330
5F4
100
AcDbEntity
  8
cotas
370
     0
  0
HATCH
  5
5FA
330
5F0
100
AcDbEntity
  8
cotas
 62
   253
420
 11382189
100
AcDbHatch
 10
0.0
 20
0.0
 30
0.0
210
0.0
220
0.0
230
1.0
  2
SOLID
 70
     1
 71
     0
 91
        1
 92
        1
 93
        3
 72
     1
 10
32.92081569272466
 20
7.387662758569752
 11
32.92081569272466
 21
6.758243813414606
 72
     1
 10
32.92081569272466
 20
6.758243813414606
 11
34.80872801864157
 21
7.072781031217916
 72
     1
 10
34.80872801864157
 20
7.072781031217916
 11
32.92081569272466
 21
7.387662758569752
 97
        0
 75
     2
 76
     1
 98
        0
  0
ENDBLK
  5
5F3
330
5F0
100
AcDbEntity
  8
0
100
AcDbBlockEnd
  0
BLOCK
  5
5FD
330
5FB
100
AcDbEntity
  8
0
100
AcDbBlockBegin
  2
block 177
 70
     0
 71
     0
 10
0.0
 20
0.0
 30
0.0
  3
block 177
  1

  0
POLYLINE
  5
5FF
330
5FB
100
AcDbEntity
  8
cotas
370
     0
100
AcDb2dPolyline
 66
     1
 10
0.0
 20
0.0
 30
0.0
  0
VERTEX
  5
600
330
5FF
100
AcDbEntity
  8
cotas
370
     0
100
AcDbVertex
100
AcDb2dVertex
 10
39.85286457337012
 20
7.387662758569752
 30
0.0
  0
VERTEX
  5
601
330
5FF
100
AcDbEntity
  8
cotas
370
     0
100
AcDbVertex
100
AcDb2dVertex
 10
39.85286457337012
 20
6.758243813414606
 30
0.0
  0
VERTEX
  5
602
330
5FF
100
AcDbEntity
  8
cotas
370
     0
100
AcDbVertex
100
AcDb2dVertex
 10
37.9649522474532
 20
7.072781031217916
 30
0.0
  0
VERTEX
  5
603
330
5FF
100
AcDbEntity
  8
cotas
370
     0
100
AcDbVertex
100
AcDb2dVertex
 10
39.85286457337012
 20
7.387662758569752
 30
0.0
  0
SEQEND
  5
604
330
5FF
100
AcDbEntity
  8
cotas
370
     0
  0
HATCH
  5
605
330
5FB
100
AcDbEntity
  8
cotas
 62
   253
420
 11382189
100
AcDbHatch
 10
0.0
 20
0.0
 30
0.0
210
0.0
220
0.0
230
1.0
  2
SOLID
 70
     1
 71
     0
 91
        1
 92
        1
 93
        3
 72
     1
 10
39.85286457337012
 20
7.387662758569752
 11
39.85286457337012
 21
6.758243813414606
 72
     1
 10
39.85286457337012
 20
6.758243813414606
 11
37.9649522474532
 21
7.072781031217916
 72
     1
 10
37.9649522474532
 20
7.072781031217916
 11
39.85286457337012
 21
7.387662758569752
 97
        0
 75
     2
 76
     1
 98
        0
  0
ENDBLK
  5
5FE
330
5FB
100
AcDbEntity
  8
0
100
AcDbBlockEnd
  0
BLOCK
  5
608
330
606
100
AcDbEntity
  8
0
100
AcDbBlockBegin
  2
block 178
 70
     0
 71
     0
 10
0.0
 20
0.0
 30
0.0
  3
block 178
  1

  0
MTEXT
  5
60A
330
606
100
AcDbEntity
  8
cotas
 62
   253
420
 11382189
100
AcDbMText
 10
43.39149440104449
 20
5.72574869648523
 30
0.0
 40
2.697094805890905
 41
0.0
 71
     7
 72
     1
  1
\fArial|b0|i0|c0|p34;\W1;R 3/8"
 73
     1
 44
1.0
  0
ENDBLK
  5
609
330
606
100
AcDbEntity
  8
0
100
AcDbBlockEnd
  0
BLOCK
  5
60D
330
60B
100
AcDbEntity
  8
0
100
AcDbBlockBegin
  2
block 179
 70
     0
 71
     0
 10
0.0
 20
0.0
 30
0.0
  3
block 179
  1

  0
POLYLINE
  5
60F
330
60B
100
AcDbEntity
  8
cotas
 62
   253
420
 11382189
370
    25
100
AcDb2dPolyline
 66
     1
 10
0.0
 20
0.0
 30
0.0
  0
VERTEX
  5
610
330
60F
100
AcDbEntity
  8
cotas
 62
   253
420
 11382189
370
    25
100
AcDbVertex
100
AcDb2dVertex
 10
34.80872801864157
 20
12.32551811757834
 30
0.0
  0
VERTEX
  5
611
330
60F
100
AcDbEntity
  8
cotas
 62
   253
420
 11382189
370
    25
100
AcDbVertex
100
AcDb2dVertex
 10
34.80872801864157
 20
12.32551811757834
 30
0.0
  0
SEQEND
  5
612
330
60F
100
AcDbEntity
  8
cotas
370
    25
  0
ENDBLK
  5
60E
330
60B
100
AcDbEntity
  8
0
100
AcDbBlockEnd
  0
BLOCK
  5
615
330
613
100
AcDbEntity
  8
0
100
AcDbBlockBegin
  2
block 180
 70
     0
 71
     0
 10
0.0
 20
0.0
 30
0.0
  3
block 180
  1

  0
POLYLINE
  5
617
330
613
100
AcDbEntity
  8
cotas
 62
   253
420
 11382189
370
    25
100
AcDb2dPolyline
 66
     1
 10
0.0
 20
0.0
 30
0.0
  0
VERTEX
  5
618
330
617
100
AcDbEntity
  8
cotas
 62
   253
420
 11382189
370
    25
100
AcDbVertex
100
AcDb2dVertex
 10
37.9649522474532
 20
12.36927083024102
 30
0.0
  0
VERTEX
  5
619
330
617
100
AcDbEntity
  8
cotas
 62
   253
420
 11382189
370
    25
100
AcDbVertex
100
AcDb2dVertex
 10
37.9649522474532
 20
12.36927083024102
 30
0.0
  0
SEQEND
  5
61A
330
617
100
AcDbEntity
  8
cotas
370
    25
  0
ENDBLK
  5
616
330
613
100
AcDbEntity
  8
0
100
AcDbBlockEnd
  0
BLOCK
  5
61D
330
61B
100
AcDbEntity
  8
0
100
AcDbBlockBegin
  2
block 181
 70
     0
 71
     0
 10
0.0
 20
0.0
 30
0.0
  3
block 181
  1

  0
POLYLINE
  5
61F
330
61B
100
AcDbEntity
  8
cotas
 62
   253
420
 11382189
370
    25
100
AcDb2dPolyline
 66
     1
 10
0.0
 20
0.0
 30
0.0
  0
VERTEX
  5
620
330
61F
100
AcDbEntity
  8
cotas
 62
   253
420
 11382189
370
    25
100
AcDbVertex
100
AcDb2dVertex
 10
37.9649522474532
 20
7.072781031217916
 30
0.0
  0
VERTEX
  5
621
330
61F
100
AcDbEntity
  8
cotas
 62
   253
420
 11382189
370
    25
100
AcDbVertex
100
AcDb2dVertex
 10
37.9649522474532
 20
7.072781031217916
 30
0.0
  0
SEQEND
  5
622
330
61F
100
AcDbEntity
  8
cotas
370
    25
  0
ENDBLK
  5
61E
330
61B
100
AcDbEntity
  8
0
100
AcDbBlockEnd
  0
BLOCK
  5
625
330
623
100
AcDbEntity
  8
0
100
AcDbBlockBegin
  2
block 182
 70
     0
 71
     0
 10
0.0
 20
0.0
 30
0.0
  3
block 182
  1

  0
INSERT
  5
628
330
623
100
AcDbEntity
  8
cotas
100
AcDbBlockReference
  2
block 183
 10
0.0
 20
0.0
 30
0.0
  0
INSERT
  5
630
330
623
100
AcDbEntity
  8
cotas
100
AcDbBlockReference
  2
block 184
 10
0.0
 20
0.0
 30
0.0
  0
INSERT
  5
638
330
623
100
AcDbEntity
  8
cotas
100
AcDbBlockReference
  2
block 185
 10
0.0
 20
0.0
 30
0.0
  0
INSERT
  5
640
330
623
100
AcDbEntity
  8
cotas
100
AcDbBlockReference
  2
block 186
 10
0.0
 20
0.0
 30
0.0
  0
INSERT
  5
648
330
623
100
AcDbEntity
  8
cotas
100
AcDbBlockReference
  2
block 187
 10
0.0
 20
0.0
 30
0.0
  0
INSERT
  5
653
330
623
100
AcDbEntity
  8
cotas
100
AcDbBlockReference
  2
block 188
 10
0.0
 20
0.0
 30
0.0
  0
INSERT
  5
65E
330
623
100
AcDbEntity
  8
cotas
100
AcDbBlockReference
  2
block 189
 10
0.0
 20
0.0
 30
0.0
  0
INSERT
  5
663
330
623
100
AcDbEntity
  8
cotas
100
AcDbBlockReference
  2
block 190
 10
0.0
 20
0.0
 30
0.0
  0
INSERT
  5
66B
330
623
100
AcDbEntity
  8
cotas
100
AcDbBlockReference
  2
block 191
 10
0.0
 20
0.0
 30
0.0
  0
INSERT
  5
673
330
623
100
AcDbEntity
  8
cotas
100
AcDbBlockReference
  2
block 192
 10
0.0
 20
0.0
 30
0.0
  0
ENDBLK
  5
626
330
623
100
AcDbEntity
  8
0
100
AcDbBlockEnd
  0
BLOCK
  5
629
330
627
100
AcDbEntity
  8
0
100
AcDbBlockBegin
  2
block 183
 70
     0
 71
     0
 10
0.0
 20
0.0
 30
0.0
  3
block 183
  1

  0
POLYLINE
  5
62B
330
627
100
AcDbEntity
  8
cotas
 62
   253
420
 11382189
370
    25
100
AcDb2dPolyline
 66
     1
 10
0.0
 20
0.0
 30
0.0
  0
VERTEX
  5
62C
330
62B
100
AcDbEntity
  8
cotas
 62
   253
420
 11382189
370
    25
100
AcDbVertex
100
AcDb2dVertex
 10
42.43324109182225
 20
54.9988823647225
 30
0.0
  0
VERTEX
  5
62D
330
62B
100
AcDbEntity
  8
cotas
 62
   253
420
 11382189
370
    25
100
AcDbVertex
100
AcDb2dVertex
 10
49.85139294543646
 20
54.9988823647225
 30
0.0
  0
SEQEND
  5
62E
330
62B
100
AcDbEntity
  8
cotas
370
    25
  0
ENDBLK
  5
62A
330
627
100
AcDbEntity
  8
0
100
AcDbBlockEnd
  0
BLOCK
  5
631
330
62F
100
AcDbEntity
  8
0
100
AcDbBlockBegin
  2
block 184
 70
     0
 71
     0
 10
0.0
 20
0.0
 30
0.0
  3
block 184
  1

  0
POLYLINE
  5
633
330
62F
100
AcDbEntity
  8
cotas
 62
   253
420
 11382189
370
    25
100
AcDb2dPolyline
 66
     1
 10
0.0
 20
0.0
 30
0.0
  0
VERTEX
  5
634
330
633
100
AcDbEntity
  8
cotas
 62
   253
420
 11382189
370
    25
100
AcDbVertex
100
AcDb2dVertex
 10
42.43324109182225
 20
50.39485675823462
 30
0.0
  0
VERTEX
  5
635
330
633
100
AcDbEntity
  8
cotas
 62
   253
420
 11382189
370
    25
100
AcDbVertex
100
AcDb2dVertex
 10
49.85139294543646
 20
50.39485675823462
 30
0.0
  0
SEQEND
  5
636
330
633
100
AcDbEntity
  8
cotas
370
    25
  0
ENDBLK
  5
632
330
62F
100
AcDbEntity
  8
0
100
AcDbBlockEnd
  0
BLOCK
  5
639
330
637
100
AcDbEntity
  8
0
100
AcDbBlockBegin
  2
block 185
 70
     0
 71
     0
 10
0.0
 20
0.0
 30
0.0
  3
block 185
  1

  0
POLYLINE
  5
63B
330
637
100
AcDbEntity
  8
cotas
 62
   253
420
 11382189
370
    25
100
AcDb2dPolyline
 66
     1
 10
0.0
 20
0.0
 30
0.0
  0
VERTEX
  5
63C
330
63B
100
AcDbEntity
  8
cotas
 62
   253
420
 11382189
370
    25
100
AcDbVertex
100
AcDb2dVertex
 10
48.50281031773541
 20
56.88713920018794
 30
0.0
  0
VERTEX
  5
63D
330
63B
100
AcDbEntity
  8
cotas
 62
   253
420
 11382189
370
    25
100
AcDbVertex
100
AcDb2dVertex
 10
48.50281031773541
 20
58.77505152610485
 30
0.0
  0
SEQEND
  5
63E
330
63B
100
AcDbEntity
  8
cotas
370
    25
  0
ENDBLK
  5
63A
330
637
100
AcDbEntity
  8
0
100
AcDbBlockEnd
  0
BLOCK
  5
641
330
63F
100
AcDbEntity
  8
0
100
AcDbBlockBegin
  2
block 186
 70
     0
 71
     0
 10
0.0
 20
0.0
 30
0.0
  3
block 186
  1

  0
POLYLINE
  5
643
330
63F
100
AcDbEntity
  8
cotas
 62
   253
420
 11382189
370
    25
100
AcDb2dPolyline
 66
     1
 10
0.0
 20
0.0
 30
0.0
  0
VERTEX
  5
644
330
643
100
AcDbEntity
  8
cotas
 62
   253
420
 11382189
370
    25
100
AcDbVertex
100
AcDb2dVertex
 10
48.50281031773541
 20
48.50694443231771
 30
0.0
  0
VERTEX
  5
645
330
643
100
AcDbEntity
  8
cotas
 62
   253
420
 11382189
370
    25
100
AcDbVertex
100
AcDb2dVertex
 10
48.50281031773541
 20
46.61868759685228
 30
0.0
  0
SEQEND
  5
646
330
643
100
AcDbEntity
  8
cotas
370
    25
  0
ENDBLK
  5
642
330
63F
100
AcDbEntity
  8
0
100
AcDbBlockEnd
  0
BLOCK
  5
649
330
647
100
AcDbEntity
  8
0
100
AcDbBlockBegin
  2
block 187
 70
     0
 71
     0
 10
0.0
 20
0.0
 30
0.0
  3
block 187
  1

  0
POLYLINE
  5
64B
330
647
100
AcDbEntity
  8
cotas
370
     0
100
AcDb2dPolyline
 66
     1
 10
0.0
 20
0.0
 30
0.0
  0
VERTEX
  5
64C
330
64B
100
AcDbEntity
  8
cotas
370
     0
100
AcDbVertex
100
AcDb2dVertex
 10
48.1882730999321
 20
56.88713920018794
 30
0.0
  0
VERTEX
  5
64D
330
64B
100
AcDbEntity
  8
cotas
370
     0
100
AcDbVertex
100
AcDb2dVertex
 10
48.81751979031299
 20
56.88713920018794
 30
0.0
  0
VERTEX
  5
64E
330
64B
100
AcDbEntity
  8
cotas
370
     0
100
AcDbVertex
100
AcDb2dVertex
 10
48.50281031773541
 20
54.9988823647225
 30
0.0
  0
VERTEX
  5
64F
330
64B
100
AcDbEntity
  8
cotas
370
     0
100
AcDbVertex
100
AcDb2dVertex
 10
48.1882730999321
 20
56.88713920018794
 30
0.0
  0
SEQEND
  5
650
330
64B
100
AcDbEntity
  8
cotas
370
     0
  0
HATCH
  5
651
330
647
100
AcDbEntity
  8
cotas
 62
   253
420
 11382189
100
AcDbHatch
 10
0.0
 20
0.0
 30
0.0
210
0.0
220
0.0
230
1.0
  2
SOLID
 70
     1
 71
     0
 91
        1
 92
        1
 93
        3
 72
     1
 10
48.1882730999321
 20
56.88713920018794
 11
48.81751979031299
 21
56.88713920018794
 72
     1
 10
48.81751979031299
 20
56.88713920018794
 11
48.50281031773541
 21
54.9988823647225
 72
     1
 10
48.50281031773541
 20
54.9988823647225
 11
48.1882730999321
 21
56.88713920018794
 97
        0
 75
     2
 76
     1
 98
        0
  0
ENDBLK
  5
64A
330
647
100
AcDbEntity
  8
0
100
AcDbBlockEnd
  0
BLOCK
  5
654
330
652
100
AcDbEntity
  8
0
100
AcDbBlockBegin
  2
block 188
 70
     0
 71
     0
 10
0.0
 20
0.0
 30
0.0
  3
block 188
  1

  0
POLYLINE
  5
656
330
652
100
AcDbEntity
  8
cotas
370
     0
100
AcDb2dPolyline
 66
     1
 10
0.0
 20
0.0
 30
0.0
  0
VERTEX
  5
657
330
656
100
AcDbEntity
  8
cotas
370
     0
100
AcDbVertex
100
AcDb2dVertex
 10
48.1882730999321
 20
48.50694443231771
 30
0.0
  0
VERTEX
  5
658
330
656
100
AcDbEntity
  8
cotas
370
     0
100
AcDbVertex
100
AcDb2dVertex
 10
48.81751979031299
 20
48.50694443231771
 30
0.0
  0
VERTEX
  5
659
330
656
100
AcDbEntity
  8
cotas
370
     0
100
AcDbVertex
100
AcDb2dVertex
 10
48.50281031773541
 20
50.39485675823462
 30
0.0
  0
VERTEX
  5
65A
330
656
100
AcDbEntity
  8
cotas
370
     0
100
AcDbVertex
100
AcDb2dVertex
 10
48.1882730999321
 20
48.50694443231771
 30
0.0
  0
SEQEND
  5
65B
330
656
100
AcDbEntity
  8
cotas
370
     0
  0
HATCH
  5
65C
330
652
100
AcDbEntity
  8
cotas
 62
   253
420
 11382189
100
AcDbHatch
 10
0.0
 20
0.0
 30
0.0
210
0.0
220
0.0
230
1.0
  2
SOLID
 70
     1
 71
     0
 91
        1
 92
        1
 93
        3
 72
     1
 10
48.1882730999321
 20
48.50694443231771
 11
48.81751979031299
 21
48.50694443231771
 72
     1
 10
48.81751979031299
 20
48.50694443231771
 11
48.50281031773541
 21
50.39485675823462
 72
     1
 10
48.50281031773541
 20
50.39485675823462
 11
48.1882730999321
 21
48.50694443231771
 97
        0
 75
     2
 76
     1
 98
        0
  0
ENDBLK
  5
655
330
652
100
AcDbEntity
  8
0
100
AcDbBlockEnd
  0
BLOCK
  5
65F
330
65D
100
AcDbEntity
  8
0
100
AcDbBlockBegin
  2
block 189
 70
     0
 71
     0
 10
0.0
 20
0.0
 30
0.0
  3
block 189
  1

  0
MTEXT
  5
661
330
65D
100
AcDbEntity
  8
cotas
 62
   253
420
 11382189
100
AcDbMText
 10
38.22040607768449
 20
51.36430662778393
 30
0.0
 40
2.697094805890905
 41
0.0
 71
     7
 72
     1
  1
\fArial|b0|i0|c0|p34;\W1;        max.25
 11
0.9999999847691298
 21
0.0001745329200509578
 31
0.0
 73
     1
 44
1.0
  0
ENDBLK
  5
660
330
65D
100
AcDbEntity
  8
0
100
AcDbBlockEnd
  0
BLOCK
  5
664
330
662
100
AcDbEntity
  8
0
100
AcDbBlockBegin
  2
block 190
 70
     0
 71
     0
 10
0.0
 20
0.0
 30
0.0
  3
block 190
  1

  0
POLYLINE
  5
666
330
662
100
AcDbEntity
  8
cotas
 62
   253
420
 11382189
370
    25
100
AcDb2dPolyline
 66
     1
 10
0.0
 20
0.0
 30
0.0
  0
VERTEX
  5
667
330
666
100
AcDbEntity
  8
cotas
 62
   253
420
 11382189
370
    25
100
AcDbVertex
100
AcDb2dVertex
 10
39.73624809119441
 20
54.9988823647225
 30
0.0
  0
VERTEX
  5
668
330
666
100
AcDbEntity
  8
cotas
 62
   253
420
 11382189
370
    25
100
AcDbVertex
100
AcDb2dVertex
 10
39.73624809119441
 20
54.9988823647225
 30
0.0
  0
SEQEND
  5
669
330
666
100
AcDbEntity
  8
cotas
370
    25
  0
ENDBLK
  5
665
330
662
100
AcDbEntity
  8
0
100
AcDbBlockEnd
  0
BLOCK
  5
66C
330
66A
100
AcDbEntity
  8
0
100
AcDbBlockBegin
  2
block 191
 70
     0
 71
     0
 10
0.0
 20
0.0
 30
0.0
  3
block 191
  1

  0
POLYLINE
  5
66E
330
66A
100
AcDbEntity
  8
cotas
 62
   253
420
 11382189
370
    25
100
AcDb2dPolyline
 66
     1
 10
0.0
 20
0.0
 30
0.0
  0
VERTEX
  5
66F
330
66E
100
AcDbEntity
  8
cotas
 62
   253
420
 11382189
370
    25
100
AcDbVertex
100
AcDb2dVertex
 10
39.73624809119441
 20
50.39485675823462
 30
0.0
  0
VERTEX
  5
670
330
66E
100
AcDbEntity
  8
cotas
 62
   253
420
 11382189
370
    25
100
AcDbVertex
100
AcDb2dVertex
 10
39.73624809119441
 20
50.39485675823462
 30
0.0
  0
SEQEND
  5
671
330
66E
100
AcDbEntity
  8
cotas
370
    25
  0
ENDBLK
  5
66D
330
66A
100
AcDbEntity
  8
0
100
AcDbBlockEnd
  0
BLOCK
  5
674
330
672
100
AcDbEntity
  8
0
100
AcDbBlockBegin
  2
block 192
 70
     0
 71
     0
 10
0.0
 20
0.0
 30
0.0
  3
block 192
  1

  0
POLYLINE
  5
676
330
672
100
AcDbEntity
  8
cotas
 62
   253
420
 11382189
370
    25
100
AcDb2dPolyline
 66
     1
 10
0.0
 20
0.0
 30
0.0
  0
VERTEX
  5
677
330
676
100
AcDbEntity
  8
cotas
 62
   253
420
 11382189
370
    25
100
AcDbVertex
100
AcDb2dVertex
 10
48.50281031773541
 20
50.39485675823462
 30
0.0
  0
VERTEX
  5
678
330
676
100
AcDbEntity
  8
cotas
 62
   253
420
 11382189
370
    25
100
AcDbVertex
100
AcDb2dVertex
 10
48.50281031773541
 20
50.39485675823462
 30
0.0
  0
SEQEND
  5
679
330
676
100
AcDbEntity
  8
cotas
370
    25
  0
ENDBLK
  5
675
330
672
100
AcDbEntity
  8
0
100
AcDbBlockEnd
  0
BLOCK
  5
67C
330
67A
100
AcDbEntity
  8
0
100
AcDbBlockBegin
  2
block 193
 70
     0
 71
     0
 10
0.0
 20
0.0
 30
0.0
  3
block 193
  1

  0
INSERT
  5
67F
330
67A
100
AcDbEntity
  8
cotas
100
AcDbBlockReference
  2
block 194
 10
0.0
 20
0.0
 30
0.0
  0
INSERT
  5
687
330
67A
100
AcDbEntity
  8
cotas
100
AcDbBlockReference
  2
block 195
 10
0.0
 20
0.0
 30
0.0
  0
INSERT
  5
68F
330
67A
100
AcDbEntity
  8
cotas
100
AcDbBlockReference
  2
block 196
 10
0.0
 20
0.0
 30
0.0
  0
INSERT
  5
697
330
67A
100
AcDbEntity
  8
cotas
100
AcDbBlockReference
  2
block 197
 10
0.0
 20
0.0
 30
0.0
  0
INSERT
  5
69F
330
67A
100
AcDbEntity
  8
cotas
100
AcDbBlockReference
  2
block 198
 10
0.0
 20
0.0
 30
0.0
  0
INSERT
  5
6AA
330
67A
100
AcDbEntity
  8
cotas
100
AcDbBlockReference
  2
block 199
 10
0.0
 20
0.0
 30
0.0
  0
INSERT
  5
6B5
330
67A
100
AcDbEntity
  8
cotas
100
AcDbBlockReference
  2
block 200
 10
0.0
 20
0.0
 30
0.0
  0
INSERT
  5
6BA
330
67A
100
AcDbEntity
  8
cotas
100
AcDbBlockReference
  2
block 201
 10
0.0
 20
0.0
 30
0.0
  0
INSERT
  5
6C2
330
67A
100
AcDbEntity
  8
cotas
100
AcDbBlockReference
  2
block 202
 10
0.0
 20
0.0
 30
0.0
  0
INSERT
  5
6CA
330
67A
100
AcDbEntity
  8
cotas
100
AcDbBlockReference
  2
block 203
 10
0.0
 20
0.0
 30
0.0
  0
ENDBLK
  5
67D
330
67A
100
AcDbEntity
  8
0
100
AcDbBlockEnd
  0
BLOCK
  5
680
330
67E
100
AcDbEntity
  8
0
100
AcDbBlockBegin
  2
block 194
 70
     0
 71
     0
 10
0.0
 20
0.0
 30
0.0
  3
block 194
  1

  0
POLYLINE
  5
682
330
67E
100
AcDbEntity
  8
cotas
 62
   253
420
 11382189
370
    25
100
AcDb2dPolyline
 66
     1
 10
0.0
 20
0.0
 30
0.0
  0
VERTEX
  5
683
330
682
100
AcDbEntity
  8
cotas
 62
   253
420
 11382189
370
    25
100
AcDbVertex
100
AcDb2dVertex
 10
44.01109482406667
 20
54.9988823647225
 30
0.0
  0
VERTEX
  5
684
330
682
100
AcDbEntity
  8
cotas
 62
   253
420
 11382189
370
    25
100
AcDbVertex
100
AcDb2dVertex
 10
81.0758436212241
 20
54.9988823647225
 30
0.0
  0
SEQEND
  5
685
330
682
100
AcDbEntity
  8
cotas
370
    25
  0
ENDBLK
  5
681
330
67E
100
AcDbEntity
  8
0
100
AcDbBlockEnd
  0
BLOCK
  5
688
330
686
100
AcDbEntity
  8
0
100
AcDbBlockBegin
  2
block 195
 70
     0
 71
     0
 10
0.0
 20
0.0
 30
0.0
  3
block 195
  1

  0
POLYLINE
  5
68A
330
686
100
AcDbEntity
  8
cotas
 62
   253
420
 11382189
370
    25
100
AcDb2dPolyline
 66
     1
 10
0.0
 20
0.0
 30
0.0
  0
VERTEX
  5
68B
330
68A
100
AcDbEntity
  8
cotas
 62
   253
420
 11382189
370
    25
100
AcDbVertex
100
AcDb2dVertex
 10
74.49433320620281
 20
81.32492402480766
 30
0.0
  0
VERTEX
  5
68C
330
68A
100
AcDbEntity
  8
cotas
 62
   253
420
 11382189
370
    25
100
AcDbVertex
100
AcDb2dVertex
 10
81.0758436212241
 20
81.32492402480766
 30
0.0
  0
SEQEND
  5
68D
330
68A
100
AcDbEntity
  8
cotas
370
    25
  0
ENDBLK
  5
689
330
686
100
AcDbEntity
  8
0
100
AcDbBlockEnd
  0
BLOCK
  5
690
330
68E
100
AcDbEntity
  8
0
100
AcDbBlockBegin
  2
block 196
 70
     0
 71
     0
 10
0.0
 20
0.0
 30
0.0
  3
block 196
  1

  0
POLYLINE
  5
692
330
68E
100
AcDbEntity
  8
cotas
 62
   253
420
 11382189
370
    25
100
AcDb2dPolyline
 66
     1
 10
0.0
 20
0.0
 30
0.0
  0
VERTEX
  5
693
330
692
100
AcDbEntity
  8
cotas
 62
   253
420
 11382189
370
    25
100
AcDbVertex
100
AcDb2dVertex
 10
79.72743324829732
 20
56.88713920018794
 30
0.0
  0
VERTEX
  5
694
330
692
100
AcDbEntity
  8
cotas
 62
   253
420
 11382189
370
    25
100
AcDbVertex
100
AcDb2dVertex
 10
79.72743324829732
 20
63.78732094759484
 30
0.0
  0
SEQEND
  5
695
330
692
100
AcDbEntity
  8
cotas
370
    25
  0
ENDBLK
  5
691
330
68E
100
AcDbEntity
  8
0
100
AcDbBlockEnd
  0
BLOCK
  5
698
330
696
100
AcDbEntity
  8
0
100
AcDbBlockBegin
  2
block 197
 70
     0
 71
     0
 10
0.0
 20
0.0
 30
0.0
  3
block 197
  1

  0
POLYLINE
  5
69A
330
696
100
AcDbEntity
  8
cotas
 62
   253
420
 11382189
370
    25
100
AcDb2dPolyline
 66
     1
 10
0.0
 20
0.0
 30
0.0
  0
VERTEX
  5
69B
330
69A
100
AcDbEntity
  8
cotas
 62
   253
420
 11382189
370
    25
100
AcDbVertex
100
AcDb2dVertex
 10
79.72743324829732
 20
79.43701169889076
 30
0.0
  0
VERTEX
  5
69C
330
69A
100
AcDbEntity
  8
cotas
 62
   253
420
 11382189
370
    25
100
AcDbVertex
100
AcDb2dVertex
 10
79.72743324829732
 20
71.93531627975923
 30
0.0
  0
SEQEND
  5
69D
330
69A
100
AcDbEntity
  8
cotas
370
    25
  0
ENDBLK
  5
699
330
696
100
AcDbEntity
  8
0
100
AcDbBlockEnd
  0
BLOCK
  5
6A0
330
69E
100
AcDbEntity
  8
0
100
AcDbBlockBegin
  2
block 198
 70
     0
 71
     0
 10
0.0
 20
0.0
 30
0.0
  3
block 198
  1

  0
POLYLINE
  5
6A2
330
69E
100
AcDbEntity
  8
cotas
370
     0
100
AcDb2dPolyline
 66
     1
 10
0.0
 20
0.0
 30
0.0
  0
VERTEX
  5
6A3
330
6A2
100
AcDbEntity
  8
cotas
370
     0
100
AcDbVertex
100
AcDb2dVertex
 10
79.41255152094547
 20
56.88713920018794
 30
0.0
  0
VERTEX
  5
6A4
330
6A2
100
AcDbEntity
  8
cotas
370
     0
100
AcDbVertex
100
AcDb2dVertex
 10
80.04197046610062
 20
56.88713920018794
 30
0.0
  0
VERTEX
  5
6A5
330
6A2
100
AcDbEntity
  8
cotas
370
     0
100
AcDbVertex
100
AcDb2dVertex
 10
79.72743324829732
 20
54.9988823647225
 30
0.0
  0
VERTEX
  5
6A6
330
6A2
100
AcDbEntity
  8
cotas
370
     0
100
AcDbVertex
100
AcDb2dVertex
 10
79.41255152094547
 20
56.88713920018794
 30
0.0
  0
SEQEND
  5
6A7
330
6A2
100
AcDbEntity
  8
cotas
370
     0
  0
HATCH
  5
6A8
330
69E
100
AcDbEntity
  8
cotas
 62
   253
420
 11382189
100
AcDbHatch
 10
0.0
 20
0.0
 30
0.0
210
0.0
220
0.0
230
1.0
  2
SOLID
 70
     1
 71
     0
 91
        1
 92
        1
 93
        3
 72
     1
 10
79.41255152094547
 20
56.88713920018794
 11
80.04197046610062
 21
56.88713920018794
 72
     1
 10
80.04197046610062
 20
56.88713920018794
 11
79.72743324829732
 21
54.9988823647225
 72
     1
 10
79.72743324829732
 20
54.9988823647225
 11
79.41255152094547
 21
56.88713920018794
 97
        0
 75
     2
 76
     1
 98
        0
  0
ENDBLK
  5
6A1
330
69E
100
AcDbEntity
  8
0
100
AcDbBlockEnd
  0
BLOCK
  5
6AB
330
6A9
100
AcDbEntity
  8
0
100
AcDbBlockBegin
  2
block 199
 70
     0
 71
     0
 10
0.0
 20
0.0
 30
0.0
  3
block 199
  1

  0
POLYLINE
  5
6AD
330
6A9
100
AcDbEntity
  8
cotas
370
     0
100
AcDb2dPolyline
 66
     1
 10
0.0
 20
0.0
 30
0.0
  0
VERTEX
  5
6AE
330
6AD
100
AcDbEntity
  8
cotas
370
     0
100
AcDbVertex
100
AcDb2dVertex
 10
79.41255152094547
 20
79.43701169889076
 30
0.0
  0
VERTEX
  5
6AF
330
6AD
100
AcDbEntity
  8
cotas
370
     0
100
AcDbVertex
100
AcDb2dVertex
 10
80.04197046610062
 20
79.43701169889076
 30
0.0
  0
VERTEX
  5
6B0
330
6AD
100
AcDbEntity
  8
cotas
370
     0
100
AcDbVertex
100
AcDb2dVertex
 10
79.72743324829732
 20
81.32492402480766
 30
0.0
  0
VERTEX
  5
6B1
330
6AD
100
AcDbEntity
  8
cotas
370
     0
100
AcDbVertex
100
AcDb2dVertex
 10
79.41255152094547
 20
79.43701169889076
 30
0.0
  0
SEQEND
  5
6B2
330
6AD
100
AcDbEntity
  8
cotas
370
     0
  0
HATCH
  5
6B3
330
6A9
100
AcDbEntity
  8
cotas
 62
   253
420
 11382189
100
AcDbHatch
 10
0.0
 20
0.0
 30
0.0
210
0.0
220
0.0
230
1.0
  2
SOLID
 70
     1
 71
     0
 91
        1
 92
        1
 93
        3
 72
     1
 10
79.41255152094547
 20
79.43701169889076
 11
80.04197046610062
 21
79.43701169889076
 72
     1
 10
80.04197046610062
 20
79.43701169889076
 11
79.72743324829732
 21
81.32492402480766
 72
     1
 10
79.72743324829732
 20
81.32492402480766
 11
79.41255152094547
 21
79.43701169889076
 97
        0
 75
     2
 76
     1
 98
        0
  0
ENDBLK
  5
6AC
330
6A9
100
AcDbEntity
  8
0
100
AcDbBlockEnd
  0
BLOCK
  5
6B6
330
6B4
100
AcDbEntity
  8
0
100
AcDbBlockBegin
  2
block 200
 70
     0
 71
     0
 10
0.0
 20
0.0
 30
0.0
  3
block 200
  1

  0
MTEXT
  5
6B8
330
6B4
100
AcDbEntity
  8
cotas
 62
   253
420
 11382189
100
AcDbMText
 10
76.45838214234374
 20
66.53030597295076
 30
0.0
 40
2.697094805890905
 41
0.0
 71
     7
 72
     1
  1
\fArial|b0|i0|c0|p34;\W1;105
 73
     1
 44
1.0
  0
ENDBLK
  5
6B7
330
6B4
100
AcDbEntity
  8
0
100
AcDbBlockEnd
  0
BLOCK
  5
6BB
330
6B9
100
AcDbEntity
  8
0
100
AcDbBlockBegin
  2
block 201
 70
     0
 71
     0
 10
0.0
 20
0.0
 30
0.0
  3
block 201
  1

  0
POLYLINE
  5
6BD
330
6B9
100
AcDbEntity
  8
cotas
 62
   253
420
 11382189
370
    25
100
AcDb2dPolyline
 66
     1
 10
0.0
 20
0.0
 30
0.0
  0
VERTEX
  5
6BE
330
6BD
100
AcDbEntity
  8
cotas
 62
   253
420
 11382189
370
    25
100
AcDbVertex
100
AcDb2dVertex
 10
41.31392956866458
 20
54.9988823647225
 30
0.0
  0
VERTEX
  5
6BF
330
6BD
100
AcDbEntity
  8
cotas
 62
   253
420
 11382189
370
    25
100
AcDbVertex
100
AcDb2dVertex
 10
41.31392956866458
 20
54.9988823647225
 30
0.0
  0
SEQEND
  5
6C0
330
6BD
100
AcDbEntity
  8
cotas
370
    25
  0
ENDBLK
  5
6BC
330
6B9
100
AcDbEntity
  8
0
100
AcDbBlockEnd
  0
BLOCK
  5
6C3
330
6C1
100
AcDbEntity
  8
0
100
AcDbBlockBegin
  2
block 202
 70
     0
 71
     0
 10
0.0
 20
0.0
 30
0.0
  3
block 202
  1

  0
POLYLINE
  5
6C5
330
6C1
100
AcDbEntity
  8
cotas
 62
   253
420
 11382189
370
    25
100
AcDb2dPolyline
 66
     1
 10
0.0
 20
0.0
 30
0.0
  0
VERTEX
  5
6C6
330
6C5
100
AcDbEntity
  8
cotas
 62
   253
420
 11382189
370
    25
100
AcDbVertex
100
AcDb2dVertex
 10
71.79751246034924
 20
81.32492402480766
 30
0.0
  0
VERTEX
  5
6C7
330
6C5
100
AcDbEntity
  8
cotas
 62
   253
420
 11382189
370
    25
100
AcDbVertex
100
AcDb2dVertex
 10
71.79751246034924
 20
81.32492402480766
 30
0.0
  0
SEQEND
  5
6C8
330
6C5
100
AcDbEntity
  8
cotas
370
    25
  0
ENDBLK
  5
6C4
330
6C1
100
AcDbEntity
  8
0
100
AcDbBlockEnd
  0
BLOCK
  5
6CB
330
6C9
100
AcDbEntity
  8
0
100
AcDbBlockBegin
  2
block 203
 70
     0
 71
     0
 10
0.0
 20
0.0
 30
0.0
  3
block 203
  1

  0
POLYLINE
  5
6CD
330
6C9
100
AcDbEntity
  8
cotas
 62
   253
420
 11382189
370
    25
100
AcDb2dPolyline
 66
     1
 10
0.0
 20
0.0
 30
0.0
  0
VERTEX
  5
6CE
330
6CD
100
AcDbEntity
  8
cotas
 62
   253
420
 11382189
370
    25
100
AcDbVertex
100
AcDb2dVertex
 10
79.72743324829732
 20
81.32492402480766
 30
0.0
  0
VERTEX
  5
6CF
330
6CD
100
AcDbEntity
  8
cotas
 62
   253
420
 11382189
370
    25
100
AcDbVertex
100
AcDb2dVertex
 10
79.72743324829732
 20
81.32492402480766
 30
0.0
  0
SEQEND
  5
6D0
330
6CD
100
AcDbEntity
  8
cotas
370
    25
  0
ENDBLK
  5
6CC
330
6C9
100
AcDbEntity
  8
0
100
AcDbBlockEnd
  0
BLOCK
  5
6D3
330
6D1
100
AcDbEntity
  8
0
100
AcDbBlockBegin
  2
block 204
 70
     0
 71
     0
 10
0.0
 20
0.0
 30
0.0
  3
block 204
  1

  0
INSERT
  5
6D6
330
6D1
100
AcDbEntity
  8
cotas
100
AcDbBlockReference
  2
block 205
 10
0.0
 20
0.0
 30
0.0
  0
INSERT
  5
6DE
330
6D1
100
AcDbEntity
  8
cotas
100
AcDbBlockReference
  2
block 206
 10
0.0
 20
0.0
 30
0.0
  0
INSERT
  5
6E6
330
6D1
100
AcDbEntity
  8
cotas
100
AcDbBlockReference
  2
block 207
 10
0.0
 20
0.0
 30
0.0
  0
INSERT
  5
6EE
330
6D1
100
AcDbEntity
  8
cotas
100
AcDbBlockReference
  2
block 208
 10
0.0
 20
0.0
 30
0.0
  0
INSERT
  5
6F6
330
6D1
100
AcDbEntity
  8
cotas
100
AcDbBlockReference
  2
block 209
 10
0.0
 20
0.0
 30
0.0
  0
INSERT
  5
701
330
6D1
100
AcDbEntity
  8
cotas
100
AcDbBlockReference
  2
block 210
 10
0.0
 20
0.0
 30
0.0
  0
INSERT
  5
70C
330
6D1
100
AcDbEntity
  8
cotas
100
AcDbBlockReference
  2
block 211
 10
0.0
 20
0.0
 30
0.0
  0
INSERT
  5
711
330
6D1
100
AcDbEntity
  8
cotas
100
AcDbBlockReference
  2
block 212
 10
0.0
 20
0.0
 30
0.0
  0
INSERT
  5
719
330
6D1
100
AcDbEntity
  8
cotas
100
AcDbBlockReference
  2
block 213
 10
0.0
 20
0.0
 30
0.0
  0
INSERT
  5
721
330
6D1
100
AcDbEntity
  8
cotas
100
AcDbBlockReference
  2
block 214
 10
0.0
 20
0.0
 30
0.0
  0
ENDBLK
  5
6D4
330
6D1
100
AcDbEntity
  8
0
100
AcDbBlockEnd
  0
BLOCK
  5
6D7
330
6D5
100
AcDbEntity
  8
0
100
AcDbBlockBegin
  2
block 205
 70
     0
 71
     0
 10
0.0
 20
0.0
 30
0.0
  3
block 205
  1

  0
POLYLINE
  5
6D9
330
6D5
100
AcDbEntity
  8
cotas
 62
   253
420
 11382189
370
    25
100
AcDb2dPolyline
 66
     1
 10
0.0
 20
0.0
 30
0.0
  0
VERTEX
  5
6DA
330
6D9
100
AcDbEntity
  8
cotas
 62
   253
420
 11382189
370
    25
100
AcDbVertex
100
AcDb2dVertex
 10
73.96241046328024
 20
88.03872610646255
 30
0.0
  0
VERTEX
  5
6DB
330
6D9
100
AcDbEntity
  8
cotas
 62
   253
420
 11382189
370
    25
100
AcDbVertex
100
AcDb2dVertex
 10
73.96241046328024
 20
99.32692597343217
 30
0.0
  0
SEQEND
  5
6DC
330
6D9
100
AcDbEntity
  8
cotas
370
    25
  0
ENDBLK
  5
6D8
330
6D5
100
AcDbEntity
  8
0
100
AcDbBlockEnd
  0
BLOCK
  5
6DF
330
6DD
100
AcDbEntity
  8
0
100
AcDbBlockBegin
  2
block 206
 70
     0
 71
     0
 10
0.0
 20
0.0
 30
0.0
  3
block 206
  1

  0
POLYLINE
  5
6E1
330
6DD
100
AcDbEntity
  8
cotas
 62
   253
420
 11382189
370
    25
100
AcDb2dPolyline
 66
     1
 10
0.0
 20
0.0
 30
0.0
  0
VERTEX
  5
6E2
330
6E1
100
AcDbEntity
  8
cotas
 62
   253
420
 11382189
370
    25
100
AcDbVertex
100
AcDb2dVertex
 10
35.85241969589801
 20
96.04891761921694
 30
0.0
  0
VERTEX
  5
6E3
330
6E1
100
AcDbEntity
  8
cotas
 62
   253
420
 11382189
370
    25
100
AcDbVertex
100
AcDb2dVertex
 10
35.85241969589801
 20
99.32692597343217
 30
0.0
  0
SEQEND
  5
6E4
330
6E1
100
AcDbEntity
  8
cotas
370
    25
  0
ENDBLK
  5
6E0
330
6DD
100
AcDbEntity
  8
0
100
AcDbBlockEnd
  0
BLOCK
  5
6E7
330
6E5
100
AcDbEntity
  8
0
100
AcDbBlockBegin
  2
block 207
 70
     0
 71
     0
 10
0.0
 20
0.0
 30
0.0
  3
block 207
  1

  0
POLYLINE
  5
6E9
330
6E5
100
AcDbEntity
  8
cotas
 62
   253
420
 11382189
370
    25
100
AcDb2dPolyline
 66
     1
 10
0.0
 20
0.0
 30
0.0
  0
VERTEX
  5
6EA
330
6E9
100
AcDbEntity
  8
cotas
 62
   253
420
 11382189
370
    25
100
AcDbVertex
100
AcDb2dVertex
 10
72.07449813736332
 20
97.97817109095685
 30
0.0
  0
VERTEX
  5
6EB
330
6E9
100
AcDbEntity
  8
cotas
 62
   253
420
 11382189
370
    25
100
AcDbVertex
100
AcDb2dVertex
 10
60.46728242845957
 20
97.97817109095685
 30
0.0
  0
SEQEND
  5
6EC
330
6E9
100
AcDbEntity
  8
cotas
370
    25
  0
ENDBLK
  5
6E8
330
6E5
100
AcDbEntity
  8
0
100
AcDbBlockEnd
  0
BLOCK
  5
6EF
330
6ED
100
AcDbEntity
  8
0
100
AcDbBlockBegin
  2
block 208
 70
     0
 71
     0
 10
0.0
 20
0.0
 30
0.0
  3
block 208
  1

  0
POLYLINE
  5
6F1
330
6ED
100
AcDbEntity
  8
cotas
 62
   253
420
 11382189
370
    25
100
AcDb2dPolyline
 66
     1
 10
0.0
 20
0.0
 30
0.0
  0
VERTEX
  5
6F2
330
6F1
100
AcDbEntity
  8
cotas
 62
   253
420
 11382189
370
    25
100
AcDbVertex
100
AcDb2dVertex
 10
37.74033202181492
 20
97.97817109095685
 30
0.0
  0
VERTEX
  5
6F3
330
6F1
100
AcDbEntity
  8
cotas
 62
   253
420
 11382189
370
    25
100
AcDbVertex
100
AcDb2dVertex
 10
49.34754773071867
 20
97.97817109095685
 30
0.0
  0
SEQEND
  5
6F4
330
6F1
100
AcDbEntity
  8
cotas
370
    25
  0
ENDBLK
  5
6F0
330
6ED
100
AcDbEntity
  8
0
100
AcDbBlockEnd
  0
BLOCK
  5
6F7
330
6F5
100
AcDbEntity
  8
0
100
AcDbBlockBegin
  2
block 209
 70
     0
 71
     0
 10
0.0
 20
0.0
 30
0.0
  3
block 209
  1

  0
POLYLINE
  5
6F9
330
6F5
100
AcDbEntity
  8
cotas
370
     0
100
AcDb2dPolyline
 66
     1
 10
0.0
 20
0.0
 30
0.0
  0
VERTEX
  5
6FA
330
6F9
100
AcDbEntity
  8
cotas
370
     0
100
AcDbVertex
100
AcDb2dVertex
 10
72.07449813736332
 20
98.29270830876015
 30
0.0
  0
VERTEX
  5
6FB
330
6F9
100
AcDbEntity
  8
cotas
370
     0
100
AcDbVertex
100
AcDb2dVertex
 10
72.07449813736332
 20
97.66363387315354
 30
0.0
  0
VERTEX
  5
6FC
330
6F9
100
AcDbEntity
  8
cotas
370
     0
100
AcDbVertex
100
AcDb2dVertex
 10
73.96241046328024
 20
97.97817109095685
 30
0.0
  0
VERTEX
  5
6FD
330
6F9
100
AcDbEntity
  8
cotas
370
     0
100
AcDbVertex
100
AcDb2dVertex
 10
72.07449813736332
 20
98.29270830876015
 30
0.0
  0
SEQEND
  5
6FE
330
6F9
100
AcDbEntity
  8
cotas
370
     0
  0
HATCH
  5
6FF
330
6F5
100
AcDbEntity
  8
cotas
 62
   253
420
 11382189
100
AcDbHatch
 10
0.0
 20
0.0
 30
0.0
210
0.0
220
0.0
230
1.0
  2
SOLID
 70
     1
 71
     0
 91
        1
 92
        1
 93
        3
 72
     1
 10
72.07449813736332
 20
98.29270830876015
 11
72.07449813736332
 21
97.66363387315354
 72
     1
 10
72.07449813736332
 20
97.66363387315354
 11
73.96241046328024
 21
97.97817109095685
 72
     1
 10
73.96241046328024
 20
97.97817109095685
 11
72.07449813736332
 21
98.29270830876015
 97
        0
 75
     2
 76
     1
 98
        0
  0
ENDBLK
  5
6F8
330
6F5
100
AcDbEntity
  8
0
100
AcDbBlockEnd
  0
BLOCK
  5
702
330
700
100
AcDbEntity
  8
0
100
AcDbBlockBegin
  2
block 210
 70
     0
 71
     0
 10
0.0
 20
0.0
 30
0.0
  3
block 210
  1

  0
POLYLINE
  5
704
330
700
100
AcDbEntity
  8
cotas
370
     0
100
AcDb2dPolyline
 66
     1
 10
0.0
 20
0.0
 30
0.0
  0
VERTEX
  5
705
330
704
100
AcDbEntity
  8
cotas
370
     0
100
AcDbVertex
100
AcDb2dVertex
 10
37.74033202181492
 20
98.29270830876015
 30
0.0
  0
VERTEX
  5
706
330
704
100
AcDbEntity
  8
cotas
370
     0
100
AcDbVertex
100
AcDb2dVertex
 10
37.74033202181492
 20
97.66363387315354
 30
0.0
  0
VERTEX
  5
707
330
704
100
AcDbEntity
  8
cotas
370
     0
100
AcDbVertex
100
AcDb2dVertex
 10
35.85241969589801
 20
97.97817109095685
 30
0.0
  0
VERTEX
  5
708
330
704
100
AcDbEntity
  8
cotas
370
     0
100
AcDbVertex
100
AcDb2dVertex
 10
37.74033202181492
 20
98.29270830876015
 30
0.0
  0
SEQEND
  5
709
330
704
100
AcDbEntity
  8
cotas
370
     0
  0
HATCH
  5
70A
330
700
100
AcDbEntity
  8
cotas
 62
   253
420
 11382189
100
AcDbHatch
 10
0.0
 20
0.0
 30
0.0
210
0.0
220
0.0
230
1.0
  2
SOLID
 70
     1
 71
     0
 91
        1
 92
        1
 93
        3
 72
     1
 10
37.74033202181492
 20
98.29270830876015
 11
37.74033202181492
 21
97.66363387315354
 72
     1
 10
37.74033202181492
 20
97.66363387315354
 11
35.85241969589801
 21
97.97817109095685
 72
     1
 10
35.85241969589801
 20
97.97817109095685
 11
37.74033202181492
 21
98.29270830876015
 97
        0
 75
     2
 76
     1
 98
        0
  0
ENDBLK
  5
703
330
700
100
AcDbEntity
  8
0
100
AcDbBlockEnd
  0
BLOCK
  5
70D
330
70B
100
AcDbEntity
  8
0
100
AcDbBlockBegin
  2
block 211
 70
     0
 71
     0
 10
0.0
 20
0.0
 30
0.0
  3
block 211
  1

  0
MTEXT
  5
70F
330
70B
100
AcDbEntity
  8
cotas
 62
   253
420
 11382189
100
AcDbMText
 10
51.63836397363555
 20
96.64733070500483
 30
0.0
 40
2.697094805890905
 41
0.0
 71
     7
 72
     1
  1
\fArial|b0|i0|c0|p34;\W1;155
 73
     1
 44
1.0
  0
ENDBLK
  5
70E
330
70B
100
AcDbEntity
  8
0
100
AcDbBlockEnd
  0
BLOCK
  5
712
330
710
100
AcDbEntity
  8
0
100
AcDbBlockBegin
  2
block 212
 70
     0
 71
     0
 10
0.0
 20
0.0
 30
0.0
  3
block 212
  1

  0
POLYLINE
  5
714
330
710
100
AcDbEntity
  8
cotas
 62
   253
420
 11382189
370
    25
100
AcDb2dPolyline
 66
     1
 10
0.0
 20
0.0
 30
0.0
  0
VERTEX
  5
715
330
714
100
AcDbEntity
  8
cotas
 62
   253
420
 11382189
370
    25
100
AcDbVertex
100
AcDb2dVertex
 10
73.96241046328024
 20
85.34156085106045
 30
0.0
  0
VERTEX
  5
716
330
714
100
AcDbEntity
  8
cotas
 62
   253
420
 11382189
370
    25
100
AcDbVertex
100
AcDb2dVertex
 10
73.96241046328024
 20
85.34156085106045
 30
0.0
  0
SEQEND
  5
717
330
714
100
AcDbEntity
  8
cotas
370
    25
  0
ENDBLK
  5
713
330
710
100
AcDbEntity
  8
0
100
AcDbBlockEnd
  0
BLOCK
  5
71A
330
718
100
AcDbEntity
  8
0
100
AcDbBlockBegin
  2
block 213
 70
     0
 71
     0
 10
0.0
 20
0.0
 30
0.0
  3
block 213
  1

  0
POLYLINE
  5
71C
330
718
100
AcDbEntity
  8
cotas
 62
   253
420
 11382189
370
    25
100
AcDb2dPolyline
 66
     1
 10
0.0
 20
0.0
 30
0.0
  0
VERTEX
  5
71D
330
71C
100
AcDbEntity
  8
cotas
 62
   253
420
 11382189
370
    25
100
AcDbVertex
100
AcDb2dVertex
 10
35.85241969589801
 20
93.35175236381484
 30
0.0
  0
VERTEX
  5
71E
330
71C
100
AcDbEntity
  8
cotas
 62
   253
420
 11382189
370
    25
100
AcDbVertex
100
AcDb2dVertex
 10
35.85241969589801
 20
93.35175236381484
 30
0.0
  0
SEQEND
  5
71F
330
71C
100
AcDbEntity
  8
cotas
370
    25
  0
ENDBLK
  5
71B
330
718
100
AcDbEntity
  8
0
100
AcDbBlockEnd
  0
BLOCK
  5
722
330
720
100
AcDbEntity
  8
0
100
AcDbBlockBegin
  2
block 214
 70
     0
 71
     0
 10
0.0
 20
0.0
 30
0.0
  3
block 214
  1

  0
POLYLINE
  5
724
330
720
100
AcDbEntity
  8
cotas
 62
   253
420
 11382189
370
    25
100
AcDb2dPolyline
 66
     1
 10
0.0
 20
0.0
 30
0.0
  0
VERTEX
  5
725
330
724
100
AcDbEntity
  8
cotas
 62
   253
420
 11382189
370
    25
100
AcDbVertex
100
AcDb2dVertex
 10
35.85241969589801
 20
97.97817109095685
 30
0.0
  0
VERTEX
  5
726
330
724
100
AcDbEntity
  8
cotas
 62
   253
420
 11382189
370
    25
100
AcDbVertex
100
AcDb2dVertex
 10
35.85241969589801
 20
97.97817109095685
 30
0.0
  0
SEQEND
  5
727
330
724
100
AcDbEntity
  8
cotas
370
    25
  0
ENDBLK
  5
723
330
720
100
AcDbEntity
  8
0
100
AcDbBlockEnd
  0
BLOCK
  5
72A
330
728
100
AcDbEntity
  8
0
100
AcDbBlockBegin
  2
block 215
 70
     0
 71
     0
 10
0.0
 20
0.0
 30
0.0
  3
block 215
  1

  0
POLYLINE
  5
72C
330
728
100
AcDbEntity
  8
cotas
  6
AI-Linetype-1
 62
   253
420
 11382189
370
    25
100
AcDb2dPolyline
 66
     1
 10
0.0
 20
0.0
 30
0.0
  0
VERTEX
  5
72D
330
72C
100
AcDbEntity
  8
cotas
  6
AI-Linetype-1
 62
   253
420
 11382189
370
    25
100
AcDbVertex
100
AcDb2dVertex
 10
39.25066188254845
 20
47.23157008367822
 30
0.0
  0
VERTEX
  5
72E
330
72C
100
AcDbEntity
  8
cotas
  6
AI-Linetype-1
 62
   253
420
 11382189
370
    25
100
AcDbVertex
100
AcDb2dVertex
 10
39.25066188254845
 20
48.10662433693168
 30
0.0
  0
SEQEND
  5
72F
330
72C
100
AcDbEntity
  8
cotas
  6
AI-Linetype-1
370
    25
  0
ENDBLK
  5
72B
330
728
100
AcDbEntity
  8
0
100
AcDbBlockEnd
  0
BLOCK
  5
733
330
731
100
AcDbEntity
  8
0
100
AcDbBlockBegin
  2
block 216
 70
     0
 71
     0
 10
0.0
 20
0.0
 30
0.0
  3
block 216
  1

  0
POLYLINE
  5
735
330
731
100
AcDbEntity
  8
cotas
  6
AI-Linetype-2
 62
   253
420
 11382189
370
    25
100
AcDb2dPolyline
 66
     1
 10
0.0
 20
0.0
 30
0.0
  0
VERTEX
  5
736
330
735
100
AcDbEntity
  8
cotas
  6
AI-Linetype-2
 62
   253
420
 11382189
370
    25
100
AcDbVertex
100
AcDb2dVertex
 10
39.25066188254845
 20
48.59203829080338
 30
0.0
  0
VERTEX
  5
737
330
735
100
AcDbEntity
  8
cotas
  6
AI-Linetype-2
 62
   253
420
 11382189
370
    25
100
AcDbVertex
100
AcDb2dVertex
 10
39.25066188254845
 20
49.66656357265281
 30
0.0
  0
SEQEND
  5
738
330
735
100
AcDbEntity
  8
cotas
  6
AI-Linetype-2
370
    25
  0
ENDBLK
  5
734
330
731
100
AcDbEntity
  8
0
100
AcDbBlockEnd
  0
BLOCK
  5
73C
330
73A
100
AcDbEntity
  8
0
100
AcDbBlockBegin
  2
block 217
 70
     0
 71
     0
 10
0.0
 20
0.0
 30
0.0
  3
block 217
  1

  0
POLYLINE
  5
73E
330
73A
100
AcDbEntity
  8
cotas
  6
AI-Linetype-3
 62
   253
420
 11382189
370
    25
100
AcDb2dPolyline
 66
     1
 10
0.0
 20
0.0
 30
0.0
  0
VERTEX
  5
73F
330
73E
100
AcDbEntity
  8
cotas
  6
AI-Linetype-3
 62
   253
420
 11382189
370
    25
100
AcDbVertex
100
AcDb2dVertex
 10
39.25066188254845
 20
50.39485675823462
 30
0.0
  0
VERTEX
  5
740
330
73E
100
AcDbEntity
  8
cotas
  6
AI-Linetype-3
 62
   253
420
 11382189
370
    25
100
AcDbVertex
100
AcDb2dVertex
 10
39.25066188254845
 20
54.9988823647225
 30
0.0
  0
SEQEND
  5
741
330
73E
100
AcDbEntity
  8
cotas
  6
AI-Linetype-3
370
    25
  0
ENDBLK
  5
73D
330
73A
100
AcDbEntity
  8
0
100
AcDbBlockEnd
  0
BLOCK
  5
745
330
743
100
AcDbEntity
  8
0
100
AcDbBlockBegin
  2
block 218
 70
     0
 71
     0
 10
0.0
 20
0.0
 30
0.0
  3
block 218
  1

  0
POLYLINE
  5
747
330
743
100
AcDbEntity
  8
cotas
  6
AI-Linetype-4
 62
   253
420
 11382189
370
    25
100
AcDb2dPolyline
 66
     1
 10
0.0
 20
0.0
 30
0.0
  0
VERTEX
  5
748
330
747
100
AcDbEntity
  8
cotas
  6
AI-Linetype-4
 62
   253
420
 11382189
370
    25
100
AcDbVertex
100
AcDb2dVertex
 10
32.45400525447331
 20
54.9988823647225
 30
0.0
  0
VERTEX
  5
749
330
747
100
AcDbEntity
  8
cotas
  6
AI-Linetype-4
 62
   253
420
 11382189
370
    25
100
AcDbVertex
100
AcDb2dVertex
 10
32.45400525447331
 20
50.39485675823462
 30
0.0
  0
SEQEND
  5
74A
330
747
100
AcDbEntity
  8
cotas
  6
AI-Linetype-4
370
    25
  0
ENDBLK
  5
746
330
743
100
AcDbEntity
  8
0
100
AcDbBlockEnd
  0
BLOCK
  5
74E
330
74C
100
AcDbEntity
  8
0
100
AcDbBlockBegin
  2
block 219
 70
     0
 71
     0
 10
0.0
 20
0.0
 30
0.0
  3
block 219
  1

  0
POLYLINE
  5
750
330
74C
100
AcDbEntity
  8
cotas
  6
AI-Linetype-5
 62
   253
420
 11382189
370
    25
100
AcDb2dPolyline
 66
     1
 10
0.0
 20
0.0
 30
0.0
  0
VERTEX
  5
751
330
750
100
AcDbEntity
  8
cotas
  6
AI-Linetype-5
 62
   253
420
 11382189
370
    25
100
AcDbVertex
100
AcDb2dVertex
 10
32.45400525447331
 20
49.66656357265281
 30
0.0
  0
VERTEX
  5
752
330
750
100
AcDbEntity
  8
cotas
  6
AI-Linetype-5
 62
   253
420
 11382189
370
    25
100
AcDbVertex
100
AcDb2dVertex
 10
32.45400525447331
 20
48.59203829080338
 30
0.0
  0
SEQEND
  5
753
330
750
100
AcDbEntity
  8
cotas
  6
AI-Linetype-5
370
    25
  0
ENDBLK
  5
74F
330
74C
100
AcDbEntity
  8
0
100
AcDbBlockEnd
  0
BLOCK
  5
757
330
755
100
AcDbEntity
  8
0
100
AcDbBlockBegin
  2
block 220
 70
     0
 71
     0
 10
0.0
 20
0.0
 30
0.0
  3
block 220
  1

  0
POLYLINE
  5
759
330
755
100
AcDbEntity
  8
cotas
  6
AI-Linetype-6
 62
   253
420
 11382189
370
    25
100
AcDb2dPolyline
 66
     1
 10
0.0
 20
0.0
 30
0.0
  0
VERTEX
  5
75A
330
759
100
AcDbEntity
  8
cotas
  6
AI-Linetype-6
 62
   253
420
 11382189
370
    25
100
AcDbVertex
100
AcDb2dVertex
 10
32.45400525447331
 20
48.10662433693168
 30
0.0
  0
VERTEX
  5
75B
330
759
100
AcDbEntity
  8
cotas
  6
AI-Linetype-6
 62
   253
420
 11382189
370
    25
100
AcDbVertex
100
AcDb2dVertex
 10
32.45400525447331
 20
47.23157008367822
 30
0.0
  0
SEQEND
  5
75C
330
759
100
AcDbEntity
  8
cotas
  6
AI-Linetype-6
370
    25
  0
ENDBLK
  5
758
330
755
100
AcDbEntity
  8
0
100
AcDbBlockEnd
  0
BLOCK
  5
760
330
75E
100
AcDbEntity
  8
0
100
AcDbBlockBegin
  2
block 221
 70
     0
 71
     0
 10
0.0
 20
0.0
 30
0.0
  3
block 221
  1

  0
INSERT
  5
763
330
75E
100
AcDbEntity
  8
cotas
100
AcDbBlockReference
  2
block 222
 10
0.0
 20
0.0
 30
0.0
  0
INSERT
  5
76B
330
75E
100
AcDbEntity
  8
cotas
100
AcDbBlockReference
  2
block 223
 10
0.0
 20
0.0
 30
0.0
  0
INSERT
  5
773
330
75E
100
AcDbEntity
  8
cotas
100
AcDbBlockReference
  2
block 224
 10
0.0
 20
0.0
 30
0.0
  0
INSERT
  5
77B
330
75E
100
AcDbEntity
  8
cotas
100
AcDbBlockReference
  2
block 225
 10
0.0
 20
0.0
 30
0.0
  0
INSERT
  5
783
330
75E
100
AcDbEntity
  8
cotas
100
AcDbBlockReference
  2
block 226
 10
0.0
 20
0.0
 30
0.0
  0
INSERT
  5
78E
330
75E
100
AcDbEntity
  8
cotas
100
AcDbBlockReference
  2
block 227
 10
0.0
 20
0.0
 30
0.0
  0
INSERT
  5
799
330
75E
100
AcDbEntity
  8
cotas
100
AcDbBlockReference
  2
block 228
 10
0.0
 20
0.0
 30
0.0
  0
INSERT
  5
79E
330
75E
100
AcDbEntity
  8
cotas
100
AcDbBlockReference
  2
block 229
 10
0.0
 20
0.0
 30
0.0
  0
INSERT
  5
7A6
330
75E
100
AcDbEntity
  8
cotas
100
AcDbBlockReference
  2
block 230
 10
0.0
 20
0.0
 30
0.0
  0
INSERT
  5
7AE
330
75E
100
AcDbEntity
  8
cotas
100
AcDbBlockReference
  2
block 231
 10
0.0
 20
0.0
 30
0.0
  0
ENDBLK
  5
761
330
75E
100
AcDbEntity
  8
0
100
AcDbBlockEnd
  0
BLOCK
  5
764
330
762
100
AcDbEntity
  8
0
100
AcDbBlockBegin
  2
block 222
 70
     0
 71
     0
 10
0.0
 20
0.0
 30
0.0
  3
block 222
  1

  0
POLYLINE
  5
766
330
762
100
AcDbEntity
  8
cotas
 62
   253
420
 11382189
370
    25
100
AcDb2dPolyline
 66
     1
 10
0.0
 20
0.0
 30
0.0
  0
VERTEX
  5
767
330
766
100
AcDbEntity
  8
cotas
 62
   253
420
 11382189
370
    25
100
AcDbVertex
100
AcDb2dVertex
 10
44.01109482406667
 20
54.9988823647225
 30
0.0
  0
VERTEX
  5
768
330
766
100
AcDbEntity
  8
cotas
 62
   253
420
 11382189
370
    25
100
AcDbVertex
100
AcDb2dVertex
 10
81.0758436212241
 20
54.9988823647225
 30
0.0
  0
SEQEND
  5
769
330
766
100
AcDbEntity
  8
cotas
370
    25
  0
ENDBLK
  5
765
330
762
100
AcDbEntity
  8
0
100
AcDbBlockEnd
  0
BLOCK
  5
76C
330
76A
100
AcDbEntity
  8
0
100
AcDbBlockBegin
  2
block 223
 70
     0
 71
     0
 10
0.0
 20
0.0
 30
0.0
  3
block 223
  1

  0
POLYLINE
  5
76E
330
76A
100
AcDbEntity
  8
cotas
 62
   253
420
 11382189
370
    25
100
AcDb2dPolyline
 66
     1
 10
0.0
 20
0.0
 30
0.0
  0
VERTEX
  5
76F
330
76E
100
AcDbEntity
  8
cotas
 62
   253
420
 11382189
370
    25
100
AcDbVertex
100
AcDb2dVertex
 10
44.13236218514746
 20
29.26884222358557
 30
0.0
  0
VERTEX
  5
770
330
76E
100
AcDbEntity
  8
cotas
 62
   253
420
 11382189
370
    25
100
AcDbVertex
100
AcDb2dVertex
 10
81.0758436212241
 20
29.26884222358557
 30
0.0
  0
SEQEND
  5
771
330
76E
100
AcDbEntity
  8
cotas
370
    25
  0
ENDBLK
  5
76D
330
76A
100
AcDbEntity
  8
0
100
AcDbBlockEnd
  0
BLOCK
  5
774
330
772
100
AcDbEntity
  8
0
100
AcDbBlockBegin
  2
block 224
 70
     0
 71
     0
 10
0.0
 20
0.0
 30
0.0
  3
block 224
  1

  0
POLYLINE
  5
776
330
772
100
AcDbEntity
  8
cotas
 62
   253
420
 11382189
370
    25
100
AcDb2dPolyline
 66
     1
 10
0.0
 20
0.0
 30
0.0
  0
VERTEX
  5
777
330
776
100
AcDbEntity
  8
cotas
 62
   253
420
 11382189
370
    25
100
AcDbVertex
100
AcDb2dVertex
 10
79.72743324829732
 20
53.11097003880559
 30
0.0
  0
VERTEX
  5
778
330
776
100
AcDbEntity
  8
cotas
 62
   253
420
 11382189
370
    25
100
AcDbVertex
100
AcDb2dVertex
 10
79.72743324829732
 20
46.20837672455902
 30
0.0
  0
SEQEND
  5
779
330
776
100
AcDbEntity
  8
cotas
370
    25
  0
ENDBLK
  5
775
330
772
100
AcDbEntity
  8
0
100
AcDbBlockEnd
  0
BLOCK
  5
77C
330
77A
100
AcDbEntity
  8
0
100
AcDbBlockBegin
  2
block 225
 70
     0
 71
     0
 10
0.0
 20
0.0
 30
0.0
  3
block 225
  1

  0
POLYLINE
  5
77E
330
77A
100
AcDbEntity
  8
cotas
 62
   253
420
 11382189
370
    25
100
AcDb2dPolyline
 66
     1
 10
0.0
 20
0.0
 30
0.0
  0
VERTEX
  5
77F
330
77E
100
AcDbEntity
  8
cotas
 62
   253
420
 11382189
370
    25
100
AcDbVertex
100
AcDb2dVertex
 10
79.72743324829732
 20
31.15675454950248
 30
0.0
  0
VERTEX
  5
780
330
77E
100
AcDbEntity
  8
cotas
 62
   253
420
 11382189
370
    25
100
AcDbVertex
100
AcDb2dVertex
 10
79.72743324829732
 20
38.06003688284611
 30
0.0
  0
SEQEND
  5
781
330
77E
100
AcDbEntity
  8
cotas
370
    25
  0
ENDBLK
  5
77D
330
77A
100
AcDbEntity
  8
0
100
AcDbBlockEnd
  0
BLOCK
  5
784
330
782
100
AcDbEntity
  8
0
100
AcDbBlockBegin
  2
block 226
 70
     0
 71
     0
 10
0.0
 20
0.0
 30
0.0
  3
block 226
  1

  0
POLYLINE
  5
786
330
782
100
AcDbEntity
  8
cotas
370
     0
100
AcDb2dPolyline
 66
     1
 10
0.0
 20
0.0
 30
0.0
  0
VERTEX
  5
787
330
786
100
AcDbEntity
  8
cotas
370
     0
100
AcDbVertex
100
AcDb2dVertex
 10
79.41255152094547
 20
53.11097003880559
 30
0.0
  0
VERTEX
  5
788
330
786
100
AcDbEntity
  8
cotas
370
     0
100
AcDbVertex
100
AcDb2dVertex
 10
80.04197046610062
 20
53.11097003880559
 30
0.0
  0
VERTEX
  5
789
330
786
100
AcDbEntity
  8
cotas
370
     0
100
AcDbVertex
100
AcDb2dVertex
 10
79.72743324829732
 20
54.9988823647225
 30
0.0
  0
VERTEX
  5
78A
330
786
100
AcDbEntity
  8
cotas
370
     0
100
AcDbVertex
100
AcDb2dVertex
 10
79.41255152094547
 20
53.11097003880559
 30
0.0
  0
SEQEND
  5
78B
330
786
100
AcDbEntity
  8
cotas
370
     0
  0
HATCH
  5
78C
330
782
100
AcDbEntity
  8
cotas
 62
   253
420
 11382189
100
AcDbHatch
 10
0.0
 20
0.0
 30
0.0
210
0.0
220
0.0
230
1.0
  2
SOLID
 70
     1
 71
     0
 91
        1
 92
        1
 93
        3
 72
     1
 10
79.41255152094547
 20
53.11097003880559
 11
80.04197046610062
 21
53.11097003880559
 72
     1
 10
80.04197046610062
 20
53.11097003880559
 11
79.72743324829732
 21
54.9988823647225
 72
     1
 10
79.72743324829732
 20
54.9988823647225
 11
79.41255152094547
 21
53.11097003880559
 97
        0
 75
     2
 76
     1
 98
        0
  0
ENDBLK
  5
785
330
782
100
AcDbEntity
  8
0
100
AcDbBlockEnd
  0
BLOCK
  5
78F
330
78D
100
AcDbEntity
  8
0
100
AcDbBlockBegin
  2
block 227
 70
     0
 71
     0
 10
0.0
 20
0.0
 30
0.0
  3
block 227
  1

  0
POLYLINE
  5
791
330
78D
100
AcDbEntity
  8
cotas
370
     0
100
AcDb2dPolyline
 66
     1
 10
0.0
 20
0.0
 30
0.0
  0
VERTEX
  5
792
330
791
100
AcDbEntity
  8
cotas
370
     0
100
AcDbVertex
100
AcDb2dVertex
 10
79.41255152094547
 20
31.15675454950248
 30
0.0
  0
VERTEX
  5
793
330
791
100
AcDbEntity
  8
cotas
370
     0
100
AcDbVertex
100
AcDb2dVertex
 10
80.04197046610062
 20
31.15675454950248
 30
0.0
  0
VERTEX
  5
794
330
791
100
AcDbEntity
  8
cotas
370
     0
100
AcDbVertex
100
AcDb2dVertex
 10
79.72743324829732
 20
29.26884222358557
 30
0.0
  0
VERTEX
  5
795
330
791
100
AcDbEntity
  8
cotas
370
     0
100
AcDbVertex
100
AcDb2dVertex
 10
79.41255152094547
 20
31.15675454950248
 30
0.0
  0
SEQEND
  5
796
330
791
100
AcDbEntity
  8
cotas
370
     0
  0
HATCH
  5
797
330
78D
100
AcDbEntity
  8
cotas
 62
   253
420
 11382189
100
AcDbHatch
 10
0.0
 20
0.0
 30
0.0
210
0.0
220
0.0
230
1.0
  2
SOLID
 70
     1
 71
     0
 91
        1
 92
        1
 93
        3
 72
     1
 10
79.41255152094547
 20
31.15675454950248
 11
80.04197046610062
 21
31.15675454950248
 72
     1
 10
80.04197046610062
 20
31.15675454950248
 11
79.72743324829732
 21
29.26884222358557
 72
     1
 10
79.72743324829732
 20
29.26884222358557
 11
79.41255152094547
 21
31.15675454950248
 97
        0
 75
     2
 76
     1
 98
        0
  0
ENDBLK
  5
790
330
78D
100
AcDbEntity
  8
0
100
AcDbBlockEnd
  0
BLOCK
  5
79A
330
798
100
AcDbEntity
  8
0
100
AcDbBlockBegin
  2
block 228
 70
     0
 71
     0
 10
0.0
 20
0.0
 30
0.0
  3
block 228
  1

  0
MTEXT
  5
79C
330
798
100
AcDbEntity
  8
cotas
 62
   253
420
 11382189
100
AcDbMText
 10
76.47319605293032
 20
40.80302190820203
 30
0.0
 40
2.697094805890905
 41
0.0
 71
     7
 72
     1
  1
\fArial|b0|i0|c0|p34;\W1;100
 73
     1
 44
1.0
  0
ENDBLK
  5
79B
330
798
100
AcDbEntity
  8
0
100
AcDbBlockEnd
  0
BLOCK
  5
79F
330
79D
100
AcDbEntity
  8
0
100
AcDbBlockBegin
  2
block 229
 70
     0
 71
     0
 10
0.0
 20
0.0
 30
0.0
  3
block 229
  1

  0
POLYLINE
  5
7A1
330
79D
100
AcDbEntity
  8
cotas
 62
   253
420
 11382189
370
    25
100
AcDb2dPolyline
 66
     1
 10
0.0
 20
0.0
 30
0.0
  0
VERTEX
  5
7A2
330
7A1
100
AcDbEntity
  8
cotas
 62
   253
420
 11382189
370
    25
100
AcDbVertex
100
AcDb2dVertex
 10
41.31392956866458
 20
54.9988823647225
 30
0.0
  0
VERTEX
  5
7A3
330
7A1
100
AcDbEntity
  8
cotas
 62
   253
420
 11382189
370
    25
100
AcDbVertex
100
AcDb2dVertex
 10
41.31392956866458
 20
54.9988823647225
 30
0.0
  0
SEQEND
  5
7A4
330
7A1
100
AcDbEntity
  8
cotas
370
    25
  0
ENDBLK
  5
7A0
330
79D
100
AcDbEntity
  8
0
100
AcDbBlockEnd
  0
BLOCK
  5
7A7
330
7A5
100
AcDbEntity
  8
0
100
AcDbBlockBegin
  2
block 230
 70
     0
 71
     0
 10
0.0
 20
0.0
 30
0.0
  3
block 230
  1

  0
POLYLINE
  5
7A9
330
7A5
100
AcDbEntity
  8
cotas
 62
   253
420
 11382189
370
    25
100
AcDb2dPolyline
 66
     1
 10
0.0
 20
0.0
 30
0.0
  0
VERTEX
  5
7AA
330
7A9
100
AcDbEntity
  8
cotas
 62
   253
420
 11382189
370
    25
100
AcDbVertex
100
AcDb2dVertex
 10
41.43536918451963
 20
29.26884222358557
 30
0.0
  0
VERTEX
  5
7AB
330
7A9
100
AcDbEntity
  8
cotas
 62
   253
420
 11382189
370
    25
100
AcDbVertex
100
AcDb2dVertex
 10
41.43536918451963
 20
29.26884222358557
 30
0.0
  0
SEQEND
  5
7AC
330
7A9
100
AcDbEntity
  8
cotas
370
    25
  0
ENDBLK
  5
7A8
330
7A5
100
AcDbEntity
  8
0
100
AcDbBlockEnd
  0
BLOCK
  5
7AF
330
7AD
100
AcDbEntity
  8
0
100
AcDbBlockBegin
  2
block 231
 70
     0
 71
     0
 10
0.0
 20
0.0
 30
0.0
  3
block 231
  1

  0
POLYLINE
  5
7B1
330
7AD
100
AcDbEntity
  8
cotas
 62
   253
420
 11382189
370
    25
100
AcDb2dPolyline
 66
     1
 10
0.0
 20
0.0
 30
0.0
  0
VERTEX
  5
7B2
330
7B1
100
AcDbEntity
  8
cotas
 62
   253
420
 11382189
370
    25
100
AcDbVertex
100
AcDb2dVertex
 10
79.72743324829732
 20
29.26884222358557
 30
0.0
  0
VERTEX
  5
7B3
330
7B1
100
AcDbEntity
  8
cotas
 62
   253
420
 11382189
370
    25
100
AcDbVertex
100
AcDb2dVertex
 10
79.72743324829732
 20
29.26884222358557
 30
0.0
  0
SEQEND
  5
7B4
330
7B1
100
AcDbEntity
  8
cotas
370
    25
  0
ENDBLK
  5
7B0
330
7AD
100
AcDbEntity
  8
0
100
AcDbBlockEnd
  0
BLOCK
  5
7B7
330
7B5
100
AcDbEntity
  8
0
100
AcDbBlockBegin
  2
block 232
 70
     0
 71
     0
 10
0.0
 20
0.0
 30
0.0
  3
block 232
  1

  0
INSERT
  5
7BA
330
7B5
100
AcDbEntity
  8
cotas
100
AcDbBlockReference
  2
block 233
 10
0.0
 20
0.0
 30
0.0
  0
INSERT
  5
7C2
330
7B5
100
AcDbEntity
  8
cotas
100
AcDbBlockReference
  2
block 234
 10
0.0
 20
0.0
 30
0.0
  0
INSERT
  5
7CA
330
7B5
100
AcDbEntity
  8
cotas
100
AcDbBlockReference
  2
block 235
 10
0.0
 20
0.0
 30
0.0
  0
INSERT
  5
7D2
330
7B5
100
AcDbEntity
  8
cotas
100
AcDbBlockReference
  2
block 236
 10
0.0
 20
0.0
 30
0.0
  0
INSERT
  5
7DA
330
7B5
100
AcDbEntity
  8
cotas
100
AcDbBlockReference
  2
block 237
 10
0.0
 20
0.0
 30
0.0
  0
INSERT
  5
7E5
330
7B5
100
AcDbEntity
  8
cotas
100
AcDbBlockReference
  2
block 238
 10
0.0
 20
0.0
 30
0.0
  0
INSERT
  5
7F0
330
7B5
100
AcDbEntity
  8
cotas
100
AcDbBlockReference
  2
block 239
 10
0.0
 20
0.0
 30
0.0
  0
INSERT
  5
7F5
330
7B5
100
AcDbEntity
  8
cotas
100
AcDbBlockReference
  2
block 240
 10
0.0
 20
0.0
 30
0.0
  0
INSERT
  5
7FD
330
7B5
100
AcDbEntity
  8
cotas
100
AcDbBlockReference
  2
block 241
 10
0.0
 20
0.0
 30
0.0
  0
INSERT
  5
805
330
7B5
100
AcDbEntity
  8
cotas
100
AcDbBlockReference
  2
block 242
 10
0.0
 20
0.0
 30
0.0
  0
ENDBLK
  5
7B8
330
7B5
100
AcDbEntity
  8
0
100
AcDbBlockEnd
  0
BLOCK
  5
7BB
330
7B9
100
AcDbEntity
  8
0
100
AcDbBlockBegin
  2
block 233
 70
     0
 71
     0
 10
0.0
 20
0.0
 30
0.0
  3
block 233
  1

  0
POLYLINE
  5
7BD
330
7B9
100
AcDbEntity
  8
cotas
 62
   253
420
 11382189
370
    25
100
AcDb2dPolyline
 66
     1
 10
0.0
 20
0.0
 30
0.0
  0
VERTEX
  5
7BE
330
7BD
100
AcDbEntity
  8
cotas
 62
   253
420
 11382189
370
    25
100
AcDbVertex
100
AcDb2dVertex
 10
27.69357231295508
 20
54.9988823647225
 30
0.0
  0
VERTEX
  5
7BF
330
7BD
100
AcDbEntity
  8
cotas
 62
   253
420
 11382189
370
    25
100
AcDbVertex
100
AcDb2dVertex
 10
19.6208523171434
 20
54.9988823647225
 30
0.0
  0
SEQEND
  5
7C0
330
7BD
100
AcDbEntity
  8
cotas
370
    25
  0
ENDBLK
  5
7BC
330
7B9
100
AcDbEntity
  8
0
100
AcDbBlockEnd
  0
BLOCK
  5
7C3
330
7C1
100
AcDbEntity
  8
0
100
AcDbBlockBegin
  2
block 234
 70
     0
 71
     0
 10
0.0
 20
0.0
 30
0.0
  3
block 234
  1

  0
POLYLINE
  5
7C5
330
7C1
100
AcDbEntity
  8
cotas
 62
   253
420
 11382189
370
    25
100
AcDb2dPolyline
 66
     1
 10
0.0
 20
0.0
 30
0.0
  0
VERTEX
  5
7C6
330
7C5
100
AcDbEntity
  8
cotas
 62
   253
420
 11382189
370
    25
100
AcDbVertex
100
AcDb2dVertex
 10
31.45596109239643
 20
11.32299533137064
 30
0.0
  0
VERTEX
  5
7C7
330
7C5
100
AcDbEntity
  8
cotas
 62
   253
420
 11382189
370
    25
100
AcDbVertex
100
AcDb2dVertex
 10
19.6208523171434
 20
11.32299533137064
 30
0.0
  0
SEQEND
  5
7C8
330
7C5
100
AcDbEntity
  8
cotas
370
    25
  0
ENDBLK
  5
7C4
330
7C1
100
AcDbEntity
  8
0
100
AcDbBlockEnd
  0
BLOCK
  5
7CB
330
7C9
100
AcDbEntity
  8
0
100
AcDbBlockBegin
  2
block 235
 70
     0
 71
     0
 10
0.0
 20
0.0
 30
0.0
  3
block 235
  1

  0
POLYLINE
  5
7CD
330
7C9
100
AcDbEntity
  8
cotas
 62
   253
420
 11382189
370
    25
100
AcDb2dPolyline
 66
     1
 10
0.0
 20
0.0
 30
0.0
  0
VERTEX
  5
7CE
330
7CD
100
AcDbEntity
  8
cotas
 62
   253
420
 11382189
370
    25
100
AcDbVertex
100
AcDb2dVertex
 10
20.96943494484445
 20
53.11097003880559
 30
0.0
  0
VERTEX
  5
7CF
330
7CD
100
AcDbEntity
  8
cotas
 62
   253
420
 11382189
370
    25
100
AcDbVertex
100
AcDb2dVertex
 10
20.96943494484445
 20
37.2352810236773
 30
0.0
  0
SEQEND
  5
7D0
330
7CD
100
AcDbEntity
  8
cotas
370
    25
  0
ENDBLK
  5
7CC
330
7C9
100
AcDbEntity
  8
0
100
AcDbBlockEnd
  0
BLOCK
  5
7D3
330
7D1
100
AcDbEntity
  8
0
100
AcDbBlockBegin
  2
block 236
 70
     0
 71
     0
 10
0.0
 20
0.0
 30
0.0
  3
block 236
  1

  0
POLYLINE
  5
7D5
330
7D1
100
AcDbEntity
  8
cotas
 62
   253
420
 11382189
370
    25
100
AcDb2dPolyline
 66
     1
 10
0.0
 20
0.0
 30
0.0
  0
VERTEX
  5
7D6
330
7D5
100
AcDbEntity
  8
cotas
 62
   253
420
 11382189
370
    25
100
AcDbVertex
100
AcDb2dVertex
 10
20.96943494484445
 20
13.21090765728755
 30
0.0
  0
VERTEX
  5
7D7
330
7D5
100
AcDbEntity
  8
cotas
 62
   253
420
 11382189
370
    25
100
AcDbVertex
100
AcDb2dVertex
 10
20.96943494484445
 20
29.08694118196438
 30
0.0
  0
SEQEND
  5
7D8
330
7D5
100
AcDbEntity
  8
cotas
370
    25
  0
ENDBLK
  5
7D4
330
7D1
100
AcDbEntity
  8
0
100
AcDbBlockEnd
  0
BLOCK
  5
7DB
330
7D9
100
AcDbEntity
  8
0
100
AcDbBlockBegin
  2
block 237
 70
     0
 71
     0
 10
0.0
 20
0.0
 30
0.0
  3
block 237
  1

  0
POLYLINE
  5
7DD
330
7D9
100
AcDbEntity
  8
cotas
370
     0
100
AcDb2dPolyline
 66
     1
 10
0.0
 20
0.0
 30
0.0
  0
VERTEX
  5
7DE
330
7DD
100
AcDbEntity
  8
cotas
370
     0
100
AcDbVertex
100
AcDb2dVertex
 10
20.65472547226688
 20
53.11097003880559
 30
0.0
  0
VERTEX
  5
7DF
330
7DD
100
AcDbEntity
  8
cotas
370
     0
100
AcDbVertex
100
AcDb2dVertex
 10
21.28397216264776
 20
53.11097003880559
 30
0.0
  0
VERTEX
  5
7E0
330
7DD
100
AcDbEntity
  8
cotas
370
     0
100
AcDbVertex
100
AcDb2dVertex
 10
20.96943494484445
 20
54.9988823647225
 30
0.0
  0
VERTEX
  5
7E1
330
7DD
100
AcDbEntity
  8
cotas
370
     0
100
AcDbVertex
100
AcDb2dVertex
 10
20.65472547226688
 20
53.11097003880559
 30
0.0
  0
SEQEND
  5
7E2
330
7DD
100
AcDbEntity
  8
cotas
370
     0
  0
HATCH
  5
7E3
330
7D9
100
AcDbEntity
  8
cotas
 62
   253
420
 11382189
100
AcDbHatch
 10
0.0
 20
0.0
 30
0.0
210
0.0
220
0.0
230
1.0
  2
SOLID
 70
     1
 71
     0
 91
        1
 92
        1
 93
        3
 72
     1
 10
20.65472547226688
 20
53.11097003880559
 11
21.28397216264776
 21
53.11097003880559
 72
     1
 10
21.28397216264776
 20
53.11097003880559
 11
20.96943494484445
 21
54.9988823647225
 72
     1
 10
20.96943494484445
 20
54.9988823647225
 11
20.65472547226688
 21
53.11097003880559
 97
        0
 75
     2
 76
     1
 98
        0
  0
ENDBLK
  5
7DC
330
7D9
100
AcDbEntity
  8
0
100
AcDbBlockEnd
  0
BLOCK
  5
7E6
330
7E4
100
AcDbEntity
  8
0
100
AcDbBlockBegin
  2
block 238
 70
     0
 71
     0
 10
0.0
 20
0.0
 30
0.0
  3
block 238
  1

  0
POLYLINE
  5
7E8
330
7E4
100
AcDbEntity
  8
cotas
370
     0
100
AcDb2dPolyline
 66
     1
 10
0.0
 20
0.0
 30
0.0
  0
VERTEX
  5
7E9
330
7E8
100
AcDbEntity
  8
cotas
370
     0
100
AcDbVertex
100
AcDb2dVertex
 10
20.65472547226688
 20
13.21090765728755
 30
0.0
  0
VERTEX
  5
7EA
330
7E8
100
AcDbEntity
  8
cotas
370
     0
100
AcDbVertex
100
AcDb2dVertex
 10
21.28397216264776
 20
13.21090765728755
 30
0.0
  0
VERTEX
  5
7EB
330
7E8
100
AcDbEntity
  8
cotas
370
     0
100
AcDbVertex
100
AcDb2dVertex
 10
20.96943494484445
 20
11.32299533137064
 30
0.0
  0
VERTEX
  5
7EC
330
7E8
100
AcDbEntity
  8
cotas
370
     0
100
AcDbVertex
100
AcDb2dVertex
 10
20.65472547226688
 20
13.21090765728755
 30
0.0
  0
SEQEND
  5
7ED
330
7E8
100
AcDbEntity
  8
cotas
370
     0
  0
HATCH
  5
7EE
330
7E4
100
AcDbEntity
  8
cotas
 62
   253
420
 11382189
100
AcDbHatch
 10
0.0
 20
0.0
 30
0.0
210
0.0
220
0.0
230
1.0
  2
SOLID
 70
     1
 71
     0
 91
        1
 92
        1
 93
        3
 72
     1
 10
20.65472547226688
 20
13.21090765728755
 11
21.28397216264776
 21
13.21090765728755
 72
     1
 10
21.28397216264776
 20
13.21090765728755
 11
20.96943494484445
 21
11.32299533137064
 72
     1
 10
20.96943494484445
 20
11.32299533137064
 11
20.65472547226688
 21
13.21090765728755
 97
        0
 75
     2
 76
     1
 98
        0
  0
ENDBLK
  5
7E7
330
7E4
100
AcDbEntity
  8
0
100
AcDbBlockEnd
  0
BLOCK
  5
7F1
330
7EF
100
AcDbEntity
  8
0
100
AcDbBlockBegin
  2
block 239
 70
     0
 71
     0
 10
0.0
 20
0.0
 30
0.0
  3
block 239
  1

  0
MTEXT
  5
7F3
330
7EF
100
AcDbEntity
  8
cotas
 62
   253
420
 11382189
100
AcDbMText
 10
17.89606526245307
 20
31.83027071686882
 30
0.0
 40
2.697094805890905
 41
0.0
 71
     7
 72
     1
  1
\fArial|b0|i0|c0|p34;\W1;420
 73
     1
 44
1.0
  0
ENDBLK
  5
7F2
330
7EF
100
AcDbEntity
  8
0
100
AcDbBlockEnd
  0
BLOCK
  5
7F6
330
7F4
100
AcDbEntity
  8
0
100
AcDbBlockBegin
  2
block 240
 70
     0
 71
     0
 10
0.0
 20
0.0
 30
0.0
  3
block 240
  1

  0
POLYLINE
  5
7F8
330
7F4
100
AcDbEntity
  8
cotas
 62
   253
420
 11382189
370
    25
100
AcDb2dPolyline
 66
     1
 10
0.0
 20
0.0
 30
0.0
  0
VERTEX
  5
7F9
330
7F8
100
AcDbEntity
  8
cotas
 62
   253
420
 11382189
370
    25
100
AcDbVertex
100
AcDb2dVertex
 10
30.39073756835718
 20
54.9988823647225
 30
0.0
  0
VERTEX
  5
7FA
330
7F8
100
AcDbEntity
  8
cotas
 62
   253
420
 11382189
370
    25
100
AcDbVertex
100
AcDb2dVertex
 10
30.39073756835718
 20
54.9988823647225
 30
0.0
  0
SEQEND
  5
7FB
330
7F8
100
AcDbEntity
  8
cotas
370
    25
  0
ENDBLK
  5
7F7
330
7F4
100
AcDbEntity
  8
0
100
AcDbBlockEnd
  0
BLOCK
  5
7FE
330
7FC
100
AcDbEntity
  8
0
100
AcDbBlockBegin
  2
block 241
 70
     0
 71
     0
 10
0.0
 20
0.0
 30
0.0
  3
block 241
  1

  0
POLYLINE
  5
800
330
7FC
100
AcDbEntity
  8
cotas
 62
   253
420
 11382189
370
    25
100
AcDb2dPolyline
 66
     1
 10
0.0
 20
0.0
 30
0.0
  0
VERTEX
  5
801
330
800
100
AcDbEntity
  8
cotas
 62
   253
420
 11382189
370
    25
100
AcDbVertex
100
AcDb2dVertex
 10
34.15295409302426
 20
11.32299533137064
 30
0.0
  0
VERTEX
  5
802
330
800
100
AcDbEntity
  8
cotas
 62
   253
420
 11382189
370
    25
100
AcDbVertex
100
AcDb2dVertex
 10
34.15295409302426
 20
11.32299533137064
 30
0.0
  0
SEQEND
  5
803
330
800
100
AcDbEntity
  8
cotas
370
    25
  0
ENDBLK
  5
7FF
330
7FC
100
AcDbEntity
  8
0
100
AcDbBlockEnd
  0
BLOCK
  5
806
330
804
100
AcDbEntity
  8
0
100
AcDbBlockBegin
  2
block 242
 70
     0
 71
     0
 10
0.0
 20
0.0
 30
0.0
  3
block 242
  1

  0
POLYLINE
  5
808
330
804
100
AcDbEntity
  8
cotas
 62
   253
420
 11382189
370
    25
100
AcDb2dPolyline
 66
     1
 10
0.0
 20
0.0
 30
0.0
  0
VERTEX
  5
809
330
808
100
AcDbEntity
  8
cotas
 62
   253
420
 11382189
370
    25
100
AcDbVertex
100
AcDb2dVertex
 10
20.96943494484445
 20
11.32299533137064
 30
0.0
  0
VERTEX
  5
80A
330
808
100
AcDbEntity
  8
cotas
 62
   253
420
 11382189
370
    25
100
AcDbVertex
100
AcDb2dVertex
 10
20.96943494484445
 20
11.32299533137064
 30
0.0
  0
SEQEND
  5
80B
330
808
100
AcDbEntity
  8
cotas
370
    25
  0
ENDBLK
  5
807
330
804
100
AcDbEntity
  8
0
100
AcDbBlockEnd
  0
BLOCK
  5
80E
330
80C
100
AcDbEntity
  8
0
100
AcDbBlockBegin
  2
block 243
 70
     0
 71
     0
 10
0.0
 20
0.0
 30
0.0
  3
block 243
  1

  0
INSERT
  5
811
330
80C
100
AcDbEntity
  8
cotas
100
AcDbBlockReference
  2
block 244
 10
0.0
 20
0.0
 30
0.0
  0
INSERT
  5
819
330
80C
100
AcDbEntity
  8
cotas
100
AcDbBlockReference
  2
block 245
 10
0.0
 20
0.0
 30
0.0
  0
INSERT
  5
821
330
80C
100
AcDbEntity
  8
cotas
100
AcDbBlockReference
  2
block 246
 10
0.0
 20
0.0
 30
0.0
  0
INSERT
  5
829
330
80C
100
AcDbEntity
  8
cotas
100
AcDbBlockReference
  2
block 247
 10
0.0
 20
0.0
 30
0.0
  0
INSERT
  5
831
330
80C
100
AcDbEntity
  8
cotas
100
AcDbBlockReference
  2
block 248
 10
0.0
 20
0.0
 30
0.0
  0
INSERT
  5
83C
330
80C
100
AcDbEntity
  8
cotas
100
AcDbBlockReference
  2
block 249
 10
0.0
 20
0.0
 30
0.0
  0
INSERT
  5
847
330
80C
100
AcDbEntity
  8
cotas
100
AcDbBlockReference
  2
block 250
 10
0.0
 20
0.0
 30
0.0
  0
INSERT
  5
84C
330
80C
100
AcDbEntity
  8
cotas
100
AcDbBlockReference
  2
block 251
 10
0.0
 20
0.0
 30
0.0
  0
INSERT
  5
854
330
80C
100
AcDbEntity
  8
cotas
100
AcDbBlockReference
  2
block 252
 10
0.0
 20
0.0
 30
0.0
  0
INSERT
  5
85C
330
80C
100
AcDbEntity
  8
cotas
100
AcDbBlockReference
  2
block 253
 10
0.0
 20
0.0
 30
0.0
  0
ENDBLK
  5
80F
330
80C
100
AcDbEntity
  8
0
100
AcDbBlockEnd
  0
BLOCK
  5
812
330
810
100
AcDbEntity
  8
0
100
AcDbBlockBegin
  2
block 244
 70
     0
 71
     0
 10
0.0
 20
0.0
 30
0.0
  3
block 244
  1

  0
POLYLINE
  5
814
330
810
100
AcDbEntity
  8
cotas
 62
   253
420
 11382189
370
    25
100
AcDb2dPolyline
 66
     1
 10
0.0
 20
0.0
 30
0.0
  0
VERTEX
  5
815
330
814
100
AcDbEntity
  8
cotas
 62
   253
420
 11382189
370
    25
100
AcDbVertex
100
AcDb2dVertex
 10
31.9685913006016
 20
45.74811196772964
 30
0.0
  0
VERTEX
  5
816
330
814
100
AcDbEntity
  8
cotas
 62
   253
420
 11382189
370
    25
100
AcDbVertex
100
AcDb2dVertex
 10
31.9685913006016
 20
38.87170137917096
 30
0.0
  0
SEQEND
  5
817
330
814
100
AcDbEntity
  8
cotas
370
    25
  0
ENDBLK
  5
813
330
810
100
AcDbEntity
  8
0
100
AcDbBlockEnd
  0
BLOCK
  5
81A
330
818
100
AcDbEntity
  8
0
100
AcDbBlockBegin
  2
block 245
 70
     0
 71
     0
 10
0.0
 20
0.0
 30
0.0
  3
block 245
  1

  0
POLYLINE
  5
81C
330
818
100
AcDbEntity
  8
cotas
 62
   253
420
 11382189
370
    25
100
AcDb2dPolyline
 66
     1
 10
0.0
 20
0.0
 30
0.0
  0
VERTEX
  5
81D
330
81C
100
AcDbEntity
  8
cotas
 62
   253
420
 11382189
370
    25
100
AcDbVertex
100
AcDb2dVertex
 10
39.73624809119441
 20
45.74811196772964
 30
0.0
  0
VERTEX
  5
81E
330
81C
100
AcDbEntity
  8
cotas
 62
   253
420
 11382189
370
    25
100
AcDbVertex
100
AcDb2dVertex
 10
39.73624809119441
 20
38.87170137917096
 30
0.0
  0
SEQEND
  5
81F
330
81C
100
AcDbEntity
  8
cotas
370
    25
  0
ENDBLK
  5
81B
330
818
100
AcDbEntity
  8
0
100
AcDbBlockEnd
  0
BLOCK
  5
822
330
820
100
AcDbEntity
  8
0
100
AcDbBlockBegin
  2
block 246
 70
     0
 71
     0
 10
0.0
 20
0.0
 30
0.0
  3
block 246
  1

  0
POLYLINE
  5
824
330
820
100
AcDbEntity
  8
cotas
 62
   253
420
 11382189
370
    25
100
AcDb2dPolyline
 66
     1
 10
0.0
 20
0.0
 30
0.0
  0
VERTEX
  5
825
330
824
100
AcDbEntity
  8
cotas
 62
   253
420
 11382189
370
    25
100
AcDbVertex
100
AcDb2dVertex
 10
33.85650362651852
 20
40.22045626164628
 30
0.0
  0
VERTEX
  5
826
330
824
100
AcDbEntity
  8
cotas
 62
   253
420
 11382189
370
    25
100
AcDbVertex
100
AcDb2dVertex
 10
37.84816351050324
 20
40.22045626164628
 30
0.0
  0
SEQEND
  5
827
330
824
100
AcDbEntity
  8
cotas
370
    25
  0
ENDBLK
  5
823
330
820
100
AcDbEntity
  8
0
100
AcDbBlockEnd
  0
BLOCK
  5
82A
330
828
100
AcDbEntity
  8
0
100
AcDbBlockBegin
  2
block 247
 70
     0
 71
     0
 10
0.0
 20
0.0
 30
0.0
  3
block 247
  1

  0
POLYLINE
  5
82C
330
828
100
AcDbEntity
  8
cotas
 62
   253
420
 11382189
370
    25
100
AcDb2dPolyline
 66
     1
 10
0.0
 20
0.0
 30
0.0
  0
VERTEX
  5
82D
330
82C
100
AcDbEntity
  8
cotas
 62
   253
420
 11382189
370
    25
100
AcDbVertex
100
AcDb2dVertex
 10
39.73624809119441
 20
40.22045626164628
 30
0.0
  0
VERTEX
  5
82E
330
82C
100
AcDbEntity
  8
cotas
 62
   253
420
 11382189
370
    25
100
AcDbVertex
100
AcDb2dVertex
 10
42.97911647146008
 20
40.22045626164628
 30
0.0
  0
SEQEND
  5
82F
330
82C
100
AcDbEntity
  8
cotas
370
    25
  0
ENDBLK
  5
82B
330
828
100
AcDbEntity
  8
0
100
AcDbBlockEnd
  0
BLOCK
  5
832
330
830
100
AcDbEntity
  8
0
100
AcDbBlockBegin
  2
block 248
 70
     0
 71
     0
 10
0.0
 20
0.0
 30
0.0
  3
block 248
  1

  0
POLYLINE
  5
834
330
830
100
AcDbEntity
  8
cotas
370
     0
100
AcDb2dPolyline
 66
     1
 10
0.0
 20
0.0
 30
0.0
  0
VERTEX
  5
835
330
834
100
AcDbEntity
  8
cotas
370
     0
100
AcDbVertex
100
AcDb2dVertex
 10
33.85650362651852
 20
40.53499347944959
 30
0.0
  0
VERTEX
  5
836
330
834
100
AcDbEntity
  8
cotas
370
     0
100
AcDbVertex
100
AcDb2dVertex
 10
33.85650362651852
 20
39.90591904384296
 30
0.0
  0
VERTEX
  5
837
330
834
100
AcDbEntity
  8
cotas
370
     0
100
AcDbVertex
100
AcDb2dVertex
 10
31.9685913006016
 20
40.22045626164628
 30
0.0
  0
VERTEX
  5
838
330
834
100
AcDbEntity
  8
cotas
370
     0
100
AcDbVertex
100
AcDb2dVertex
 10
33.85650362651852
 20
40.53499347944959
 30
0.0
  0
SEQEND
  5
839
330
834
100
AcDbEntity
  8
cotas
370
     0
  0
HATCH
  5
83A
330
830
100
AcDbEntity
  8
cotas
 62
   253
420
 11382189
100
AcDbHatch
 10
0.0
 20
0.0
 30
0.0
210
0.0
220
0.0
230
1.0
  2
SOLID
 70
     1
 71
     0
 91
        1
 92
        1
 93
        3
 72
     1
 10
33.85650362651852
 20
40.53499347944959
 11
33.85650362651852
 21
39.90591904384296
 72
     1
 10
33.85650362651852
 20
39.90591904384296
 11
31.9685913006016
 21
40.22045626164628
 72
     1
 10
31.9685913006016
 20
40.22045626164628
 11
33.85650362651852
 21
40.53499347944959
 97
        0
 75
     2
 76
     1
 98
        0
  0
ENDBLK
  5
833
330
830
100
AcDbEntity
  8
0
100
AcDbBlockEnd
  0
BLOCK
  5
83D
330
83B
100
AcDbEntity
  8
0
100
AcDbBlockBegin
  2
block 249
 70
     0
 71
     0
 10
0.0
 20
0.0
 30
0.0
  3
block 249
  1

  0
POLYLINE
  5
83F
330
83B
100
AcDbEntity
  8
cotas
370
     0
100
AcDb2dPolyline
 66
     1
 10
0.0
 20
0.0
 30
0.0
  0
VERTEX
  5
840
330
83F
100
AcDbEntity
  8
cotas
370
     0
100
AcDbVertex
100
AcDb2dVertex
 10
37.84816351050324
 20
40.53499347944959
 30
0.0
  0
VERTEX
  5
841
330
83F
100
AcDbEntity
  8
cotas
370
     0
100
AcDbVertex
100
AcDb2dVertex
 10
37.84816351050324
 20
39.90591904384296
 30
0.0
  0
VERTEX
  5
842
330
83F
100
AcDbEntity
  8
cotas
370
     0
100
AcDbVertex
100
AcDb2dVertex
 10
39.73624809119441
 20
40.22045626164628
 30
0.0
  0
VERTEX
  5
843
330
83F
100
AcDbEntity
  8
cotas
370
     0
100
AcDbVertex
100
AcDb2dVertex
 10
37.84816351050324
 20
40.53499347944959
 30
0.0
  0
SEQEND
  5
844
330
83F
100
AcDbEntity
  8
cotas
370
     0
  0
HATCH
  5
845
330
83B
100
AcDbEntity
  8
cotas
 62
   253
420
 11382189
100
AcDbHatch
 10
0.0
 20
0.0
 30
0.0
210
0.0
220
0.0
230
1.0
  2
SOLID
 70
     1
 71
     0
 91
        1
 92
        1
 93
        3
 72
     1
 10
37.84816351050324
 20
40.53499347944959
 11
37.84816351050324
 21
39.90591904384296
 72
     1
 10
37.84816351050324
 20
39.90591904384296
 11
39.73624809119441
 21
40.22045626164628
 72
     1
 10
39.73624809119441
 20
40.22045626164628
 11
37.84816351050324
 21
40.53499347944959
 97
        0
 75
     2
 76
     1
 98
        0
  0
ENDBLK
  5
83E
330
83B
100
AcDbEntity
  8
0
100
AcDbBlockEnd
  0
BLOCK
  5
848
330
846
100
AcDbEntity
  8
0
100
AcDbBlockBegin
  2
block 250
 70
     0
 71
     0
 10
0.0
 20
0.0
 30
0.0
  3
block 250
  1

  0
MTEXT
  5
84A
330
846
100
AcDbEntity
  8
cotas
 62
   253
420
 11382189
100
AcDbMText
 10
44.08481986745102
 20
38.87755804149589
 30
0.0
 40
2.697094805890905
 41
0.0
 71
     7
 72
     1
  1
\fArial|b0|i0|c0|p34;\W1;min.Ø34
 73
     1
 44
1.0
  0
ENDBLK
  5
849
330
846
100
AcDbEntity
  8
0
100
AcDbBlockEnd
  0
BLOCK
  5
84D
330
84B
100
AcDbEntity
  8
0
100
AcDbBlockBegin
  2
block 251
 70
     0
 71
     0
 10
0.0
 20
0.0
 30
0.0
  3
block 251
  1

  0
POLYLINE
  5
84F
330
84B
100
AcDbEntity
  8
cotas
 62
   253
420
 11382189
370
    25
100
AcDb2dPolyline
 66
     1
 10
0.0
 20
0.0
 30
0.0
  0
VERTEX
  5
850
330
84F
100
AcDbEntity
  8
cotas
 62
   253
420
 11382189
370
    25
100
AcDbVertex
100
AcDb2dVertex
 10
31.9685913006016
 20
48.44527722313174
 30
0.0
  0
VERTEX
  5
851
330
84F
100
AcDbEntity
  8
cotas
 62
   253
420
 11382189
370
    25
100
AcDbVertex
100
AcDb2dVertex
 10
31.9685913006016
 20
48.44527722313174
 30
0.0
  0
SEQEND
  5
852
330
84F
100
AcDbEntity
  8
cotas
370
    25
  0
ENDBLK
  5
84E
330
84B
100
AcDbEntity
  8
0
100
AcDbBlockEnd
  0
BLOCK
  5
855
330
853
100
AcDbEntity
  8
0
100
AcDbBlockBegin
  2
block 252
 70
     0
 71
     0
 10
0.0
 20
0.0
 30
0.0
  3
block 252
  1

  0
POLYLINE
  5
857
330
853
100
AcDbEntity
  8
cotas
 62
   253
420
 11382189
370
    25
100
AcDb2dPolyline
 66
     1
 10
0.0
 20
0.0
 30
0.0
  0
VERTEX
  5
858
330
857
100
AcDbEntity
  8
cotas
 62
   253
420
 11382189
370
    25
100
AcDbVertex
100
AcDb2dVertex
 10
39.73624809119441
 20
48.44527722313174
 30
0.0
  0
VERTEX
  5
859
330
857
100
AcDbEntity
  8
cotas
 62
   253
420
 11382189
370
    25
100
AcDbVertex
100
AcDb2dVertex
 10
39.73624809119441
 20
48.44527722313174
 30
0.0
  0
SEQEND
  5
85A
330
857
100
AcDbEntity
  8
cotas
370
    25
  0
ENDBLK
  5
856
330
853
100
AcDbEntity
  8
0
100
AcDbBlockEnd
  0
BLOCK
  5
85D
330
85B
100
AcDbEntity
  8
0
100
AcDbBlockBegin
  2
block 253
 70
     0
 71
     0
 10
0.0
 20
0.0
 30
0.0
  3
block 253
  1

  0
POLYLINE
  5
85F
330
85B
100
AcDbEntity
  8
cotas
 62
   253
420
 11382189
370
    25
100
AcDb2dPolyline
 66
     1
 10
0.0
 20
0.0
 30
0.0
  0
VERTEX
  5
860
330
85F
100
AcDbEntity
  8
cotas
 62
   253
420
 11382189
370
    25
100
AcDbVertex
100
AcDb2dVertex
 10
39.73624809119441
 20
40.22045626164628
 30
0.0
  0
VERTEX
  5
861
330
85F
100
AcDbEntity
  8
cotas
 62
   253
420
 11382189
370
    25
100
AcDbVertex
100
AcDb2dVertex
 10
39.73624809119441
 20
40.22045626164628
 30
0.0
  0
SEQEND
  5
862
330
85F
100
AcDbEntity
  8
cotas
370
    25
  0
ENDBLK
  5
85E
330
85B
100
AcDbEntity
  8
0
100
AcDbBlockEnd
  0
BLOCK
  5
865
330
863
100
AcDbEntity
  8
0
100
AcDbBlockBegin
  2
block 254
 70
     0
 71
     0
 10
0.0
 20
0.0
 30
0.0
  3
block 254
  1

  0
INSERT
  5
868
330
863
100
AcDbEntity
  8
cotas
100
AcDbBlockReference
  2
block 255
 10
0.0
 20
0.0
 30
0.0
  0
INSERT
  5
870
330
863
100
AcDbEntity
  8
cotas
100
AcDbBlockReference
  2
block 256
 10
0.0
 20
0.0
 30
0.0
  0
INSERT
  5
878
330
863
100
AcDbEntity
  8
cotas
100
AcDbBlockReference
  2
block 257
 10
0.0
 20
0.0
 30
0.0
  0
INSERT
  5
87D
330
863
100
AcDbEntity
  8
cotas
100
AcDbBlockReference
  2
block 258
 10
0.0
 20
0.0
 30
0.0
  0
INSERT
  5
882
330
863
100
AcDbEntity
  8
cotas
100
AcDbBlockReference
  2
block 259
 10
0.0
 20
0.0
 30
0.0
  0
INSERT
  5
887
330
863
100
AcDbEntity
  8
cotas
100
AcDbBlockReference
  2
block 260
 10
0.0
 20
0.0
 30
0.0
  0
INSERT
  5
892
330
863
100
AcDbEntity
  8
cotas
100
AcDbBlockReference
  2
block 261
 10
0.0
 20
0.0
 30
0.0
  0
INSERT
  5
89D
330
863
100
AcDbEntity
  8
cotas
100
AcDbBlockReference
  2
block 262
 10
0.0
 20
0.0
 30
0.0
  0
INSERT
  5
8A2
330
863
100
AcDbEntity
  8
cotas
100
AcDbBlockReference
  2
block 263
 10
0.0
 20
0.0
 30
0.0
  0
INSERT
  5
8AA
330
863
100
AcDbEntity
  8
cotas
100
AcDbBlockReference
  2
block 264
 10
0.0
 20
0.0
 30
0.0
  0
INSERT
  5
8B2
330
863
100
AcDbEntity
  8
cotas
100
AcDbBlockReference
  2
block 265
 10
0.0
 20
0.0
 30
0.0
  0
INSERT
  5
8BA
330
863
100
AcDbEntity
  8
cotas
100
AcDbBlockReference
  2
block 266
 10
0.0
 20
0.0
 30
0.0
  0
INSERT
  5
8C2
330
863
100
AcDbEntity
  8
cotas
100
AcDbBlockReference
  2
block 267
 10
0.0
 20
0.0
 30
0.0
  0
ENDBLK
  5
866
330
863
100
AcDbEntity
  8
0
100
AcDbBlockEnd
  0
BLOCK
  5
869
330
867
100
AcDbEntity
  8
0
100
AcDbBlockBegin
  2
block 255
 70
     0
 71
     0
 10
0.0
 20
0.0
 30
0.0
  3
block 255
  1

  0
POLYLINE
  5
86B
330
867
100
AcDbEntity
  8
cotas
 62
   253
420
 11382189
370
    25
100
AcDb2dPolyline
 66
     1
 10
0.0
 20
0.0
 30
0.0
  0
VERTEX
  5
86C
330
86B
100
AcDbEntity
  8
cotas
 62
   253
420
 11382189
370
    25
100
AcDbVertex
100
AcDb2dVertex
 10
70.03672415783804
 20
76.96274412138432
 30
0.0
  0
VERTEX
  5
86D
330
86B
100
AcDbEntity
  8
cotas
 62
   253
420
 11382189
370
    25
100
AcDbVertex
100
AcDb2dVertex
 10
70.03672415783804
 20
62.65388453294764
 30
0.0
  0
SEQEND
  5
86E
330
86B
100
AcDbEntity
  8
cotas
370
    25
  0
ENDBLK
  5
86A
330
867
100
AcDbEntity
  8
0
100
AcDbBlockEnd
  0
BLOCK
  5
871
330
86F
100
AcDbEntity
  8
0
100
AcDbBlockBegin
  2
block 256
 70
     0
 71
     0
 10
0.0
 20
0.0
 30
0.0
  3
block 256
  1

  0
POLYLINE
  5
873
330
86F
100
AcDbEntity
  8
cotas
 62
   253
420
 11382189
370
    25
100
AcDb2dPolyline
 66
     1
 10
0.0
 20
0.0
 30
0.0
  0
VERTEX
  5
874
330
873
100
AcDbEntity
  8
cotas
 62
   253
420
 11382189
370
    25
100
AcDbVertex
100
AcDb2dVertex
 10
70.41155054663322
 20
76.88143986793241
 30
0.0
  0
VERTEX
  5
875
330
873
100
AcDbEntity
  8
cotas
 62
   253
420
 11382189
370
    25
100
AcDbVertex
100
AcDb2dVertex
 10
71.60493162272377
 20
62.72003036626444
 30
0.0
  0
SEQEND
  5
876
330
873
100
AcDbEntity
  8
cotas
370
    25
  0
ENDBLK
  5
872
330
86F
100
AcDbEntity
  8
0
100
AcDbBlockEnd
  0
BLOCK
  5
879
330
877
100
AcDbEntity
  8
0
100
AcDbBlockBegin
  2
block 257
 70
     0
 71
     0
 10
0.0
 20
0.0
 30
0.0
  3
block 257
  1

  0
SPLINE
  5
87B
330
877
100
AcDbEntity
  8
cotas
 62
   253
420
 11382189
370
    25
100
AcDbSpline
210
0.0
220
0.0
230
1.0
 70
     8
 71
     3
 72
     8
 73
     4
 74
     0
 42
0.0000000001
 43
0.0000000001
 40
0.0
 40
0.0
 40
0.0
 40
0.0
 40
1.0
 40
1.0
 40
1.0
 40
1.0
 10
67.3498941888917
 20
64.21175671137762
 30
0.0
 10
67.7939669969404
 20
64.14216578257557
 30
0.0
 10
68.24079588137731
 20
64.08980033119977
 30
0.0
 10
68.68900280400831
 20
64.05466035725023
 30
0.0
  0
ENDBLK
  5
87A
330
877
100
AcDbEntity
  8
0
100
AcDbBlockEnd
  0
BLOCK
  5
87E
330
87C
100
AcDbEntity
  8
0
100
AcDbBlockBegin
  2
block 258
 70
     0
 71
     0
 10
0.0
 20
0.0
 30
0.0
  3
block 258
  1

  0
SPLINE
  5
880
330
87C
100
AcDbEntity
  8
cotas
 62
   253
420
 11382189
370
    25
100
AcDbSpline
210
0.0
220
0.0
230
1.0
 70
     8
 71
     3
 72
     8
 73
     4
 74
     0
 42
0.0000000001
 43
0.0000000001
 40
0.0
 40
0.0
 40
0.0
 40
0.0
 40
1.0
 40
1.0
 40
1.0
 40
1.0
 10
72.83000757727861
 20
64.22898218880387
 30
0.0
 10
73.2737358757788
 20
64.30167370354263
 30
0.0
 10
73.71470809789076
 20
64.39124618615914
 30
0.0
 10
74.15154620542044
 20
64.4983886557504
 30
0.0
  0
ENDBLK
  5
87F
330
87C
100
AcDbEntity
  8
0
100
AcDbBlockEnd
  0
BLOCK
  5
883
330
881
100
AcDbEntity
  8
0
100
AcDbBlockBegin
  2
block 259
 70
     0
 71
     0
 10
0.0
 20
0.0
 30
0.0
  3
block 259
  1

  0
SPLINE
  5
885
330
881
100
AcDbEntity
  8
cotas
 62
   253
420
 11382189
370
    25
100
AcDbSpline
210
0.0
220
0.0
230
1.0
 70
     8
 71
     3
 72
     8
 73
     4
 74
     0
 42
0.0000000001
 43
0.0000000001
 40
0.0
 40
0.0
 40
0.0
 40
0.0
 40
1.0
 40
1.0
 40
1.0
 40
1.0
 10
70.03672415783804
 20
64.00229490587444
 30
0.0
 10
70.52248262125828
 20
64.00229490587444
 30
0.0
 10
71.00755206558145
 20
64.02296547878593
 30
0.0
 10
71.49158798125904
 20
64.06361760551188
 30
0.0
  0
ENDBLK
  5
884
330
881
100
AcDbEntity
  8
0
100
AcDbBlockEnd
  0
BLOCK
  5
888
330
886
100
AcDbEntity
  8
0
100
AcDbBlockBegin
  2
block 260
 70
     0
 71
     0
 10
0.0
 20
0.0
 30
0.0
  3
block 260
  1

  0
POLYLINE
  5
88A
330
886
100
AcDbEntity
  8
cotas
370
     0
100
AcDb2dPolyline
 66
     1
 10
0.0
 20
0.0
 30
0.0
  0
VERTEX
  5
88B
330
88A
100
AcDbEntity
  8
cotas
370
     0
100
AcDbVertex
100
AcDb2dVertex
 10
68.69796005226996
 20
64.27928058288852
 30
0.0
  0
VERTEX
  5
88C
330
88A
100
AcDbEntity
  8
cotas
370
     0
100
AcDbVertex
100
AcDb2dVertex
 10
68.68039006529519
 20
63.83038464116046
 30
0.0
  0
VERTEX
  5
88D
330
88A
100
AcDbEntity
  8
cotas
370
     0
100
AcDbVertex
100
AcDb2dVertex
 10
70.03672415783804
 20
64.00229490587444
 30
0.0
  0
VERTEX
  5
88E
330
88A
100
AcDbEntity
  8
cotas
370
     0
100
AcDbVertex
100
AcDb2dVertex
 10
68.69796005226996
 20
64.27928058288852
 30
0.0
  0
SEQEND
  5
88F
330
88A
100
AcDbEntity
  8
cotas
370
     0
  0
HATCH
  5
890
330
886
100
AcDbEntity
  8
cotas
 62
   253
420
 11382189
100
AcDbHatch
 10
0.0
 20
0.0
 30
0.0
210
0.0
220
0.0
230
1.0
  2
SOLID
 70
     1
 71
     0
 91
        1
 92
        1
 93
        3
 72
     1
 10
68.69796005226996
 20
64.27928058288852
 11
68.68039006529519
 21
63.83038464116046
 72
     1
 10
68.68039006529519
 20
63.83038464116046
 11
70.03672415783804
 21
64.00229490587444
 72
     1
 10
70.03672415783804
 20
64.00229490587444
 11
68.69796005226996
 21
64.27928058288852
 97
        0
 75
     2
 76
     1
 98
        0
  0
ENDBLK
  5
889
330
886
100
AcDbEntity
  8
0
100
AcDbBlockEnd
  0
BLOCK
  5
893
330
891
100
AcDbEntity
  8
0
100
AcDbBlockBegin
  2
block 261
 70
     0
 71
     0
 10
0.0
 20
0.0
 30
0.0
  3
block 261
  1

  0
POLYLINE
  5
895
330
891
100
AcDbEntity
  8
cotas
370
     0
100
AcDb2dPolyline
 66
     1
 10
0.0
 20
0.0
 30
0.0
  0
VERTEX
  5
896
330
895
100
AcDbEntity
  8
cotas
370
     0
100
AcDbVertex
100
AcDb2dVertex
 10
72.85756834116061
 20
64.00608451090821
 30
0.0
  0
VERTEX
  5
897
330
895
100
AcDbEntity
  8
cotas
370
     0
100
AcDbVertex
100
AcDb2dVertex
 10
72.80244681339661
 20
64.45222437624805
 30
0.0
  0
VERTEX
  5
898
330
895
100
AcDbEntity
  8
cotas
370
     0
100
AcDbVertex
100
AcDb2dVertex
 10
71.49158798125904
 20
64.06361760551188
 30
0.0
  0
VERTEX
  5
899
330
895
100
AcDbEntity
  8
cotas
370
     0
100
AcDbVertex
100
AcDb2dVertex
 10
72.85756834116061
 20
64.00608451090821
 30
0.0
  0
SEQEND
  5
89A
330
895
100
AcDbEntity
  8
cotas
370
     0
  0
HATCH
  5
89B
330
891
100
AcDbEntity
  8
cotas
 62
   253
420
 11382189
100
AcDbHatch
 10
0.0
 20
0.0
 30
0.0
210
0.0
220
0.0
230
1.0
  2
SOLID
 70
     1
 71
     0
 91
        1
 92
        1
 93
        3
 72
     1
 10
72.85756834116061
 20
64.00608451090821
 11
72.80244681339661
 21
64.45222437624805
 72
     1
 10
72.80244681339661
 20
64.45222437624805
 11
71.49158798125904
 21
64.06361760551188
 72
     1
 10
71.49158798125904
 20
64.06361760551188
 11
72.85756834116061
 21
64.00608451090821
 97
        0
 75
     2
 76
     1
 98
        0
  0
ENDBLK
  5
894
330
891
100
AcDbEntity
  8
0
100
AcDbBlockEnd
  0
BLOCK
  5
89E
330
89C
100
AcDbEntity
  8
0
100
AcDbBlockBegin
  2
block 262
 70
     0
 71
     0
 10
0.0
 20
0.0
 30
0.0
  3
block 262
  1

  0
MTEXT
  5
8A0
330
89C
100
AcDbEntity
  8
cotas
 62
   253
420
 11382189
100
AcDbMText
 10
63.87947725182527
 20
63.22335881665944
 30
0.0
 40
2.697094805890905
 41
0.0
 71
     7
 72
     1
  1
\fArial|b0|i0|c0|p34;\W1;5°
 73
     1
 44
1.0
  0
ENDBLK
  5
89F
330
89C
100
AcDbEntity
  8
0
100
AcDbBlockEnd
  0
BLOCK
  5
8A3
330
8A1
100
AcDbEntity
  8
0
100
AcDbBlockBegin
  2
block 263
 70
     0
 71
     0
 10
0.0
 20
0.0
 30
0.0
  3
block 263
  1

  0
POLYLINE
  5
8A5
330
8A1
100
AcDbEntity
  8
cotas
 62
   253
420
 11382189
370
    25
100
AcDb2dPolyline
 66
     1
 10
0.0
 20
0.0
 30
0.0
  0
VERTEX
  5
8A6
330
8A5
100
AcDbEntity
  8
cotas
 62
   253
420
 11382189
370
    25
100
AcDbVertex
100
AcDb2dVertex
 10
71.00755206558145
 20
64.02985566975643
 30
0.0
  0
VERTEX
  5
8A7
330
8A5
100
AcDbEntity
  8
cotas
 62
   253
420
 11382189
370
    25
100
AcDbVertex
100
AcDb2dVertex
 10
71.00755206558145
 20
64.02985566975643
 30
0.0
  0
SEQEND
  5
8A8
330
8A5
100
AcDbEntity
  8
cotas
370
    25
  0
ENDBLK
  5
8A4
330
8A1
100
AcDbEntity
  8
0
100
AcDbBlockEnd
  0
BLOCK
  5
8AB
330
8A9
100
AcDbEntity
  8
0
100
AcDbBlockBegin
  2
block 264
 70
     0
 71
     0
 10
0.0
 20
0.0
 30
0.0
  3
block 264
  1

  0
POLYLINE
  5
8AD
330
8A9
100
AcDbEntity
  8
cotas
 62
   253
420
 11382189
370
    25
100
AcDb2dPolyline
 66
     1
 10
0.0
 20
0.0
 30
0.0
  0
VERTEX
  5
8AE
330
8AD
100
AcDbEntity
  8
cotas
 62
   253
420
 11382189
370
    25
100
AcDbVertex
100
AcDb2dVertex
 10
70.03672415783804
 20
81.32768010119587
 30
0.0
  0
VERTEX
  5
8AF
330
8AD
100
AcDbEntity
  8
cotas
 62
   253
420
 11382189
370
    25
100
AcDbVertex
100
AcDb2dVertex
 10
70.03672415783804
 20
81.32768010119587
 30
0.0
  0
SEQEND
  5
8B0
330
8AD
100
AcDbEntity
  8
cotas
370
    25
  0
ENDBLK
  5
8AC
330
8A9
100
AcDbEntity
  8
0
100
AcDbBlockEnd
  0
BLOCK
  5
8B3
330
8B1
100
AcDbEntity
  8
0
100
AcDbBlockBegin
  2
block 265
 70
     0
 71
     0
 10
0.0
 20
0.0
 30
0.0
  3
block 265
  1

  0
POLYLINE
  5
8B5
330
8B1
100
AcDbEntity
  8
cotas
 62
   253
420
 11382189
370
    25
100
AcDb2dPolyline
 66
     1
 10
0.0
 20
0.0
 30
0.0
  0
VERTEX
  5
8B6
330
8B5
100
AcDbEntity
  8
cotas
 62
   253
420
 11382189
370
    25
100
AcDbVertex
100
AcDb2dVertex
 10
70.18486326370379
 20
79.56930336552435
 30
0.0
  0
VERTEX
  5
8B7
330
8B5
100
AcDbEntity
  8
cotas
 62
   253
420
 11382189
370
    25
100
AcDbVertex
100
AcDb2dVertex
 10
70.18486326370379
 20
79.56930336552435
 30
0.0
  0
SEQEND
  5
8B8
330
8B5
100
AcDbEntity
  8
cotas
370
    25
  0
ENDBLK
  5
8B4
330
8B1
100
AcDbEntity
  8
0
100
AcDbBlockEnd
  0
BLOCK
  5
8BB
330
8B9
100
AcDbEntity
  8
0
100
AcDbBlockBegin
  2
block 266
 70
     0
 71
     0
 10
0.0
 20
0.0
 30
0.0
  3
block 266
  1

  0
POLYLINE
  5
8BD
330
8B9
100
AcDbEntity
  8
cotas
 62
   253
420
 11382189
370
    25
100
AcDb2dPolyline
 66
     1
 10
0.0
 20
0.0
 30
0.0
  0
VERTEX
  5
8BE
330
8BD
100
AcDbEntity
  8
cotas
 62
   253
420
 11382189
370
    25
100
AcDbVertex
100
AcDb2dVertex
 10
70.03672415783804
 20
81.32768010119587
 30
0.0
  0
VERTEX
  5
8BF
330
8BD
100
AcDbEntity
  8
cotas
 62
   253
420
 11382189
370
    25
100
AcDbVertex
100
AcDb2dVertex
 10
70.03672415783804
 20
81.32768010119587
 30
0.0
  0
SEQEND
  5
8C0
330
8BD
100
AcDbEntity
  8
cotas
370
    25
  0
ENDBLK
  5
8BC
330
8B9
100
AcDbEntity
  8
0
100
AcDbBlockEnd
  0
BLOCK
  5
8C3
330
8C1
100
AcDbEntity
  8
0
100
AcDbBlockBegin
  2
block 267
 70
     0
 71
     0
 10
0.0
 20
0.0
 30
0.0
  3
block 267
  1

  0
POLYLINE
  5
8C5
330
8C1
100
AcDbEntity
  8
cotas
 62
   253
420
 11382189
370
    25
100
AcDb2dPolyline
 66
     1
 10
0.0
 20
0.0
 30
0.0
  0
VERTEX
  5
8C6
330
8C5
100
AcDbEntity
  8
cotas
 62
   253
420
 11382189
370
    25
100
AcDbVertex
100
AcDb2dVertex
 10
70.03672415783804
 20
79.65990937678642
 30
0.0
  0
VERTEX
  5
8C7
330
8C5
100
AcDbEntity
  8
cotas
 62
   253
420
 11382189
370
    25
100
AcDbVertex
100
AcDb2dVertex
 10
70.03672415783804
 20
79.65990937678642
 30
0.0
  0
SEQEND
  5
8C8
330
8C5
100
AcDbEntity
  8
cotas
370
    25
  0
ENDBLK
  5
8C4
330
8C1
100
AcDbEntity
  8
0
100
AcDbBlockEnd
  0
BLOCK
  5
8CB
330
8C9
100
AcDbEntity
  8
0
100
AcDbBlockBegin
  2
block 268
 70
     0
 71
     0
 10
0.0
 20
0.0
 30
0.0
  3
block 268
  1

  0
INSERT
  5
8CE
330
8C9
100
AcDbEntity
  8
cotas
100
AcDbBlockReference
  2
block 269
 10
0.0
 20
0.0
 30
0.0
  0
INSERT
  5
8D6
330
8C9
100
AcDbEntity
  8
cotas
100
AcDbBlockReference
  2
block 270
 10
0.0
 20
0.0
 30
0.0
  0
INSERT
  5
8DE
330
8C9
100
AcDbEntity
  8
cotas
100
AcDbBlockReference
  2
block 271
 10
0.0
 20
0.0
 30
0.0
  0
INSERT
  5
8E6
330
8C9
100
AcDbEntity
  8
cotas
100
AcDbBlockReference
  2
block 272
 10
0.0
 20
0.0
 30
0.0
  0
INSERT
  5
8EE
330
8C9
100
AcDbEntity
  8
cotas
100
AcDbBlockReference
  2
block 273
 10
0.0
 20
0.0
 30
0.0
  0
INSERT
  5
8F9
330
8C9
100
AcDbEntity
  8
cotas
100
AcDbBlockReference
  2
block 274
 10
0.0
 20
0.0
 30
0.0
  0
INSERT
  5
904
330
8C9
100
AcDbEntity
  8
cotas
100
AcDbBlockReference
  2
block 275
 10
0.0
 20
0.0
 30
0.0
  0
INSERT
  5
909
330
8C9
100
AcDbEntity
  8
cotas
100
AcDbBlockReference
  2
block 276
 10
0.0
 20
0.0
 30
0.0
  0
INSERT
  5
911
330
8C9
100
AcDbEntity
  8
cotas
100
AcDbBlockReference
  2
block 277
 10
0.0
 20
0.0
 30
0.0
  0
INSERT
  5
919
330
8C9
100
AcDbEntity
  8
cotas
100
AcDbBlockReference
  2
block 278
 10
0.0
 20
0.0
 30
0.0
  0
ENDBLK
  5
8CC
330
8C9
100
AcDbEntity
  8
0
100
AcDbBlockEnd
  0
BLOCK
  5
8CF
330
8CD
100
AcDbEntity
  8
0
100
AcDbBlockBegin
  2
block 269
 70
     0
 71
     0
 10
0.0
 20
0.0
 30
0.0
  3
block 269
  1

  0
POLYLINE
  5
8D1
330
8CD
100
AcDbEntity
  8
cotas
 62
   253
420
 11382189
370
    25
100
AcDb2dPolyline
 66
     1
 10
0.0
 20
0.0
 30
0.0
  0
VERTEX
  5
8D2
330
8D1
100
AcDbEntity
  8
cotas
 62
   253
420
 11382189
370
    25
100
AcDbVertex
100
AcDb2dVertex
 10
28.9072794524086
 20
93.35175236381484
 30
0.0
  0
VERTEX
  5
8D3
330
8D1
100
AcDbEntity
  8
cotas
 62
   253
420
 11382189
370
    25
100
AcDbVertex
100
AcDb2dVertex
 10
19.6208523171434
 20
93.35175236381484
 30
0.0
  0
SEQEND
  5
8D4
330
8D1
100
AcDbEntity
  8
cotas
370
    25
  0
ENDBLK
  5
8D0
330
8CD
100
AcDbEntity
  8
0
100
AcDbBlockEnd
  0
BLOCK
  5
8D7
330
8D5
100
AcDbEntity
  8
0
100
AcDbBlockBegin
  2
block 270
 70
     0
 71
     0
 10
0.0
 20
0.0
 30
0.0
  3
block 270
  1

  0
POLYLINE
  5
8D9
330
8D5
100
AcDbEntity
  8
cotas
 62
   253
420
 11382189
370
    25
100
AcDb2dPolyline
 66
     1
 10
0.0
 20
0.0
 30
0.0
  0
VERTEX
  5
8DA
330
8D9
100
AcDbEntity
  8
cotas
 62
   253
420
 11382189
370
    25
100
AcDbVertex
100
AcDb2dVertex
 10
27.69357231295508
 20
54.9988823647225
 30
0.0
  0
VERTEX
  5
8DB
330
8D9
100
AcDbEntity
  8
cotas
 62
   253
420
 11382189
370
    25
100
AcDbVertex
100
AcDb2dVertex
 10
19.6208523171434
 20
54.9988823647225
 30
0.0
  0
SEQEND
  5
8DC
330
8D9
100
AcDbEntity
  8
cotas
370
    25
  0
ENDBLK
  5
8D8
330
8D5
100
AcDbEntity
  8
0
100
AcDbBlockEnd
  0
BLOCK
  5
8DF
330
8DD
100
AcDbEntity
  8
0
100
AcDbBlockBegin
  2
block 271
 70
     0
 71
     0
 10
0.0
 20
0.0
 30
0.0
  3
block 271
  1

  0
POLYLINE
  5
8E1
330
8DD
100
AcDbEntity
  8
cotas
 62
   253
420
 11382189
370
    25
100
AcDb2dPolyline
 66
     1
 10
0.0
 20
0.0
 30
0.0
  0
VERTEX
  5
8E2
330
8E1
100
AcDbEntity
  8
cotas
 62
   253
420
 11382189
370
    25
100
AcDbVertex
100
AcDb2dVertex
 10
20.96943494484445
 20
91.46384003789794
 30
0.0
  0
VERTEX
  5
8E3
330
8E1
100
AcDbEntity
  8
cotas
 62
   253
420
 11382189
370
    25
100
AcDbVertex
100
AcDb2dVertex
 10
20.96943494484445
 20
78.24983179467365
 30
0.0
  0
SEQEND
  5
8E4
330
8E1
100
AcDbEntity
  8
cotas
370
    25
  0
ENDBLK
  5
8E0
330
8DD
100
AcDbEntity
  8
0
100
AcDbBlockEnd
  0
BLOCK
  5
8E7
330
8E5
100
AcDbEntity
  8
0
100
AcDbBlockBegin
  2
block 272
 70
     0
 71
     0
 10
0.0
 20
0.0
 30
0.0
  3
block 272
  1

  0
POLYLINE
  5
8E9
330
8E5
100
AcDbEntity
  8
cotas
 62
   253
420
 11382189
370
    25
100
AcDb2dPolyline
 66
     1
 10
0.0
 20
0.0
 30
0.0
  0
VERTEX
  5
8EA
330
8E9
100
AcDbEntity
  8
cotas
 62
   253
420
 11382189
370
    25
100
AcDbVertex
100
AcDb2dVertex
 10
20.96943494484445
 20
56.88713920018794
 30
0.0
  0
VERTEX
  5
8EB
330
8E9
100
AcDbEntity
  8
cotas
 62
   253
420
 11382189
370
    25
100
AcDbVertex
100
AcDb2dVertex
 10
20.96943494484445
 20
70.10149195296074
 30
0.0
  0
SEQEND
  5
8EC
330
8E9
100
AcDbEntity
  8
cotas
370
    25
  0
ENDBLK
  5
8E8
330
8E5
100
AcDbEntity
  8
0
100
AcDbBlockEnd
  0
BLOCK
  5
8EF
330
8ED
100
AcDbEntity
  8
0
100
AcDbBlockBegin
  2
block 273
 70
     0
 71
     0
 10
0.0
 20
0.0
 30
0.0
  3
block 273
  1

  0
POLYLINE
  5
8F1
330
8ED
100
AcDbEntity
  8
cotas
370
     0
100
AcDb2dPolyline
 66
     1
 10
0.0
 20
0.0
 30
0.0
  0
VERTEX
  5
8F2
330
8F1
100
AcDbEntity
  8
cotas
370
     0
100
AcDbVertex
100
AcDb2dVertex
 10
20.65472547226688
 20
91.46384003789794
 30
0.0
  0
VERTEX
  5
8F3
330
8F1
100
AcDbEntity
  8
cotas
370
     0
100
AcDbVertex
100
AcDb2dVertex
 10
21.28397216264776
 20
91.46384003789794
 30
0.0
  0
VERTEX
  5
8F4
330
8F1
100
AcDbEntity
  8
cotas
370
     0
100
AcDbVertex
100
AcDb2dVertex
 10
20.96943494484445
 20
93.35175236381484
 30
0.0
  0
VERTEX
  5
8F5
330
8F1
100
AcDbEntity
  8
cotas
370
     0
100
AcDbVertex
100
AcDb2dVertex
 10
20.65472547226688
 20
91.46384003789794
 30
0.0
  0
SEQEND
  5
8F6
330
8F1
100
AcDbEntity
  8
cotas
370
     0
  0
HATCH
  5
8F7
330
8ED
100
AcDbEntity
  8
cotas
 62
   253
420
 11382189
100
AcDbHatch
 10
0.0
 20
0.0
 30
0.0
210
0.0
220
0.0
230
1.0
  2
SOLID
 70
     1
 71
     0
 91
        1
 92
        1
 93
        3
 72
     1
 10
20.65472547226688
 20
91.46384003789794
 11
21.28397216264776
 21
91.46384003789794
 72
     1
 10
21.28397216264776
 20
91.46384003789794
 11
20.96943494484445
 21
93.35175236381484
 72
     1
 10
20.96943494484445
 20
93.35175236381484
 11
20.65472547226688
 21
91.46384003789794
 97
        0
 75
     2
 76
     1
 98
        0
  0
ENDBLK
  5
8F0
330
8ED
100
AcDbEntity
  8
0
100
AcDbBlockEnd
  0
BLOCK
  5
8FA
330
8F8
100
AcDbEntity
  8
0
100
AcDbBlockBegin
  2
block 274
 70
     0
 71
     0
 10
0.0
 20
0.0
 30
0.0
  3
block 274
  1

  0
POLYLINE
  5
8FC
330
8F8
100
AcDbEntity
  8
cotas
370
     0
100
AcDb2dPolyline
 66
     1
 10
0.0
 20
0.0
 30
0.0
  0
VERTEX
  5
8FD
330
8FC
100
AcDbEntity
  8
cotas
370
     0
100
AcDbVertex
100
AcDb2dVertex
 10
20.65472547226688
 20
56.88713920018794
 30
0.0
  0
VERTEX
  5
8FE
330
8FC
100
AcDbEntity
  8
cotas
370
     0
100
AcDbVertex
100
AcDb2dVertex
 10
21.28397216264776
 20
56.88713920018794
 30
0.0
  0
VERTEX
  5
8FF
330
8FC
100
AcDbEntity
  8
cotas
370
     0
100
AcDbVertex
100
AcDb2dVertex
 10
20.96943494484445
 20
54.9988823647225
 30
0.0
  0
VERTEX
  5
900
330
8FC
100
AcDbEntity
  8
cotas
370
     0
100
AcDbVertex
100
AcDb2dVertex
 10
20.65472547226688
 20
56.88713920018794
 30
0.0
  0
SEQEND
  5
901
330
8FC
100
AcDbEntity
  8
cotas
370
     0
  0
HATCH
  5
902
330
8F8
100
AcDbEntity
  8
cotas
 62
   253
420
 11382189
100
AcDbHatch
 10
0.0
 20
0.0
 30
0.0
210
0.0
220
0.0
230
1.0
  2
SOLID
 70
     1
 71
     0
 91
        1
 92
        1
 93
        3
 72
     1
 10
20.65472547226688
 20
56.88713920018794
 11
21.28397216264776
 21
56.88713920018794
 72
     1
 10
21.28397216264776
 20
56.88713920018794
 11
20.96943494484445
 21
54.9988823647225
 72
     1
 10
20.96943494484445
 20
54.9988823647225
 11
20.65472547226688
 21
56.88713920018794
 97
        0
 75
     2
 76
     1
 98
        0
  0
ENDBLK
  5
8FB
330
8F8
100
AcDbEntity
  8
0
100
AcDbBlockEnd
  0
BLOCK
  5
905
330
903
100
AcDbEntity
  8
0
100
AcDbBlockBegin
  2
block 275
 70
     0
 71
     0
 10
0.0
 20
0.0
 30
0.0
  3
block 275
  1

  0
MTEXT
  5
907
330
903
100
AcDbEntity
  8
cotas
 62
   253
420
 11382189
100
AcDbMText
 10
17.71519774947745
 20
72.84447697831666
 30
0.0
 40
2.697094805890905
 41
0.0
 71
     7
 72
     1
  1
\fArial|b0|i0|c0|p34;\W1;160
 73
     1
 44
1.0
  0
ENDBLK
  5
906
330
903
100
AcDbEntity
  8
0
100
AcDbBlockEnd
  0
BLOCK
  5
90A
330
908
100
AcDbEntity
  8
0
100
AcDbBlockBegin
  2
block 276
 70
     0
 71
     0
 10
0.0
 20
0.0
 30
0.0
  3
block 276
  1

  0
POLYLINE
  5
90C
330
908
100
AcDbEntity
  8
cotas
 62
   253
420
 11382189
370
    25
100
AcDb2dPolyline
 66
     1
 10
0.0
 20
0.0
 30
0.0
  0
VERTEX
  5
90D
330
90C
100
AcDbEntity
  8
cotas
 62
   253
420
 11382189
370
    25
100
AcDbVertex
100
AcDb2dVertex
 10
31.6044447078107
 20
93.35175236381484
 30
0.0
  0
VERTEX
  5
90E
330
90C
100
AcDbEntity
  8
cotas
 62
   253
420
 11382189
370
    25
100
AcDbVertex
100
AcDb2dVertex
 10
31.6044447078107
 20
93.35175236381484
 30
0.0
  0
SEQEND
  5
90F
330
90C
100
AcDbEntity
  8
cotas
370
    25
  0
ENDBLK
  5
90B
330
908
100
AcDbEntity
  8
0
100
AcDbBlockEnd
  0
BLOCK
  5
912
330
910
100
AcDbEntity
  8
0
100
AcDbBlockBegin
  2
block 277
 70
     0
 71
     0
 10
0.0
 20
0.0
 30
0.0
  3
block 277
  1

  0
POLYLINE
  5
914
330
910
100
AcDbEntity
  8
cotas
 62
   253
420
 11382189
370
    25
100
AcDb2dPolyline
 66
     1
 10
0.0
 20
0.0
 30
0.0
  0
VERTEX
  5
915
330
914
100
AcDbEntity
  8
cotas
 62
   253
420
 11382189
370
    25
100
AcDbVertex
100
AcDb2dVertex
 10
30.39073756835718
 20
54.9988823647225
 30
0.0
  0
VERTEX
  5
916
330
914
100
AcDbEntity
  8
cotas
 62
   253
420
 11382189
370
    25
100
AcDbVertex
100
AcDb2dVertex
 10
30.39073756835718
 20
54.9988823647225
 30
0.0
  0
SEQEND
  5
917
330
914
100
AcDbEntity
  8
cotas
370
    25
  0
ENDBLK
  5
913
330
910
100
AcDbEntity
  8
0
100
AcDbBlockEnd
  0
BLOCK
  5
91A
330
918
100
AcDbEntity
  8
0
100
AcDbBlockBegin
  2
block 278
 70
     0
 71
     0
 10
0.0
 20
0.0
 30
0.0
  3
block 278
  1

  0
POLYLINE
  5
91C
330
918
100
AcDbEntity
  8
cotas
 62
   253
420
 11382189
370
    25
100
AcDb2dPolyline
 66
     1
 10
0.0
 20
0.0
 30
0.0
  0
VERTEX
  5
91D
330
91C
100
AcDbEntity
  8
cotas
 62
   253
420
 11382189
370
    25
100
AcDbVertex
100
AcDb2dVertex
 10
20.96943494484445
 20
54.9988823647225
 30
0.0
  0
VERTEX
  5
91E
330
91C
100
AcDbEntity
  8
cotas
 62
   253
420
 11382189
370
    25
100
AcDbVertex
100
AcDb2dVertex
 10
20.96943494484445
 20
54.9988823647225
 30
0.0
  0
SEQEND
  5
91F
330
91C
100
AcDbEntity
  8
cotas
370
    25
  0
ENDBLK
  5
91B
330
918
100
AcDbEntity
  8
0
100
AcDbBlockEnd
  0
ENDSEC
  0
SECTION
  2
ENTITIES
  0
INSERT
  5
3D
330
1F
100
AcDbEntity
  8
cuerpo
100
AcDbBlockReference
  2
block 2
 10
0.0
 20
0.0
 30
0.0
  0
INSERT
  5
45
330
1F
100
AcDbEntity
  8
cuerpo
100
AcDbBlockReference
  2
block 3
 10
0.0
 20
0.0
 30
0.0
  0
INSERT
  5
4D
330
1F
100
AcDbEntity
  8
cuerpo
100
AcDbBlockReference
  2
block 4
 10
0.0
 20
0.0
 30
0.0
  0
INSERT
  5
55
330
1F
100
AcDbEntity
  8
cuerpo
100
AcDbBlockReference
  2
block 5
 10
0.0
 20
0.0
 30
0.0
  0
INSERT
  5
5D
330
1F
100
AcDbEntity
  8
cuerpo
100
AcDbBlockReference
  2
block 6
 10
0.0
 20
0.0
 30
0.0
  0
INSERT
  5
65
330
1F
100
AcDbEntity
  8
cuerpo
100
AcDbBlockReference
  2
block 7
 10
0.0
 20
0.0
 30
0.0
  0
INSERT
  5
6D
330
1F
100
AcDbEntity
  8
cuerpo
100
AcDbBlockReference
  2
block 8
 10
0.0
 20
0.0
 30
0.0
  0
INSERT
  5
72
330
1F
100
AcDbEntity
  8
cuerpo
100
AcDbBlockReference
  2
block 9
 10
0.0
 20
0.0
 30
0.0
  0
INSERT
  5
77
330
1F
100
AcDbEntity
  8
cuerpo
100
AcDbBlockReference
  2
block 10
 10
0.0
 20
0.0
 30
0.0
  0
INSERT
  5
7F
330
1F
100
AcDbEntity
  8
cuerpo
100
AcDbBlockReference
  2
block 11
 10
0.0
 20
0.0
 30
0.0
  0
INSERT
  5
87
330
1F
100
AcDbEntity
  8
cuerpo
100
AcDbBlockReference
  2
block 12
 10
0.0
 20
0.0
 30
0.0
  0
INSERT
  5
8C
330
1F
100
AcDbEntity
  8
cuerpo
100
AcDbBlockReference
  2
block 13
 10
0.0
 20
0.0
 30
0.0
  0
INSERT
  5
94
330
1F
100
AcDbEntity
  8
cuerpo
100
AcDbBlockReference
  2
block 14
 10
0.0
 20
0.0
 30
0.0
  0
INSERT
  5
9C
330
1F
100
AcDbEntity
  8
cuerpo
100
AcDbBlockReference
  2
block 15
 10
0.0
 20
0.0
 30
0.0
  0
INSERT
  5
A4
330
1F
100
AcDbEntity
  8
cuerpo
100
AcDbBlockReference
  2
block 16
 10
0.0
 20
0.0
 30
0.0
  0
INSERT
  5
AC
330
1F
100
AcDbEntity
  8
cuerpo
100
AcDbBlockReference
  2
block 17
 10
0.0
 20
0.0
 30
0.0
  0
INSERT
  5
B4
330
1F
100
AcDbEntity
  8
cuerpo
100
AcDbBlockReference
  2
block 18
 10
0.0
 20
0.0
 30
0.0
  0
INSERT
  5
B9
330
1F
100
AcDbEntity
  8
cuerpo
100
AcDbBlockReference
  2
block 19
 10
0.0
 20
0.0
 30
0.0
  0
INSERT
  5
BE
330
1F
100
AcDbEntity
  8
cuerpo
100
AcDbBlockReference
  2
block 20
 10
0.0
 20
0.0
 30
0.0
  0
INSERT
  5
C3
330
1F
100
AcDbEntity
  8
cuerpo
100
AcDbBlockReference
  2
block 21
 10
0.0
 20
0.0
 30
0.0
  0
INSERT
  5
C8
330
1F
100
AcDbEntity
  8
cuerpo
100
AcDbBlockReference
  2
block 22
 10
0.0
 20
0.0
 30
0.0
  0
INSERT
  5
D0
330
1F
100
AcDbEntity
  8
cuerpo
100
AcDbBlockReference
  2
block 23
 10
0.0
 20
0.0
 30
0.0
  0
INSERT
  5
D5
330
1F
100
AcDbEntity
  8
cuerpo
100
AcDbBlockReference
  2
block 24
 10
0.0
 20
0.0
 30
0.0
  0
INSERT
  5
DD
330
1F
100
AcDbEntity
  8
cuerpo
100
AcDbBlockReference
  2
block 25
 10
0.0
 20
0.0
 30
0.0
  0
INSERT
  5
E5
330
1F
100
AcDbEntity
  8
cuerpo
100
AcDbBlockReference
  2
block 26
 10
0.0
 20
0.0
 30
0.0
  0
INSERT
  5
ED
330
1F
100
AcDbEntity
  8
cuerpo
100
AcDbBlockReference
  2
block 27
 10
0.0
 20
0.0
 30
0.0
  0
INSERT
  5
F2
330
1F
100
AcDbEntity
  8
cuerpo
100
AcDbBlockReference
  2
block 28
 10
0.0
 20
0.0
 30
0.0
  0
INSERT
  5
F7
330
1F
100
AcDbEntity
  8
cuerpo
100
AcDbBlockReference
  2
block 29
 10
0.0
 20
0.0
 30
0.0
  0
INSERT
  5
FF
330
1F
100
AcDbEntity
  8
cuerpo
100
AcDbBlockReference
  2
block 30
 10
0.0
 20
0.0
 30
0.0
  0
INSERT
  5
107
330
1F
100
AcDbEntity
  8
cuerpo
100
AcDbBlockReference
  2
block 31
 10
0.0
 20
0.0
 30
0.0
  0
INSERT
  5
10F
330
1F
100
AcDbEntity
  8
cuerpo
100
AcDbBlockReference
  2
block 32
 10
0.0
 20
0.0
 30
0.0
  0
INSERT
  5
114
330
1F
100
AcDbEntity
  8
cuerpo
100
AcDbBlockReference
  2
block 33
 10
0.0
 20
0.0
 30
0.0
  0
INSERT
  5
11C
330
1F
100
AcDbEntity
  8
cuerpo
100
AcDbBlockReference
  2
block 34
 10
0.0
 20
0.0
 30
0.0
  0
INSERT
  5
124
330
1F
100
AcDbEntity
  8
cuerpo
100
AcDbBlockReference
  2
block 35
 10
0.0
 20
0.0
 30
0.0
  0
INSERT
  5
12C
330
1F
100
AcDbEntity
  8
cuerpo
100
AcDbBlockReference
  2
block 36
 10
0.0
 20
0.0
 30
0.0
  0
INSERT
  5
134
330
1F
100
AcDbEntity
  8
cuerpo
100
AcDbBlockReference
  2
block 37
 10
0.0
 20
0.0
 30
0.0
  0
INSERT
  5
139
330
1F
100
AcDbEntity
  8
cuerpo
100
AcDbBlockReference
  2
block 38
 10
0.0
 20
0.0
 30
0.0
  0
INSERT
  5
141
330
1F
100
AcDbEntity
  8
cuerpo
100
AcDbBlockReference
  2
block 39
 10
0.0
 20
0.0
 30
0.0
  0
INSERT
  5
149
330
1F
100
AcDbEntity
  8
cuerpo
100
AcDbBlockReference
  2
block 40
 10
0.0
 20
0.0
 30
0.0
  0
INSERT
  5
151
330
1F
100
AcDbEntity
  8
cuerpo
100
AcDbBlockReference
  2
block 41
 10
0.0
 20
0.0
 30
0.0
  0
INSERT
  5
159
330
1F
100
AcDbEntity
  8
cuerpo
100
AcDbBlockReference
  2
block 42
 10
0.0
 20
0.0
 30
0.0
  0
INSERT
  5
15E
330
1F
100
AcDbEntity
  8
cuerpo
100
AcDbBlockReference
  2
block 43
 10
0.0
 20
0.0
 30
0.0
  0
INSERT
  5
166
330
1F
100
AcDbEntity
  8
cuerpo
100
AcDbBlockReference
  2
block 44
 10
0.0
 20
0.0
 30
0.0
  0
INSERT
  5
16E
330
1F
100
AcDbEntity
  8
cuerpo
100
AcDbBlockReference
  2
block 45
 10
0.0
 20
0.0
 30
0.0
  0
INSERT
  5
176
330
1F
100
AcDbEntity
  8
cuerpo
100
AcDbBlockReference
  2
block 46
 10
0.0
 20
0.0
 30
0.0
  0
INSERT
  5
17B
330
1F
100
AcDbEntity
  8
cuerpo
100
AcDbBlockReference
  2
block 47
 10
0.0
 20
0.0
 30
0.0
  0
INSERT
  5
183
330
1F
100
AcDbEntity
  8
cuerpo
100
AcDbBlockReference
  2
block 48
 10
0.0
 20
0.0
 30
0.0
  0
INSERT
  5
18B
330
1F
100
AcDbEntity
  8
cuerpo
100
AcDbBlockReference
  2
block 49
 10
0.0
 20
0.0
 30
0.0
  0
INSERT
  5
193
330
1F
100
AcDbEntity
  8
cuerpo
100
AcDbBlockReference
  2
block 50
 10
0.0
 20
0.0
 30
0.0
  0
INSERT
  5
198
330
1F
100
AcDbEntity
  8
cuerpo
100
AcDbBlockReference
  2
block 51
 10
0.0
 20
0.0
 30
0.0
  0
INSERT
  5
19D
330
1F
100
AcDbEntity
  8
cuerpo
100
AcDbBlockReference
  2
block 52
 10
0.0
 20
0.0
 30
0.0
  0
INSERT
  5
1A2
330
1F
100
AcDbEntity
  8
cuerpo
100
AcDbBlockReference
  2
block 53
 10
0.0
 20
0.0
 30
0.0
  0
INSERT
  5
1AA
330
1F
100
AcDbEntity
  8
cuerpo
100
AcDbBlockReference
  2
block 54
 10
0.0
 20
0.0
 30
0.0
  0
INSERT
  5
1B2
330
1F
100
AcDbEntity
  8
cuerpo
100
AcDbBlockReference
  2
block 55
 10
0.0
 20
0.0
 30
0.0
  0
INSERT
  5
1B7
330
1F
100
AcDbEntity
  8
cuerpo
100
AcDbBlockReference
  2
block 56
 10
0.0
 20
0.0
 30
0.0
  0
INSERT
  5
1BF
330
1F
100
AcDbEntity
  8
cuerpo
100
AcDbBlockReference
  2
block 57
 10
0.0
 20
0.0
 30
0.0
  0
INSERT
  5
1C7
330
1F
100
AcDbEntity
  8
cuerpo
100
AcDbBlockReference
  2
block 58
 10
0.0
 20
0.0
 30
0.0
  0
INSERT
  5
1CF
330
1F
100
AcDbEntity
  8
cuerpo
100
AcDbBlockReference
  2
block 59
 10
0.0
 20
0.0
 30
0.0
  0
INSERT
  5
1D7
330
1F
100
AcDbEntity
  8
cuerpo
100
AcDbBlockReference
  2
block 60
 10
0.0
 20
0.0
 30
0.0
  0
INSERT
  5
1DF
330
1F
100
AcDbEntity
  8
cuerpo
100
AcDbBlockReference
  2
block 61
 10
0.0
 20
0.0
 30
0.0
  0
INSERT
  5
1E7
330
1F
100
AcDbEntity
  8
cuerpo
100
AcDbBlockReference
  2
block 62
 10
0.0
 20
0.0
 30
0.0
  0
INSERT
  5
1EF
330
1F
100
AcDbEntity
  8
cuerpo
100
AcDbBlockReference
  2
block 63
 10
0.0
 20
0.0
 30
0.0
  0
INSERT
  5
1F7
330
1F
100
AcDbEntity
  8
cuerpo
100
AcDbBlockReference
  2
block 64
 10
0.0
 20
0.0
 30
0.0
  0
INSERT
  5
1FF
330
1F
100
AcDbEntity
  8
cuerpo
100
AcDbBlockReference
  2
block 65
 10
0.0
 20
0.0
 30
0.0
  0
INSERT
  5
207
330
1F
100
AcDbEntity
  8
cuerpo
100
AcDbBlockReference
  2
block 66
 10
0.0
 20
0.0
 30
0.0
  0
INSERT
  5
20F
330
1F
100
AcDbEntity
  8
cuerpo
100
AcDbBlockReference
  2
block 67
 10
0.0
 20
0.0
 30
0.0
  0
INSERT
  5
217
330
1F
100
AcDbEntity
  8
cuerpo
100
AcDbBlockReference
  2
block 68
 10
0.0
 20
0.0
 30
0.0
  0
INSERT
  5
21F
330
1F
100
AcDbEntity
  8
cuerpo
100
AcDbBlockReference
  2
block 69
 10
0.0
 20
0.0
 30
0.0
  0
INSERT
  5
227
330
1F
100
AcDbEntity
  8
cuerpo
100
AcDbBlockReference
  2
block 70
 10
0.0
 20
0.0
 30
0.0
  0
INSERT
  5
22F
330
1F
100
AcDbEntity
  8
cuerpo
100
AcDbBlockReference
  2
block 71
 10
0.0
 20
0.0
 30
0.0
  0
INSERT
  5
237
330
1F
100
AcDbEntity
  8
cuerpo
100
AcDbBlockReference
  2
block 72
 10
0.0
 20
0.0
 30
0.0
  0
INSERT
  5
23F
330
1F
100
AcDbEntity
  8
cuerpo
100
AcDbBlockReference
  2
block 73
 10
0.0
 20
0.0
 30
0.0
  0
INSERT
  5
247
330
1F
100
AcDbEntity
  8
cuerpo
100
AcDbBlockReference
  2
block 74
 10
0.0
 20
0.0
 30
0.0
  0
INSERT
  5
24C
330
1F
100
AcDbEntity
  8
cuerpo
100
AcDbBlockReference
  2
block 75
 10
0.0
 20
0.0
 30
0.0
  0
INSERT
  5
254
330
1F
100
AcDbEntity
  8
cuerpo
100
AcDbBlockReference
  2
block 76
 10
0.0
 20
0.0
 30
0.0
  0
INSERT
  5
25C
330
1F
100
AcDbEntity
  8
cuerpo
100
AcDbBlockReference
  2
block 77
 10
0.0
 20
0.0
 30
0.0
  0
INSERT
  5
261
330
1F
100
AcDbEntity
  8
cuerpo
100
AcDbBlockReference
  2
block 78
 10
0.0
 20
0.0
 30
0.0
  0
INSERT
  5
269
330
1F
100
AcDbEntity
  8
cuerpo
100
AcDbBlockReference
  2
block 79
 10
0.0
 20
0.0
 30
0.0
  0
INSERT
  5
271
330
1F
100
AcDbEntity
  8
cuerpo
100
AcDbBlockReference
  2
block 80
 10
0.0
 20
0.0
 30
0.0
  0
INSERT
  5
279
330
1F
100
AcDbEntity
  8
cuerpo
100
AcDbBlockReference
  2
block 81
 10
0.0
 20
0.0
 30
0.0
  0
INSERT
  5
281
330
1F
100
AcDbEntity
  8
cuerpo
100
AcDbBlockReference
  2
block 82
 10
0.0
 20
0.0
 30
0.0
  0
INSERT
  5
286
330
1F
100
AcDbEntity
  8
cuerpo
100
AcDbBlockReference
  2
block 83
 10
0.0
 20
0.0
 30
0.0
  0
INSERT
  5
28B
330
1F
100
AcDbEntity
  8
cuerpo
100
AcDbBlockReference
  2
block 84
 10
0.0
 20
0.0
 30
0.0
  0
INSERT
  5
290
330
1F
100
AcDbEntity
  8
cuerpo
100
AcDbBlockReference
  2
block 85
 10
0.0
 20
0.0
 30
0.0
  0
INSERT
  5
295
330
1F
100
AcDbEntity
  8
cuerpo
100
AcDbBlockReference
  2
block 86
 10
0.0
 20
0.0
 30
0.0
  0
INSERT
  5
29A
330
1F
100
AcDbEntity
  8
cuerpo
100
AcDbBlockReference
  2
block 87
 10
0.0
 20
0.0
 30
0.0
  0
INSERT
  5
29F
330
1F
100
AcDbEntity
  8
cuerpo
100
AcDbBlockReference
  2
block 88
 10
0.0
 20
0.0
 30
0.0
  0
INSERT
  5
2A7
330
1F
100
AcDbEntity
  8
cuerpo
100
AcDbBlockReference
  2
block 89
 10
0.0
 20
0.0
 30
0.0
  0
INSERT
  5
2AF
330
1F
100
AcDbEntity
  8
cuerpo
100
AcDbBlockReference
  2
block 90
 10
0.0
 20
0.0
 30
0.0
  0
INSERT
  5
2B7
330
1F
100
AcDbEntity
  8
cuerpo
100
AcDbBlockReference
  2
block 91
 10
0.0
 20
0.0
 30
0.0
  0
INSERT
  5
2BF
330
1F
100
AcDbEntity
  8
cuerpo
100
AcDbBlockReference
  2
block 92
 10
0.0
 20
0.0
 30
0.0
  0
INSERT
  5
2C7
330
1F
100
AcDbEntity
  8
cuerpo
100
AcDbBlockReference
  2
block 93
 10
0.0
 20
0.0
 30
0.0
  0
INSERT
  5
2CF
330
1F
100
AcDbEntity
  8
cuerpo
100
AcDbBlockReference
  2
block 94
 10
0.0
 20
0.0
 30
0.0
  0
INSERT
  5
2D7
330
1F
100
AcDbEntity
  8
cuerpo
100
AcDbBlockReference
  2
block 95
 10
0.0
 20
0.0
 30
0.0
  0
INSERT
  5
2DF
330
1F
100
AcDbEntity
  8
cuerpo
100
AcDbBlockReference
  2
block 96
 10
0.0
 20
0.0
 30
0.0
  0
INSERT
  5
2E7
330
1F
100
AcDbEntity
  8
cuerpo
100
AcDbBlockReference
  2
block 97
 10
0.0
 20
0.0
 30
0.0
  0
INSERT
  5
2EF
330
1F
100
AcDbEntity
  8
cuerpo
100
AcDbBlockReference
  2
block 98
 10
0.0
 20
0.0
 30
0.0
  0
INSERT
  5
2F7
330
1F
100
AcDbEntity
  8
cuerpo
100
AcDbBlockReference
  2
block 99
 10
0.0
 20
0.0
 30
0.0
  0
INSERT
  5
2FF
330
1F
100
AcDbEntity
  8
cuerpo
100
AcDbBlockReference
  2
block 100
 10
0.0
 20
0.0
 30
0.0
  0
INSERT
  5
307
330
1F
100
AcDbEntity
  8
cuerpo
100
AcDbBlockReference
  2
block 101
 10
0.0
 20
0.0
 30
0.0
  0
INSERT
  5
30F
330
1F
100
AcDbEntity
  8
cuerpo
100
AcDbBlockReference
  2
block 102
 10
0.0
 20
0.0
 30
0.0
  0
INSERT
  5
317
330
1F
100
AcDbEntity
  8
cuerpo
100
AcDbBlockReference
  2
block 103
 10
0.0
 20
0.0
 30
0.0
  0
INSERT
  5
31F
330
1F
100
AcDbEntity
  8
cuerpo
100
AcDbBlockReference
  2
block 104
 10
0.0
 20
0.0
 30
0.0
  0
INSERT
  5
327
330
1F
100
AcDbEntity
  8
cuerpo
100
AcDbBlockReference
  2
block 105
 10
0.0
 20
0.0
 30
0.0
  0
INSERT
  5
32F
330
1F
100
AcDbEntity
  8
cuerpo
100
AcDbBlockReference
  2
block 106
 10
0.0
 20
0.0
 30
0.0
  0
INSERT
  5
337
330
1F
100
AcDbEntity
  8
cuerpo
100
AcDbBlockReference
  2
block 107
 10
0.0
 20
0.0
 30
0.0
  0
INSERT
  5
33F
330
1F
100
AcDbEntity
  8
cuerpo
100
AcDbBlockReference
  2
block 108
 10
0.0
 20
0.0
 30
0.0
  0
INSERT
  5
347
330
1F
100
AcDbEntity
  8
cuerpo
100
AcDbBlockReference
  2
block 109
 10
0.0
 20
0.0
 30
0.0
  0
INSERT
  5
34F
330
1F
100
AcDbEntity
  8
cuerpo
100
AcDbBlockReference
  2
block 110
 10
0.0
 20
0.0
 30
0.0
  0
INSERT
  5
357
330
1F
100
AcDbEntity
  8
cuerpo
100
AcDbBlockReference
  2
block 111
 10
0.0
 20
0.0
 30
0.0
  0
INSERT
  5
35F
330
1F
100
AcDbEntity
  8
cuerpo
100
AcDbBlockReference
  2
block 112
 10
0.0
 20
0.0
 30
0.0
  0
INSERT
  5
367
330
1F
100
AcDbEntity
  8
cuerpo
100
AcDbBlockReference
  2
block 113
 10
0.0
 20
0.0
 30
0.0
  0
INSERT
  5
36F
330
1F
100
AcDbEntity
  8
cuerpo
100
AcDbBlockReference
  2
block 114
 10
0.0
 20
0.0
 30
0.0
  0
INSERT
  5
377
330
1F
100
AcDbEntity
  8
cuerpo
100
AcDbBlockReference
  2
block 115
 10
0.0
 20
0.0
 30
0.0
  0
INSERT
  5
37F
330
1F
100
AcDbEntity
  8
cuerpo
100
AcDbBlockReference
  2
block 116
 10
0.0
 20
0.0
 30
0.0
  0
INSERT
  5
387
330
1F
100
AcDbEntity
  8
cuerpo
100
AcDbBlockReference
  2
block 117
 10
0.0
 20
0.0
 30
0.0
  0
INSERT
  5
38F
330
1F
100
AcDbEntity
  8
cuerpo
100
AcDbBlockReference
  2
block 118
 10
0.0
 20
0.0
 30
0.0
  0
INSERT
  5
397
330
1F
100
AcDbEntity
  8
cuerpo
100
AcDbBlockReference
  2
block 119
 10
0.0
 20
0.0
 30
0.0
  0
INSERT
  5
39F
330
1F
100
AcDbEntity
  8
cuerpo
100
AcDbBlockReference
  2
block 120
 10
0.0
 20
0.0
 30
0.0
  0
INSERT
  5
3A7
330
1F
100
AcDbEntity
  8
cuerpo
100
AcDbBlockReference
  2
block 121
 10
0.0
 20
0.0
 30
0.0
  0
INSERT
  5
3AF
330
1F
100
AcDbEntity
  8
cuerpo
100
AcDbBlockReference
  2
block 122
 10
0.0
 20
0.0
 30
0.0
  0
INSERT
  5
3B7
330
1F
100
AcDbEntity
  8
cuerpo
100
AcDbBlockReference
  2
block 123
 10
0.0
 20
0.0
 30
0.0
  0
INSERT
  5
3BF
330
1F
100
AcDbEntity
  8
cuerpo
100
AcDbBlockReference
  2
block 124
 10
0.0
 20
0.0
 30
0.0
  0
INSERT
  5
3C7
330
1F
100
AcDbEntity
  8
cuerpo
100
AcDbBlockReference
  2
block 125
 10
0.0
 20
0.0
 30
0.0
  0
INSERT
  5
3CF
330
1F
100
AcDbEntity
  8
cuerpo
100
AcDbBlockReference
  2
block 126
 10
0.0
 20
0.0
 30
0.0
  0
INSERT
  5
3D7
330
1F
100
AcDbEntity
  8
cuerpo
100
AcDbBlockReference
  2
block 127
 10
0.0
 20
0.0
 30
0.0
  0
INSERT
  5
3DF
330
1F
100
AcDbEntity
  8
cuerpo
100
AcDbBlockReference
  2
block 128
 10
0.0
 20
0.0
 30
0.0
  0
INSERT
  5
3E7
330
1F
100
AcDbEntity
  8
cuerpo
100
AcDbBlockReference
  2
block 129
 10
0.0
 20
0.0
 30
0.0
  0
INSERT
  5
3EF
330
1F
100
AcDbEntity
  8
cuerpo
100
AcDbBlockReference
  2
block 130
 10
0.0
 20
0.0
 30
0.0
  0
INSERT
  5
3F7
330
1F
100
AcDbEntity
  8
cuerpo
100
AcDbBlockReference
  2
block 131
 10
0.0
 20
0.0
 30
0.0
  0
INSERT
  5
3FF
330
1F
100
AcDbEntity
  8
cuerpo
100
AcDbBlockReference
  2
block 132
 10
0.0
 20
0.0
 30
0.0
  0
INSERT
  5
404
330
1F
100
AcDbEntity
  8
cuerpo
100
AcDbBlockReference
  2
block 133
 10
0.0
 20
0.0
 30
0.0
  0
INSERT
  5
40C
330
1F
100
AcDbEntity
  8
cuerpo
100
AcDbBlockReference
  2
block 134
 10
0.0
 20
0.0
 30
0.0
  0
INSERT
  5
414
330
1F
100
AcDbEntity
  8
cuerpo
100
AcDbBlockReference
  2
block 135
 10
0.0
 20
0.0
 30
0.0
  0
INSERT
  5
41C
330
1F
100
AcDbEntity
  8
cuerpo
100
AcDbBlockReference
  2
block 136
 10
0.0
 20
0.0
 30
0.0
  0
INSERT
  5
424
330
1F
100
AcDbEntity
  8
cuerpo
100
AcDbBlockReference
  2
block 137
 10
0.0
 20
0.0
 30
0.0
  0
INSERT
  5
42C
330
1F
100
AcDbEntity
  8
cuerpo
100
AcDbBlockReference
  2
block 138
 10
0.0
 20
0.0
 30
0.0
  0
INSERT
  5
434
330
1F
100
AcDbEntity
  8
cuerpo
100
AcDbBlockReference
  2
block 139
 10
0.0
 20
0.0
 30
0.0
  0
INSERT
  5
43C
330
1F
100
AcDbEntity
  8
cuerpo
100
AcDbBlockReference
  2
block 140
 10
0.0
 20
0.0
 30
0.0
  0
INSERT
  5
444
330
1F
100
AcDbEntity
  8
cuerpo
100
AcDbBlockReference
  2
block 141
 10
0.0
 20
0.0
 30
0.0
  0
INSERT
  5
44C
330
1F
100
AcDbEntity
  8
cuerpo
100
AcDbBlockReference
  2
block 142
 10
0.0
 20
0.0
 30
0.0
  0
INSERT
  5
4C1
330
1F
100
AcDbEntity
  8
cotas
100
AcDbBlockReference
  2
block 143
 10
0.0
 20
0.0
 30
0.0
  0
INSERT
  5
538
330
1F
100
AcDbEntity
  8
cotas
100
AcDbBlockReference
  2
block 158
 10
0.0
 20
0.0
 30
0.0
  0
INSERT
  5
58F
330
1F
100
AcDbEntity
  8
cotas
100
AcDbBlockReference
  2
block 169
 10
0.0
 20
0.0
 30
0.0
  0
INSERT
  5
5C5
330
1F
100
AcDbEntity
  8
cotas
100
AcDbBlockReference
  2
block 170
 10
0.0
 20
0.0
 30
0.0
  0
INSERT
  5
624
330
1F
100
AcDbEntity
  8
cotas
100
AcDbBlockReference
  2
block 182
 10
0.0
 20
0.0
 30
0.0
  0
INSERT
  5
67B
330
1F
100
AcDbEntity
  8
cotas
100
AcDbBlockReference
  2
block 193
 10
0.0
 20
0.0
 30
0.0
  0
INSERT
  5
6D2
330
1F
100
AcDbEntity
  8
cotas
100
AcDbBlockReference
  2
block 204
 10
0.0
 20
0.0
 30
0.0
  0
INSERT
  5
729
330
1F
100
AcDbEntity
  8
cotas
100
AcDbBlockReference
  2
block 215
 10
0.0
 20
0.0
 30
0.0
  0
INSERT
  5
732
330
1F
100
AcDbEntity
  8
cotas
100
AcDbBlockReference
  2
block 216
 10
0.0
 20
0.0
 30
0.0
  0
INSERT
  5
73B
330
1F
100
AcDbEntity
  8
cotas
100
AcDbBlockReference
  2
block 217
 10
0.0
 20
0.0
 30
0.0
  0
INSERT
  5
744
330
1F
100
AcDbEntity
  8
cotas
100
AcDbBlockReference
  2
block 218
 10
0.0
 20
0.0
 30
0.0
  0
INSERT
  5
74D
330
1F
100
AcDbEntity
  8
cotas
100
AcDbBlockReference
  2
block 219
 10
0.0
 20
0.0
 30
0.0
  0
INSERT
  5
756
330
1F
100
AcDbEntity
  8
cotas
100
AcDbBlockReference
  2
block 220
 10
0.0
 20
0.0
 30
0.0
  0
INSERT
  5
75F
330
1F
100
AcDbEntity
  8
cotas
100
AcDbBlockReference
  2
block 221
 10
0.0
 20
0.0
 30
0.0
  0
INSERT
  5
7B6
330
1F
100
AcDbEntity
  8
cotas
100
AcDbBlockReference
  2
block 232
 10
0.0
 20
0.0
 30
0.0
  0
INSERT
  5
80D
330
1F
100
AcDbEntity
  8
cotas
100
AcDbBlockReference
  2
block 243
 10
0.0
 20
0.0
 30
0.0
  0
INSERT
  5
864
330
1F
100
AcDbEntity
  8
cotas
100
AcDbBlockReference
  2
block 254
 10
0.0
 20
0.0
 30
0.0
  0
INSERT
  5
8CA
330
1F
100
AcDbEntity
  8
cotas
100
AcDbBlockReference
  2
block 268
 10
0.0
 20
0.0
 30
0.0
  0
ENDSEC
  0
SECTION
  2
OBJECTS
  0
DICTIONARY
  5
C
330
0
100
AcDbDictionary
281
     1
  3
ACAD_GROUP
350
D
  3
ACAD_LAYOUT
350
1A
  3
ACAD_MLINESTYLE
350
17
  3
ACAD_PLOTSETTINGS
350
19
  3
ACAD_PLOTSTYLENAME
350
E
  3
ACAD_TABLESTYLE
350
920
  3
ACAD_VISUALSTYLE
350
2A
  0
DICTIONARY
  5
D
102
{ACAD_REACTORS
330
C
102
}
330
C
100
AcDbDictionary
281
     1
  0
DICTIONARY
  5
1A
102
{ACAD_REACTORS
330
C
102
}
330
C
100
AcDbDictionary
281
     1
  3
Layout1
350
1E
  3
Layout2
350
26
  3
Model
350
22
  0
DICTIONARY
  5
17
102
{ACAD_REACTORS
330
C
102
}
330
C
100
AcDbDictionary
281
     1
  3
Standard
350
18
  0
DICTIONARY
  5
19
102
{ACAD_REACTORS
330
C
102
}
330
C
100
AcDbDictionary
281
     1
  0
ACDBDICTIONARYWDFLT
  5
E
102
{ACAD_REACTORS
330
C
102
}
330
C
100
AcDbDictionary
281
     1
  3
Normal
350
F
100
AcDbDictionaryWithDefault
340
F
  0
DICTIONARY
  5
920
102
{ACAD_REACTORS
330
C
102
}
330
C
100
AcDbDictionary
281
     1
  0
DICTIONARY
  5
2A
102
{ACAD_REACTORS
330
C
102
}
330
C
100
AcDbDictionary
281
     1
  3
2dWireframe
350
2F
  3
3D Hidden
350
31
  3
3dWireframe
350
30
  3
Basic
350
32
  3
Brighten
350
36
  3
ColorChange
350
3A
  3
Conceptual
350
34
  3
Dim
350
35
  3
Facepattern
350
39
  3
Flat
350
2B
  3
FlatWithEdges
350
2C
  3
Gouraud
350
2D
  3
GouraudWithEdges
350
2E
  3
Linepattern
350
38
  3
Realistic
350
33
  3
Thicken
350
37
  0
LAYOUT
  5
1E
102
{ACAD_REACTORS
330
1A
102
}
330
1A
100
AcDbPlotSettings
  1

  2
none_device
  4

  6

 40
0.0
 41
0.0
 42
0.0
 43
0.0
 44
0.0
 45
0.0
 46
0.0
 47
0.0
 48
0.0
 49
0.0
140
0.0
141
0.0
142
1.0
143
1.0
 70
   688
 72
     0
 73
     0
 74
     5
  7

 75
    16
 76
     0
 77
     2
 78
   300
147
1.0
148
0.0
149
0.0
100
AcDbLayout
  1
Layout1
 70
     1
 71
     1
 10
0.0
 20
0.0
 11
12.0
 21
9.0
 12
0.0
 22
0.0
 32
0.0
 14
1.000000000000000E+20
 24
1.000000000000000E+20
 34
1.000000000000000E+20
 15
-1.000000000000000E+20
 25
-1.000000000000000E+20
 35
-1.000000000000000E+20
146
0.0
 13
0.0
 23
0.0
 33
0.0
 16
1.0
 26
0.0
 36
0.0
 17
0.0
 27
1.0
 37
0.0
 76
     0
330
1B
  0
LAYOUT
  5
26
102
{ACAD_REACTORS
330
1A
102
}
330
1A
100
AcDbPlotSettings
  1

  2
none_device
  4

  6

 40
0.0
 41
0.0
 42
0.0
 43
0.0
 44
0.0
 45
0.0
 46
0.0
 47
0.0
 48
0.0
 49
0.0
140
0.0
141
0.0
142
1.0
143
1.0
 70
   688
 72
     0
 73
     0
 74
     5
  7

 75
    16
 76
     0
 77
     2
 78
   300
147
1.0
148
0.0
149
0.0
100
AcDbLayout
  1
Layout2
 70
     1
 71
     2
 10
0.0
 20
0.0
 11
0.0
 21
0.0
 12
0.0
 22
0.0
 32
0.0
 14
0.0
 24
0.0
 34
0.0
 15
0.0
 25
0.0
 35
0.0
146
0.0
 13
0.0
 23
0.0
 33
0.0
 16
1.0
 26
0.0
 36
0.0
 17
0.0
 27
1.0
 37
0.0
 76
     0
330
23
  0
LAYOUT
  5
22
102
{ACAD_REACTORS
330
1A
102
}
330
1A
100
AcDbPlotSettings
  1

  2
none_device
  4

  6

 40
0.0
 41
0.0
 42
0.0
 43
0.0
 44
0.0
 45
0.0
 46
0.0
 47
0.0
 48
0.0
 49
0.0
140
0.0
141
0.0
142
1.0
143
1.0
 70
  1712
 72
     0
 73
     0
 74
     0
  7

 75
     0
 76
     0
 77
     2
 78
   300
147
1.0
148
0.0
149
0.0
100
AcDbLayout
  1
Model
 70
     1
 71
     0
 10
0.0
 20
0.0
 11
12.0
 21
9.0
 12
0.0
 22
0.0
 32
0.0
 14
1.000000000000000E+20
 24
1.000000000000000E+20
 34
1.000000000000000E+20
 15
-1.000000000000000E+20
 25
-1.000000000000000E+20
 35
-1.000000000000000E+20
146
0.0
 13
0.0
 23
0.0
 33
0.0
 16
1.0
 26
0.0
 36
0.0
 17
0.0
 27
1.0
 37
0.0
 76
     0
330
1F
331
29
  0
MLINESTYLE
  5
18
102
{ACAD_REACTORS
330
17
102
}
330
17
100
AcDbMlineStyle
  2
Standard
 70
     0
  3

 62
   256
 51
90.0
 52
90.0
 71
     2
 49
0.5
 62
   256
  6
BYLAYER
 49
-0.5
 62
   256
  6
BYLAYER
  0
ACDBPLACEHOLDER
  5
F
102
{ACAD_REACTORS
330
E
102
}
330
E
  0
VISUALSTYLE
  5
2F
102
{ACAD_REACTORS
330
2A
102
}
330
2A
100
AcDbVisualStyle
  2
2dWireframe
 70
     4
 71
     0
 72
     2
 73
     0
 90
        0
 40
-0.6
 41
-30.0
 62
     5
 63
     7
421
 16777215
 74
     1
 91
        4
 64
     7
 65
   257
 75
     1
175
     1
 42
1.0
 92
        0
 66
   257
 43
1.0
 76
     1
 77
     6
 78
     2
 67
     7
 79
     5
170
     0
171
     0
290
     0
174
     0
 93
        1
 44
0.0
173
     0
291
     0
 45
0.0
1001
ACAD
1000
AcDbSavedByObjectVersion
1070
     0
  0
VISUALSTYLE
  5
31
102
{ACAD_REACTORS
330
2A
102
}
330
2A
100
AcDbVisualStyle
  2
3D Hidden
 70
     6
 71
     1
 72
     2
 73
     2
 90
        0
 40
-0.6
 41
-30.0
 62
     5
 63
     7
421
 16777215
 74
     2
 91
        2
 64
     7
 65
   257
 75
     2
175
     1
 42
40.0
 92
        0
 66
   257
 43
1.0
 76
     1
 77
     6
 78
     2
 67
     7
 79
     3
170
     0
171
     0
290
     0
174
     0
 93
        1
 44
0.0
173
     0
291
     0
 45
0.0
1001
ACAD
1000
AcDbSavedByObjectVersion
1070
     0
  0
VISUALSTYLE
  5
30
102
{ACAD_REACTORS
330
2A
102
}
330
2A
100
AcDbVisualStyle
  2
3dWireframe
 70
     5
 71
     0
 72
     2
 73
     0
 90
        0
 40
-0.6
 41
-30.0
 62
     5
 63
     7
421
 16777215
 74
     1
 91
        4
 64
     7
 65
   257
 75
     1
175
     1
 42
1.0
 92
        0
 66
   257
 43
1.0
 76
     1
 77
     6
 78
     2
 67
     7
 79
     5
170
     0
171
     0
290
     0
174
     0
 93
        1
 44
0.0
173
     0
291
     0
 45
0.0
1001
ACAD
1000
AcDbSavedByObjectVersion
1070
     0
  0
VISUALSTYLE
  5
32
102
{ACAD_REACTORS
330
2A
102
}
330
2A
100
AcDbVisualStyle
  2
Basic
 70
     7
 71
     1
 72
     0
 73
     1
 90
        0
 40
-0.6
 41
-30.0
 62
     5
 63
     7
421
 16777215
 74
     0
 91
        4
 64
     7
 65
   257
 75
     1
175
     1
 42
1.0
 92
        8
 66
     7
 43
1.0
 76
     1
 77
     6
 78
     2
 67
     7
 79
     5
170
     0
171
     0
290
     0
174
     0
 93
        1
 44
0.0
173
     0
291
     1
 45
0.0
1001
ACAD
1000
AcDbSavedByObjectVersion
1070
     0
  0
VISUALSTYLE
  5
36
102
{ACAD_REACTORS
330
2A
102
}
330
2A
100
AcDbVisualStyle
  2
Brighten
 70
    12
 71
     2
 72
     2
 73
     0
 90
        0
 40
-0.6
 41
-30.0
 62
     5
 63
     7
421
 16777215
 74
     1
 91
        4
 64
     7
 65
   257
 75
     1
175
     1
 42
1.0
 92
        8
 66
     7
 43
1.0
 76
     1
 77
     6
 78
     2
 67
     7
 79
     5
170
     0
171
     0
290
     0
174
     0
 93
        1
 44
50.0
173
     0
291
     1
 45
0.0
1001
ACAD
1000
AcDbSavedByObjectVersion
1070
     0
  0
VISUALSTYLE
  5
3A
102
{ACAD_REACTORS
330
2A
102
}
330
2A
100
AcDbVisualStyle
  2
ColorChange
 70
    16
 71
     2
 72
     2
 73
     3
 90
        0
 40
-0.6
 41
-30.0
 62
     5
 63
     8
421
  8421504
 74
     1
 91
        4
 64
     7
 65
   257
 75
     1
175
     1
 42
1.0
 92
        8
 66
     8
424
  8421504
 43
1.0
 76
     1
 77
     6
 78
     2
 67
     7
 79
     5
170
     0
171
     0
290
     0
174
     0
 93
        1
 44
0.0
173
     0
291
     1
 45
0.0
1001
ACAD
1000
AcDbSavedByObjectVersion
1070
     0
  0
VISUALSTYLE
  5
34
102
{ACAD_REACTORS
330
2A
102
}
330
2A
100
AcDbVisualStyle
  2
Conceptual
 70
     9
 71
     3
 72
     2
 73
     0
 90
        0
 40
-0.6
 41
-30.0
 62
     5
 63
     7
421
 16777215
 74
     2
 91
        2
 64
     7
 65
   257
 75
     1
175
     1
 42
40.0
 92
        8
 66
     7
 43
1.0
 76
     1
 77
     6
 78
     2
 67
     7
 79
     3
170
     0
171
     0
290
     0
174
     0
 93
        1
 44
0.0
173
     0
291
     0
 45
0.0
1001
ACAD
1000
AcDbSavedByObjectVersion
1070
     0
  0
VISUALSTYLE
  5
35
102
{ACAD_REACTORS
330
2A
102
}
330
2A
100
AcDbVisualStyle
  2
Dim
 70
    11
 71
     2
 72
     2
 73
     0
 90
        0
 40
-0.6
 41
-30.0
 62
     5
 63
     7
421
 16777215
 74
     1
 91
        4
 64
     7
 65
   257
 75
     1
175
     1
 42
1.0
 92
        8
 66
     7
 43
1.0
 76
     1
 77
     6
 78
     2
 67
     7
 79
     5
170
     0
171
     0
290
     0
174
     0
 93
        1
 44
-50.0
173
     0
291
     1
 45
0.0
1001
ACAD
1000
AcDbSavedByObjectVersion
1070
     0
  0
VISUALSTYLE
  5
39
102
{ACAD_REACTORS
330
2A
102
}
330
2A
100
AcDbVisualStyle
  2
Facepattern
 70
    15
 71
     2
 72
     2
 73
     0
 90
        0
 40
-0.6
 41
-30.0
 62
     5
 63
     7
421
 16777215
 74
     1
 91
        4
 64
     7
 65
   257
 75
     1
175
     1
 42
1.0
 92
        8
 66
     7
 43
1.0
 76
     1
 77
     6
 78
     2
 67
     7
 79
     5
170
     0
171
     0
290
     0
174
     0
 93
        1
 44
0.0
173
     0
291
     1
 45
0.0
1001
ACAD
1000
AcDbSavedByObjectVersion
1070
     0
  0
VISUALSTYLE
  5
2B
102
{ACAD_REACTORS
330
2A
102
}
330
2A
100
AcDbVisualStyle
  2
Flat
 70
     0
 71
     2
 72
     1
 73
     1
 90
        2
 40
-0.6
 41
30.0
 62
     5
 63
     7
421
 16777215
 74
     0
 91
        4
 64
     7
 65
   257
 75
     1
175
     1
 42
1.0
 92
        8
 66
     7
 43
1.0
 76
     1
 77
     6
 78
     2
 67
     7
 79
     5
170
     0
171
     0
290
     0
174
     0
 93
       13
 44
0.0
173
     0
291
     1
 45
0.0
1001
ACAD
1000
AcDbSavedByObjectVersion
1070
     0
  0
VISUALSTYLE
  5
2C
102
{ACAD_REACTORS
330
2A
102
}
330
2A
100
AcDbVisualStyle
  2
FlatWithEdges
 70
     1
 71
     2
 72
     1
 73
     1
 90
        2
 40
-0.6
 41
30.0
 62
     5
 63
     7
421
 16777215
 74
     1
 91
        4
 64
     7
 65
   257
 75
     1
175
     1
 42
1.0
 92
        0
 66
   257
 43
1.0
 76
     1
 77
     6
 78
     2
 67
     7
 79
     5
170
     0
171
     0
290
     0
174
     0
 93
       13
 44
0.0
173
     0
291
     1
 45
0.0
1001
ACAD
1000
AcDbSavedByObjectVersion
1070
     0
  0
VISUALSTYLE
  5
2D
102
{ACAD_REACTORS
330
2A
102
}
330
2A
100
AcDbVisualStyle
  2
Gouraud
 70
     2
 71
     2
 72
     2
 73
     1
 90
        2
 40
-0.6
 41
30.0
 62
     5
 63
     7
421
 16777215
 74
     0
 91
        4
 64
     7
 65
   257
 75
     1
175
     1
 42
1.0
 92
        0
 66
     7
 43
1.0
 76
     1
 77
     6
 78
     2
 67
     7
 79
     5
170
     0
171
     0
290
     0
174
     0
 93
       13
 44
0.0
173
     0
291
     1
 45
0.0
1001
ACAD
1000
AcDbSavedByObjectVersion
1070
     0
  0
VISUALSTYLE
  5
2E
102
{ACAD_REACTORS
330
2A
102
}
330
2A
100
AcDbVisualStyle
  2
GouraudWithEdges
 70
     3
 71
     2
 72
     2
 73
     1
 90
        2
 40
-0.6
 41
30.0
 62
     5
 63
     7
421
 16777215
 74
     1
 91
        4
 64
     7
 65
   257
 75
     1
175
     1
 42
1.0
 92
        0
 66
   257
 43
1.0
 76
     1
 77
     6
 78
     2
 67
     7
 79
     5
170
     0
171
     0
290
     0
174
     0
 93
       13
 44
0.0
173
     0
291
     1
 45
0.0
1001
ACAD
1000
AcDbSavedByObjectVersion
1070
     0
  0
VISUALSTYLE
  5
38
102
{ACAD_REACTORS
330
2A
102
}
330
2A
100
AcDbVisualStyle
  2
Linepattern
 70
    14
 71
     2
 72
     2
 73
     0
 90
        0
 40
-0.6
 41
-30.0
 62
     5
 63
     7
421
 16777215
 74
     1
 91
        4
 64
     7
 65
   257
 75
     7
175
     7
 42
1.0
 92
        8
 66
     7
 43
1.0
 76
     1
 77
     6
 78
     2
 67
     7
 79
     5
170
     0
171
     0
290
     0
174
     0
 93
        1
 44
0.0
173
     0
291
     1
 45
0.0
1001
ACAD
1000
AcDbSavedByObjectVersion
1070
     0
  0
VISUALSTYLE
  5
33
102
{ACAD_REACTORS
330
2A
102
}
330
2A
100
AcDbVisualStyle
  2
Realistic
 70
     8
 71
     2
 72
     2
 73
     0
 90
        0
 40
-0.6
 41
-30.0
 62
     5
 63
     7
421
 16777215
 74
     1
 91
        0
 64
     7
 65
   257
 75
     1
175
     1
 42
1.0
 92
        8
 66
     8
424
  7895160
 43
1.0
 76
     1
 77
     6
 78
     2
 67
     7
 79
     5
170
     0
171
     0
290
     0
174
     0
 93
       13
 44
0.0
173
     0
291
     0
 45
0.0
1001
ACAD
1000
AcDbSavedByObjectVersion
1070
     0
  0
VISUALSTYLE
  5
37
102
{ACAD_REACTORS
330
2A
102
}
330
2A
100
AcDbVisualStyle
  2
Thicken
 70
    13
 71
     2
 72
     2
 73
     0
 90
        0
 40
-0.6
 41
-30.0
 62
     5
 63
     7
421
 16777215
 74
     1
 91
        4
 64
     7
 65
   257
 75
     1
175
     1
 42
1.0
 92
       12
 66
     7
 43
1.0
 76
     1
 77
     6
 78
     2
 67
     7
 79
     5
170
     0
171
     0
290
     0
174
     0
 93
        1
 44
0.0
173
     0
291
     1
 45
0.0
1001
ACAD
1000
AcDbSavedByObjectVersion
1070
     0
  0
ENDSEC
  0
EOF
