  0
SECTION
  2
HEADER
  9
$ACADVER
  1
AC1018
  9
$ACADMAINTVER
 70
     0
  9
$DWGCODEPAGE
  3
ANSI_1252
  9
$INSBASE
 10
0.0
 20
0.0
 30
0.0
  9
$EXTMIN
 10
1.000000000000000E+20
 20
1.000000000000000E+20
 30
1.000000000000000E+20
  9
$EXTMAX
 10
-1.000000000000000E+20
 20
-1.000000000000000E+20
 30
-1.000000000000000E+20
  9
$LIMMIN
 10
0.0
 20
0.0
  9
$LIMMAX
 10
12.0
 20
9.0
  9
$ORTHOMODE
 70
     0
  9
$REGENMODE
 70
     1
  9
$FILLMODE
 70
     1
  9
$QTEXTMODE
 70
     0
  9
$MIRRTEXT
 70
     1
  9
$LTSCALE
 40
1.0
  9
$ATTMODE
 70
     1
  9
$TEXTSIZE
 40
0.2
  9
$TRACEWID
 40
0.05
  9
$TEXTSTYLE
  7
Standard
  9
$CLAYER
  8
0
  9
$CELTYPE
  6
ByLayer
  9
$CECOLOR
 62
   256
  9
$CELTSCALE
 40
1.0
  9
$DISPSILH
 70
     0
  9
$DIMSCALE
 40
1.0
  9
$DIMASZ
 40
0.18
  9
$DIMEXO
 40
0.0625
  9
$DIMDLI
 40
0.38
  9
$DIMRND
 40
0.0
  9
$DIMDLE
 40
0.0
  9
$DIMEXE
 40
0.18
  9
$DIMTP
 40
0.0
  9
$DIMTM
 40
0.0
  9
$DIMTXT
 40
0.18
  9
$DIMCEN
 40
0.09
  9
$DIMTSZ
 40
0.0
  9
$DIMTOL
 70
     0
  9
$DIMLIM
 70
     0
  9
$DIMTIH
 70
     1
  9
$DIMTOH
 70
     1
  9
$DIMSE1
 70
     0
  9
$DIMSE2
 70
     0
  9
$DIMTAD
 70
     0
  9
$DIMZIN
 70
     0
  9
$DIMBLK
  1

  9
$DIMASO
 70
     1
  9
$DIMSHO
 70
     1
  9
$DIMPOST
  1

  9
$DIMAPOST
  1

  9
$DIMALT
 70
     0
  9
$DIMALTD
 70
     2
  9
$DIMALTF
 40
25.4
  9
$DIMLFAC
 40
1.0
  9
$DIMTOFL
 70
     0
  9
$DIMTVP
 40
0.0
  9
$DIMTIX
 70
     0
  9
$DIMSOXD
 70
     0
  9
$DIMSAH
 70
     0
  9
$DIMBLK1
  1

  9
$DIMBLK2
  1

  9
$DIMSTYLE
  2
Standard
  9
$DIMCLRD
 70
     0
  9
$DIMCLRE
 70
     0
  9
$DIMCLRT
 70
     0
  9
$DIMTFAC
 40
1.0
  9
$DIMGAP
 40
0.09
  9
$DIMJUST
 70
     0
  9
$DIMSD1
 70
     0
  9
$DIMSD2
 70
     0
  9
$DIMTOLJ
 70
     1
  9
$DIMTZIN
 70
     0
  9
$DIMALTZ
 70
     0
  9
$DIMALTTZ
 70
     0
  9
$DIMUPT
 70
     0
  9
$DIMDEC
 70
     4
  9
$DIMTDEC
 70
     4
  9
$DIMALTU
 70
     2
  9
$DIMALTTD
 70
     2
  9
$DIMTXSTY
  7
Standard
  9
$DIMAUNIT
 70
     0
  9
$DIMADEC
 70
     0
  9
$DIMALTRND
 40
0.0
  9
$DIMAZIN
 70
     0
  9
$DIMDSEP
 70
    46
  9
$DIMATFIT
 70
     3
  9
$DIMFRAC
 70
     0
  9
$DIMLDRBLK
  1

  9
$DIMLUNIT
 70
     2
  9
$DIMLWD
 70
    -2
  9
$DIMLWE
 70
    -2
  9
$DIMTMOVE
 70
     0
  9
$LUNITS
 70
     2
  9
$LUPREC
 70
     4
  9
$SKETCHINC
 40
0.1
  9
$FILLETRAD
 40
0.5
  9
$AUNITS
 70
     0
  9
$AUPREC
 70
     0
  9
$MENU
  1
.
  9
$ELEVATION
 40
0.0
  9
$PELEVATION
 40
0.0
  9
$THICKNESS
 40
0.0
  9
$LIMCHECK
 70
     0
  9
$CHAMFERA
 40
0.5
  9
$CHAMFERB
 40
0.5
  9
$CHAMFERC
 40
1.0
  9
$CHAMFERD
 40
0.0
  9
$SKPOLY
 70
     0
  9
$TDCREATE
 40
2457548.347016759
  9
$TDUCREATE
 40
2457548.263683426
  9
$TDUPDATE
 40
2457548.347016771
  9
$TDUUPDATE
 40
2457548.263683437
  9
$TDINDWG
 40
0.0000000116
  9
$TDUSRTIMER
 40
0.0000000116
  9
$USRTIMER
 70
     1
  9
$ANGBASE
 50
0.0
  9
$ANGDIR
 70
     0
  9
$PDMODE
 70
     0
  9
$PDSIZE
 40
0.0
  9
$PLINEWID
 40
0.0
  9
$SPLFRAME
 70
     0
  9
$SPLINETYPE
 70
     6
  9
$SPLINESEGS
 70
     8
  9
$HANDSEED
  5
6D2
  9
$SURFTAB1
 70
     6
  9
$SURFTAB2
 70
     6
  9
$SURFTYPE
 70
     6
  9
$SURFU
 70
     6
  9
$SURFV
 70
     6
  9
$UCSBASE
  2

  9
$UCSNAME
  2

  9
$UCSORG
 10
0.0
 20
0.0
 30
0.0
  9
$UCSXDIR
 10
1.0
 20
0.0
 30
0.0
  9
$UCSYDIR
 10
0.0
 20
1.0
 30
0.0
  9
$UCSORTHOREF
  2

  9
$UCSORTHOVIEW
 70
     0
  9
$UCSORGTOP
 10
0.0
 20
0.0
 30
0.0
  9
$UCSORGBOTTOM
 10
0.0
 20
0.0
 30
0.0
  9
$UCSORGLEFT
 10
0.0
 20
0.0
 30
0.0
  9
$UCSORGRIGHT
 10
0.0
 20
0.0
 30
0.0
  9
$UCSORGFRONT
 10
0.0
 20
0.0
 30
0.0
  9
$UCSORGBACK
 10
0.0
 20
0.0
 30
0.0
  9
$PUCSBASE
  2

  9
$PUCSNAME
  2

  9
$PUCSORG
 10
0.0
 20
0.0
 30
0.0
  9
$PUCSXDIR
 10
1.0
 20
0.0
 30
0.0
  9
$PUCSYDIR
 10
0.0
 20
1.0
 30
0.0
  9
$PUCSORTHOREF
  2

  9
$PUCSORTHOVIEW
 70
     0
  9
$PUCSORGTOP
 10
0.0
 20
0.0
 30
0.0
  9
$PUCSORGBOTTOM
 10
0.0
 20
0.0
 30
0.0
  9
$PUCSORGLEFT
 10
0.0
 20
0.0
 30
0.0
  9
$PUCSORGRIGHT
 10
0.0
 20
0.0
 30
0.0
  9
$PUCSORGFRONT
 10
0.0
 20
0.0
 30
0.0
  9
$PUCSORGBACK
 10
0.0
 20
0.0
 30
0.0
  9
$USERI1
 70
     0
  9
$USERI2
 70
     0
  9
$USERI3
 70
     0
  9
$USERI4
 70
     0
  9
$USERI5
 70
     0
  9
$USERR1
 40
0.0
  9
$USERR2
 40
0.0
  9
$USERR3
 40
0.0
  9
$USERR4
 40
0.0
  9
$USERR5
 40
0.0
  9
$WORLDVIEW
 70
     1
  9
$SHADEDGE
 70
     3
  9
$SHADEDIF
 70
    70
  9
$TILEMODE
 70
     1
  9
$MAXACTVP
 70
    64
  9
$PINSBASE
 10
0.0
 20
0.0
 30
0.0
  9
$PLIMCHECK
 70
     0
  9
$PEXTMIN
 10
1.000000000000000E+20
 20
1.000000000000000E+20
 30
1.000000000000000E+20
  9
$PEXTMAX
 10
-1.000000000000000E+20
 20
-1.000000000000000E+20
 30
-1.000000000000000E+20
  9
$PLIMMIN
 10
0.0
 20
0.0
  9
$PLIMMAX
 10
12.0
 20
9.0
  9
$UNITMODE
 70
     0
  9
$VISRETAIN
 70
     1
  9
$PLINEGEN
 70
     0
  9
$PSLTSCALE
 70
     1
  9
$TREEDEPTH
 70
  3020
  9
$CMLSTYLE
  2
Standard
  9
$CMLJUST
 70
     0
  9
$CMLSCALE
 40
1.0
  9
$PROXYGRAPHICS
 70
     1
  9
$MEASUREMENT
 70
     0
  9
$CELWEIGHT
370
    -1
  9
$ENDCAPS
280
     0
  9
$JOINSTYLE
280
     0
  9
$LWDISPLAY
290
     1
  9
$INSUNITS
 70
     1
  9
$HYPERLINKBASE
  1

  9
$STYLESHEET
  1

  9
$XEDIT
290
     1
  9
$CEPSNTYPE
380
     0
  9
$PSTYLEMODE
290
     1
  9
$FINGERPRINTGUID
  2
{F4930056-546B-4019-9323-4E992139E1D0}
  9
$VERSIONGUID
  2
{FAEB1C32-E019-11D5-929B-00C0DF256EC4}
  9
$EXTNAMES
290
     1
  9
$PSVPSCALE
 40
0.0
  9
$OLESTARTUP
290
     0
  9
$SORTENTS
280
   127
  9
$INDEXCTL
280
     0
  9
$HIDETEXT
280
     1
  9
$XCLIPFRAME
290
     0
  9
$HALOGAP
280
     0
  9
$OBSCOLOR
 70
   257
  9
$OBSLTYPE
280
     0
  9
$INTERSECTIONDISPLAY
280
     0
  9
$INTERSECTIONCOLOR
 70
   257
  9
$DIMASSOC
280
     2
  9
$PROJECTNAME
  1

  0
ENDSEC
  0
SECTION
  2
CLASSES
  0
CLASS
  1
ACDBDICTIONARYWDFLT
  2
AcDbDictionaryWithDefault
  3
ObjectDBX Classes
 90
        0
 91
        3
280
     0
281
     0
  0
CLASS
  1
VISUALSTYLE
  2
AcDbVisualStyle
  3
ObjectDBX Classes
 90
     4095
 91
        3
280
     0
281
     0
  0
ENDSEC
  0
SECTION
  2
TABLES
  0
TABLE
  2
VPORT
  5
8
330
0
100
AcDbSymbolTable
 70
     1
  0
VPORT
  5
29
330
8
100
AcDbSymbolTableRecord
100
AcDbViewportTableRecord
  2
*Active
 70
     0
 10
0.0
 20
0.0
 11
1.0
 21
1.0
 12
0.0
 22
0.0
 13
0.0
 23
0.0
 14
0.5
 24
0.5
 15
0.5
 25
0.5
 16
0.0
 26
0.0
 36
1.0
 17
98.28073660194892
 27
-180.5646029550759
 37
0.0
 40
150.8050930070036
 41
1.677191976488246
 42
50.0
 43
0.0
 44
0.0
 50
0.0
 51
0.0
 71
     0
 72
   100
 73
     1
 74
     3
 75
     0
 76
     0
 77
     0
 78
     0
281
     0
 65
     1
110
0.0
120
0.0
130
0.0
111
1.0
121
0.0
131
0.0
112
0.0
122
1.0
132
0.0
 79
     0
146
0.0
  0
ENDTAB
  0
TABLE
  2
LTYPE
  5
5
330
0
100
AcDbSymbolTable
 70
     7
  0
LTYPE
  5
14
330
5
100
AcDbSymbolTableRecord
100
AcDbLinetypeTableRecord
  2
ByBlock
 70
     0
  3

 72
    65
 73
     0
 40
0.0
  0
LTYPE
  5
15
330
5
100
AcDbSymbolTableRecord
100
AcDbLinetypeTableRecord
  2
ByLayer
 70
     0
  3

 72
    65
 73
     0
 40
0.0
  0
LTYPE
  5
16
330
5
100
AcDbSymbolTableRecord
100
AcDbLinetypeTableRecord
  2
Continuous
 70
     0
  3
Solid line
 72
    65
 73
     0
 40
0.0
  0
LTYPE
  5
45C
330
5
100
AcDbSymbolTableRecord
100
AcDbLinetypeTableRecord
  2
AI-Linetype-1
 70
     0
  3
Adobe Illustrator Linetype No. 1
 72
    65
 73
     4
 40
0.279910552488615
 49
0.092127591596857
 74
     0
 49
-0.092127591596857
 74
     0
 49
0.092127591596857
 74
     0
 49
-0.0035277776980439
 74
     0
  0
LTYPE
  5
461
330
5
100
AcDbSymbolTableRecord
100
AcDbLinetypeTableRecord
  2
AI-Linetype-2
 70
     0
  3
Adobe Illustrator Linetype No. 2
 72
    65
 73
     4
 40
0.279910552488615
 49
0.092127591596857
 74
     0
 49
-0.092127591596857
 74
     0
 49
0.092127591596857
 74
     0
 49
-0.0035277776980439
 74
     0
  0
LTYPE
  5
466
330
5
100
AcDbSymbolTableRecord
100
AcDbLinetypeTableRecord
  2
AI-Linetype-3
 70
     0
  3
Adobe Illustrator Linetype No. 3
 72
    65
 73
     4
 40
0.279910552488615
 49
0.092127591596857
 74
     0
 49
-0.092127591596857
 74
     0
 49
0.092127591596857
 74
     0
 49
-0.0035277776980439
 74
     0
  0
LTYPE
  5
46B
330
5
100
AcDbSymbolTableRecord
100
AcDbLinetypeTableRecord
  2
AI-Linetype-4
 70
     0
  3
Adobe Illustrator Linetype No. 4
 72
    65
 73
     4
 40
0.279910552488615
 49
0.092127591596857
 74
     0
 49
-0.092127591596857
 74
     0
 49
0.092127591596857
 74
     0
 49
-0.0035277776980439
 74
     0
  0
LTYPE
  5
52E
330
5
100
AcDbSymbolTableRecord
100
AcDbLinetypeTableRecord
  2
AI-Linetype-5
 70
     0
  3
Adobe Illustrator Linetype No. 5
 72
    65
 73
     4
 40
0.279910552488615
 49
0.092127591596857
 74
     0
 49
-0.092127591596857
 74
     0
 49
0.092127591596857
 74
     0
 49
-0.0035277776980439
 74
     0
  0
LTYPE
  5
533
330
5
100
AcDbSymbolTableRecord
100
AcDbLinetypeTableRecord
  2
AI-Linetype-6
 70
     0
  3
Adobe Illustrator Linetype No. 6
 72
    65
 73
     4
 40
0.279910552488615
 49
0.092127591596857
 74
     0
 49
-0.092127591596857
 74
     0
 49
0.092127591596857
 74
     0
 49
-0.0035277776980439
 74
     0
  0
ENDTAB
  0
TABLE
  2
LAYER
  5
2
330
0
100
AcDbSymbolTable
 70
     2
  0
LAYER
  5
10
330
2
100
AcDbSymbolTableRecord
100
AcDbLayerTableRecord
  2
0
 70
     0
 62
     7
  6
Continuous
370
    -3
390
F
  0
LAYER
  5
3B
330
2
100
AcDbSymbolTableRecord
100
AcDbLayerTableRecord
  2
Capa 1
 70
     0
 62
     7
  6
Continuous
370
    -3
390
F
  0
ENDTAB
  0
TABLE
  2
STYLE
  5
3
330
0
100
AcDbSymbolTable
 70
     1
  0
STYLE
  5
11
330
3
100
AcDbSymbolTableRecord
100
AcDbTextStyleTableRecord
  2
Standard
 70
     0
 40
0.0
 41
1.0
 50
0.0
 71
     0
 42
0.2
  3
txt
  4

  0
ENDTAB
  0
TABLE
  2
VIEW
  5
6
330
0
100
AcDbSymbolTable
 70
     0
  0
ENDTAB
  0
TABLE
  2
UCS
  5
7
330
0
100
AcDbSymbolTable
 70
     0
  0
ENDTAB
  0
TABLE
  2
APPID
  5
9
330
0
100
AcDbSymbolTable
 70
     1
  0
APPID
  5
12
330
9
100
AcDbSymbolTableRecord
100
AcDbRegAppTableRecord
  2
ACAD
 70
     0
  0
ENDTAB
  0
TABLE
  2
DIMSTYLE
  5
A
330
0
100
AcDbSymbolTable
 70
     1
100
AcDbDimStyleTable
  0
DIMSTYLE
105
27
330
A
100
AcDbSymbolTableRecord
100
AcDbDimStyleTableRecord
  2
Standard
 70
     0
340
11
  0
ENDTAB
  0
TABLE
  2
BLOCK_RECORD
  5
1
330
0
100
AcDbSymbolTable
 70
    19
  0
BLOCK_RECORD
  5
1F
330
1
100
AcDbSymbolTableRecord
100
AcDbBlockTableRecord
  2
*Model_Space
340
22
  0
BLOCK_RECORD
  5
1B
330
1
100
AcDbSymbolTableRecord
100
AcDbBlockTableRecord
  2
*Paper_Space
340
1E
  0
BLOCK_RECORD
  5
23
330
1
100
AcDbSymbolTableRecord
100
AcDbBlockTableRecord
  2
*Paper_Space0
340
26
  0
BLOCK_RECORD
  5
641
330
1
100
AcDbSymbolTableRecord
100
AcDbBlockTableRecord
  2
block 2
340
0
102
{BLKREFS
331
642
102
}
  0
BLOCK_RECORD
  5
649
330
1
100
AcDbSymbolTableRecord
100
AcDbBlockTableRecord
  2
block 3
340
0
102
{BLKREFS
331
64A
102
}
  0
BLOCK_RECORD
  5
651
330
1
100
AcDbSymbolTableRecord
100
AcDbBlockTableRecord
  2
block 4
340
0
102
{BLKREFS
331
652
102
}
  0
BLOCK_RECORD
  5
659
330
1
100
AcDbSymbolTableRecord
100
AcDbBlockTableRecord
  2
block 5
340
0
102
{BLKREFS
331
65A
102
}
  0
BLOCK_RECORD
  5
661
330
1
100
AcDbSymbolTableRecord
100
AcDbBlockTableRecord
  2
block 6
340
0
102
{BLKREFS
331
662
102
}
  0
BLOCK_RECORD
  5
669
330
1
100
AcDbSymbolTableRecord
100
AcDbBlockTableRecord
  2
block 7
340
0
102
{BLKREFS
331
66A
102
}
  0
BLOCK_RECORD
  5
671
330
1
100
AcDbSymbolTableRecord
100
AcDbBlockTableRecord
  2
block 8
340
0
102
{BLKREFS
331
672
102
}
  0
BLOCK_RECORD
  5
679
330
1
100
AcDbSymbolTableRecord
100
AcDbBlockTableRecord
  2
block 9
340
0
102
{BLKREFS
331
67A
102
}
  0
BLOCK_RECORD
  5
681
330
1
100
AcDbSymbolTableRecord
100
AcDbBlockTableRecord
  2
block 10
340
0
102
{BLKREFS
331
682
102
}
  0
BLOCK_RECORD
  5
689
330
1
100
AcDbSymbolTableRecord
100
AcDbBlockTableRecord
  2
block 11
340
0
102
{BLKREFS
331
68A
102
}
  0
BLOCK_RECORD
  5
691
330
1
100
AcDbSymbolTableRecord
100
AcDbBlockTableRecord
  2
block 12
340
0
102
{BLKREFS
331
692
102
}
  0
BLOCK_RECORD
  5
699
330
1
100
AcDbSymbolTableRecord
100
AcDbBlockTableRecord
  2
block 13
340
0
102
{BLKREFS
331
69A
102
}
  0
BLOCK_RECORD
  5
6A1
330
1
100
AcDbSymbolTableRecord
100
AcDbBlockTableRecord
  2
block 14
340
0
102
{BLKREFS
331
6A2
102
}
  0
BLOCK_RECORD
  5
6A9
330
1
100
AcDbSymbolTableRecord
100
AcDbBlockTableRecord
  2
block 15
340
0
102
{BLKREFS
331
6AA
102
}
  0
BLOCK_RECORD
  5
6B1
330
1
100
AcDbSymbolTableRecord
100
AcDbBlockTableRecord
  2
block 16
340
0
102
{BLKREFS
331
6B2
102
}
  0
BLOCK_RECORD
  5
6B9
330
1
100
AcDbSymbolTableRecord
100
AcDbBlockTableRecord
  2
block 17
340
0
102
{BLKREFS
331
6BA
102
}
  0
BLOCK_RECORD
  5
6C1
330
1
100
AcDbSymbolTableRecord
100
AcDbBlockTableRecord
  2
block 18
340
0
102
{BLKREFS
331
6C2
102
}
  0
BLOCK_RECORD
  5
6C9
330
1
100
AcDbSymbolTableRecord
100
AcDbBlockTableRecord
  2
block 19
340
0
102
{BLKREFS
331
6CA
102
}
  0
ENDTAB
  0
ENDSEC
  0
SECTION
  2
BLOCKS
  0
BLOCK
  5
20
330
1F
100
AcDbEntity
  8
0
100
AcDbBlockBegin
  2
*Model_Space
 70
     0
 71
     0
 10
0.0
 20
0.0
 30
0.0
  3
*Model_Space
  1

  0
ENDBLK
  5
21
330
1F
100
AcDbEntity
  8
0
100
AcDbBlockEnd
  0
BLOCK
  5
1C
330
1B
100
AcDbEntity
 67
     1
  8
0
100
AcDbBlockBegin
  2
*Paper_Space
 70
     0
 71
     0
 10
0.0
 20
0.0
 30
0.0
  3
*Paper_Space
  1

  0
ENDBLK
  5
1D
330
1B
100
AcDbEntity
 67
     1
  8
0
100
AcDbBlockEnd
  0
BLOCK
  5
24
330
23
100
AcDbEntity
  8
0
100
AcDbBlockBegin
  2
*Paper_Space0
 70
     0
 71
     0
 10
0.0
 20
0.0
 30
0.0
  3
*Paper_Space0
  1

  0
ENDBLK
  5
25
330
23
100
AcDbEntity
  8
0
100
AcDbBlockEnd
  0
BLOCK
  5
643
330
641
100
AcDbEntity
  8
0
100
AcDbBlockBegin
  2
block 2
 70
     0
 71
     0
 10
0.0
 20
0.0
 30
0.0
  3
block 2
  1

  0
POLYLINE
  5
645
330
641
100
AcDbEntity
  8
Capa 1
370
     0
100
AcDb2dPolyline
 66
     1
 10
0.0
 20
0.0
 30
0.0
  0
VERTEX
  5
646
330
645
100
AcDbEntity
  8
Capa 1
370
     0
100
AcDbVertex
100
AcDb2dVertex
 10
130.1936034830766
 20
-171.5313042105894
 30
0.0
  0
VERTEX
  5
647
330
645
100
AcDbEntity
  8
Capa 1
370
     0
100
AcDbVertex
100
AcDb2dVertex
 10
130.1936034830766
 20
-171.5313042105894
 30
0.0
  0
SEQEND
  5
648
330
645
100
AcDbEntity
  8
Capa 1
370
     0
  0
ENDBLK
  5
644
330
641
100
AcDbEntity
  8
0
100
AcDbBlockEnd
  0
BLOCK
  5
64B
330
649
100
AcDbEntity
  8
0
100
AcDbBlockBegin
  2
block 3
 70
     0
 71
     0
 10
0.0
 20
0.0
 30
0.0
  3
block 3
  1

  0
POLYLINE
  5
64D
330
649
100
AcDbEntity
  8
Capa 1
370
     0
100
AcDb2dPolyline
 66
     1
 10
0.0
 20
0.0
 30
0.0
  0
VERTEX
  5
64E
330
64D
100
AcDbEntity
  8
Capa 1
370
     0
100
AcDbVertex
100
AcDb2dVertex
 10
130.1936034830766
 20
-179.2159341999877
 30
0.0
  0
VERTEX
  5
64F
330
64D
100
AcDbEntity
  8
Capa 1
370
     0
100
AcDbVertex
100
AcDb2dVertex
 10
130.1936034830766
 20
-179.2159341999877
 30
0.0
  0
SEQEND
  5
650
330
64D
100
AcDbEntity
  8
Capa 1
370
     0
  0
ENDBLK
  5
64C
330
649
100
AcDbEntity
  8
0
100
AcDbBlockEnd
  0
BLOCK
  5
653
330
651
100
AcDbEntity
  8
0
100
AcDbBlockBegin
  2
block 4
 70
     0
 71
     0
 10
0.0
 20
0.0
 30
0.0
  3
block 4
  1

  0
POLYLINE
  5
655
330
651
100
AcDbEntity
  8
Capa 1
370
     0
100
AcDb2dPolyline
 66
     1
 10
0.0
 20
0.0
 30
0.0
  0
VERTEX
  5
656
330
655
100
AcDbEntity
  8
Capa 1
370
     0
100
AcDbVertex
100
AcDb2dVertex
 10
63.9978162817436
 20
-165.7108153882598
 30
0.0
  0
VERTEX
  5
657
330
655
100
AcDbEntity
  8
Capa 1
370
     0
100
AcDbVertex
100
AcDb2dVertex
 10
63.9978162817436
 20
-165.7108153882598
 30
0.0
  0
SEQEND
  5
658
330
655
100
AcDbEntity
  8
Capa 1
370
     0
  0
ENDBLK
  5
654
330
651
100
AcDbEntity
  8
0
100
AcDbBlockEnd
  0
BLOCK
  5
65B
330
659
100
AcDbEntity
  8
0
100
AcDbBlockBegin
  2
block 5
 70
     0
 71
     0
 10
0.0
 20
0.0
 30
0.0
  3
block 5
  1

  0
POLYLINE
  5
65D
330
659
100
AcDbEntity
  8
Capa 1
370
     0
100
AcDb2dPolyline
 66
     1
 10
0.0
 20
0.0
 30
0.0
  0
VERTEX
  5
65E
330
65D
100
AcDbEntity
  8
Capa 1
370
     0
100
AcDbVertex
100
AcDb2dVertex
 10
6.177400714601483
 20
-165.7108153882598
 30
0.0
  0
VERTEX
  5
65F
330
65D
100
AcDbEntity
  8
Capa 1
370
     0
100
AcDbVertex
100
AcDb2dVertex
 10
6.177400714601483
 20
-165.7108153882598
 30
0.0
  0
SEQEND
  5
660
330
65D
100
AcDbEntity
  8
Capa 1
370
     0
  0
ENDBLK
  5
65C
330
659
100
AcDbEntity
  8
0
100
AcDbBlockEnd
  0
BLOCK
  5
663
330
661
100
AcDbEntity
  8
0
100
AcDbBlockBegin
  2
block 6
 70
     0
 71
     0
 10
0.0
 20
0.0
 30
0.0
  3
block 6
  1

  0
POLYLINE
  5
665
330
661
100
AcDbEntity
  8
Capa 1
370
     0
100
AcDb2dPolyline
 66
     1
 10
0.0
 20
0.0
 30
0.0
  0
VERTEX
  5
666
330
665
100
AcDbEntity
  8
Capa 1
370
     0
100
AcDbVertex
100
AcDb2dVertex
 10
77.31913924933342
 20
-174.931613454531
 30
0.0
  0
VERTEX
  5
667
330
665
100
AcDbEntity
  8
Capa 1
370
     0
100
AcDbVertex
100
AcDb2dVertex
 10
77.31913924933342
 20
-174.931613454531
 30
0.0
  0
SEQEND
  5
668
330
665
100
AcDbEntity
  8
Capa 1
370
     0
  0
ENDBLK
  5
664
330
661
100
AcDbEntity
  8
0
100
AcDbBlockEnd
  0
BLOCK
  5
66B
330
669
100
AcDbEntity
  8
0
100
AcDbBlockBegin
  2
block 7
 70
     0
 71
     0
 10
0.0
 20
0.0
 30
0.0
  3
block 7
  1

  0
POLYLINE
  5
66D
330
669
100
AcDbEntity
  8
Capa 1
370
     0
100
AcDb2dPolyline
 66
     1
 10
0.0
 20
0.0
 30
0.0
  0
VERTEX
  5
66E
330
66D
100
AcDbEntity
  8
Capa 1
370
     0
100
AcDbVertex
100
AcDb2dVertex
 10
51.19773626107209
 20
-174.931613454531
 30
0.0
  0
VERTEX
  5
66F
330
66D
100
AcDbEntity
  8
Capa 1
370
     0
100
AcDbVertex
100
AcDb2dVertex
 10
51.19773626107209
 20
-174.931613454531
 30
0.0
  0
SEQEND
  5
670
330
66D
100
AcDbEntity
  8
Capa 1
370
     0
  0
ENDBLK
  5
66C
330
669
100
AcDbEntity
  8
0
100
AcDbBlockEnd
  0
BLOCK
  5
673
330
671
100
AcDbEntity
  8
0
100
AcDbBlockBegin
  2
block 8
 70
     0
 71
     0
 10
0.0
 20
0.0
 30
0.0
  3
block 8
  1

  0
POLYLINE
  5
675
330
671
100
AcDbEntity
  8
Capa 1
370
     0
100
AcDb2dPolyline
 66
     1
 10
0.0
 20
0.0
 30
0.0
  0
VERTEX
  5
676
330
675
100
AcDbEntity
  8
Capa 1
370
     0
100
AcDbVertex
100
AcDb2dVertex
 10
178.0797417089523
 20
-191.6196559850812
 30
0.0
  0
VERTEX
  5
677
330
675
100
AcDbEntity
  8
Capa 1
370
     0
100
AcDbVertex
100
AcDb2dVertex
 10
178.0797417089523
 20
-191.6196559850812
 30
0.0
  0
SEQEND
  5
678
330
675
100
AcDbEntity
  8
Capa 1
370
     0
  0
ENDBLK
  5
674
330
671
100
AcDbEntity
  8
0
100
AcDbBlockEnd
  0
BLOCK
  5
67B
330
679
100
AcDbEntity
  8
0
100
AcDbBlockBegin
  2
block 9
 70
     0
 71
     0
 10
0.0
 20
0.0
 30
0.0
  3
block 9
  1

  0
POLYLINE
  5
67D
330
679
100
AcDbEntity
  8
Capa 1
370
     0
100
AcDb2dPolyline
 66
     1
 10
0.0
 20
0.0
 30
0.0
  0
VERTEX
  5
67E
330
67D
100
AcDbEntity
  8
Capa 1
370
     0
100
AcDbVertex
100
AcDb2dVertex
 10
186.2611544673236
 20
-191.6196559850812
 30
0.0
  0
VERTEX
  5
67F
330
67D
100
AcDbEntity
  8
Capa 1
370
     0
100
AcDbVertex
100
AcDb2dVertex
 10
186.2611544673236
 20
-191.6196559850812
 30
0.0
  0
SEQEND
  5
680
330
67D
100
AcDbEntity
  8
Capa 1
370
     0
  0
ENDBLK
  5
67C
330
679
100
AcDbEntity
  8
0
100
AcDbBlockEnd
  0
BLOCK
  5
683
330
681
100
AcDbEntity
  8
0
100
AcDbBlockBegin
  2
block 10
 70
     0
 71
     0
 10
0.0
 20
0.0
 30
0.0
  3
block 10
  1

  0
POLYLINE
  5
685
330
681
100
AcDbEntity
  8
Capa 1
370
     0
100
AcDb2dPolyline
 66
     1
 10
0.0
 20
0.0
 30
0.0
  0
VERTEX
  5
686
330
685
100
AcDbEntity
  8
Capa 1
370
     0
100
AcDbVertex
100
AcDb2dVertex
 10
138.6451117274915
 20
-188.1718044234432
 30
0.0
  0
VERTEX
  5
687
330
685
100
AcDbEntity
  8
Capa 1
370
     0
100
AcDbVertex
100
AcDb2dVertex
 10
138.6451117274915
 20
-188.1718044234432
 30
0.0
  0
SEQEND
  5
688
330
685
100
AcDbEntity
  8
Capa 1
370
     0
  0
ENDBLK
  5
684
330
681
100
AcDbEntity
  8
0
100
AcDbBlockEnd
  0
BLOCK
  5
68B
330
689
100
AcDbEntity
  8
0
100
AcDbBlockBegin
  2
block 11
 70
     0
 71
     0
 10
0.0
 20
0.0
 30
0.0
  3
block 11
  1

  0
POLYLINE
  5
68D
330
689
100
AcDbEntity
  8
Capa 1
370
     0
100
AcDb2dPolyline
 66
     1
 10
0.0
 20
0.0
 30
0.0
  0
VERTEX
  5
68E
330
68D
100
AcDbEntity
  8
Capa 1
370
     0
100
AcDbVertex
100
AcDb2dVertex
 10
182.171137107235
 20
-192.3176323303928
 30
0.0
  0
VERTEX
  5
68F
330
68D
100
AcDbEntity
  8
Capa 1
370
     0
100
AcDbVertex
100
AcDb2dVertex
 10
182.171137107235
 20
-192.3176323303928
 30
0.0
  0
SEQEND
  5
690
330
68D
100
AcDbEntity
  8
Capa 1
370
     0
  0
ENDBLK
  5
68C
330
689
100
AcDbEntity
  8
0
100
AcDbBlockEnd
  0
BLOCK
  5
693
330
691
100
AcDbEntity
  8
0
100
AcDbBlockBegin
  2
block 12
 70
     0
 71
     0
 10
0.0
 20
0.0
 30
0.0
  3
block 12
  1

  0
POLYLINE
  5
695
330
691
100
AcDbEntity
  8
Capa 1
370
     0
100
AcDb2dPolyline
 66
     1
 10
0.0
 20
0.0
 30
0.0
  0
VERTEX
  5
696
330
695
100
AcDbEntity
  8
Capa 1
370
     0
100
AcDbVertex
100
AcDb2dVertex
 10
138.6451117274915
 20
-188.1718044234432
 30
0.0
  0
VERTEX
  5
697
330
695
100
AcDbEntity
  8
Capa 1
370
     0
100
AcDbVertex
100
AcDb2dVertex
 10
138.6451117274915
 20
-188.1718044234432
 30
0.0
  0
SEQEND
  5
698
330
695
100
AcDbEntity
  8
Capa 1
370
     0
  0
ENDBLK
  5
694
330
691
100
AcDbEntity
  8
0
100
AcDbBlockEnd
  0
BLOCK
  5
69B
330
699
100
AcDbEntity
  8
0
100
AcDbBlockBegin
  2
block 13
 70
     0
 71
     0
 10
0.0
 20
0.0
 30
0.0
  3
block 13
  1

  0
POLYLINE
  5
69D
330
699
100
AcDbEntity
  8
Capa 1
370
     0
100
AcDb2dPolyline
 66
     1
 10
0.0
 20
0.0
 30
0.0
  0
VERTEX
  5
69E
330
69D
100
AcDbEntity
  8
Capa 1
370
     0
100
AcDbVertex
100
AcDb2dVertex
 10
197.8056694383958
 20
-181.8714138000183
 30
0.0
  0
VERTEX
  5
69F
330
69D
100
AcDbEntity
  8
Capa 1
370
     0
100
AcDbVertex
100
AcDb2dVertex
 10
197.8056694383958
 20
-181.8714138000183
 30
0.0
  0
SEQEND
  5
6A0
330
69D
100
AcDbEntity
  8
Capa 1
370
     0
  0
ENDBLK
  5
69C
330
699
100
AcDbEntity
  8
0
100
AcDbBlockEnd
  0
BLOCK
  5
6A3
330
6A1
100
AcDbEntity
  8
0
100
AcDbBlockBegin
  2
block 14
 70
     0
 71
     0
 10
0.0
 20
0.0
 30
0.0
  3
block 14
  1

  0
POLYLINE
  5
6A5
330
6A1
100
AcDbEntity
  8
Capa 1
370
     0
100
AcDb2dPolyline
 66
     1
 10
0.0
 20
0.0
 30
0.0
  0
VERTEX
  5
6A6
330
6A5
100
AcDbEntity
  8
Capa 1
370
     0
100
AcDbVertex
100
AcDb2dVertex
 10
138.6451117274915
 20
-162.0497124160848
 30
0.0
  0
VERTEX
  5
6A7
330
6A5
100
AcDbEntity
  8
Capa 1
370
     0
100
AcDbVertex
100
AcDb2dVertex
 10
138.6451117274915
 20
-162.0497124160848
 30
0.0
  0
SEQEND
  5
6A8
330
6A5
100
AcDbEntity
  8
Capa 1
370
     0
  0
ENDBLK
  5
6A4
330
6A1
100
AcDbEntity
  8
0
100
AcDbBlockEnd
  0
BLOCK
  5
6AB
330
6A9
100
AcDbEntity
  8
0
100
AcDbBlockBegin
  2
block 15
 70
     0
 71
     0
 10
0.0
 20
0.0
 30
0.0
  3
block 15
  1

  0
POLYLINE
  5
6AD
330
6A9
100
AcDbEntity
  8
Capa 1
370
     0
100
AcDb2dPolyline
 66
     1
 10
0.0
 20
0.0
 30
0.0
  0
VERTEX
  5
6AE
330
6AD
100
AcDbEntity
  8
Capa 1
370
     0
100
AcDbVertex
100
AcDb2dVertex
 10
201.6717555919432
 20
-141.8585245413583
 30
0.0
  0
VERTEX
  5
6AF
330
6AD
100
AcDbEntity
  8
Capa 1
370
     0
100
AcDbVertex
100
AcDb2dVertex
 10
201.6717555919432
 20
-141.8585245413583
 30
0.0
  0
SEQEND
  5
6B0
330
6AD
100
AcDbEntity
  8
Capa 1
370
     0
  0
ENDBLK
  5
6AC
330
6A9
100
AcDbEntity
  8
0
100
AcDbBlockEnd
  0
BLOCK
  5
6B3
330
6B1
100
AcDbEntity
  8
0
100
AcDbBlockBegin
  2
block 16
 70
     0
 71
     0
 10
0.0
 20
0.0
 30
0.0
  3
block 16
  1

  0
POLYLINE
  5
6B5
330
6B1
100
AcDbEntity
  8
Capa 1
370
     0
100
AcDb2dPolyline
 66
     1
 10
0.0
 20
0.0
 30
0.0
  0
VERTEX
  5
6B6
330
6B5
100
AcDbEntity
  8
Capa 1
370
     0
100
AcDbVertex
100
AcDb2dVertex
 10
197.8056694383958
 20
-181.8714138000183
 30
0.0
  0
VERTEX
  5
6B7
330
6B5
100
AcDbEntity
  8
Capa 1
370
     0
100
AcDbVertex
100
AcDb2dVertex
 10
197.8056694383958
 20
-181.8714138000183
 30
0.0
  0
SEQEND
  5
6B8
330
6B5
100
AcDbEntity
  8
Capa 1
370
     0
  0
ENDBLK
  5
6B4
330
6B1
100
AcDbEntity
  8
0
100
AcDbBlockEnd
  0
BLOCK
  5
6BB
330
6B9
100
AcDbEntity
  8
0
100
AcDbBlockBegin
  2
block 17
 70
     0
 71
     0
 10
0.0
 20
0.0
 30
0.0
  3
block 17
  1

  0
POLYLINE
  5
6BD
330
6B9
100
AcDbEntity
  8
Capa 1
370
     0
100
AcDb2dPolyline
 66
     1
 10
0.0
 20
0.0
 30
0.0
  0
VERTEX
  5
6BE
330
6BD
100
AcDbEntity
  8
Capa 1
370
     0
100
AcDbVertex
100
AcDb2dVertex
 10
197.8056694383958
 20
-181.8714138000183
 30
0.0
  0
VERTEX
  5
6BF
330
6BD
100
AcDbEntity
  8
Capa 1
370
     0
100
AcDbVertex
100
AcDb2dVertex
 10
197.8056694383958
 20
-181.8714138000183
 30
0.0
  0
SEQEND
  5
6C0
330
6BD
100
AcDbEntity
  8
Capa 1
370
     0
  0
ENDBLK
  5
6BC
330
6B9
100
AcDbEntity
  8
0
100
AcDbBlockEnd
  0
BLOCK
  5
6C3
330
6C1
100
AcDbEntity
  8
0
100
AcDbBlockBegin
  2
block 18
 70
     0
 71
     0
 10
0.0
 20
0.0
 30
0.0
  3
block 18
  1

  0
POLYLINE
  5
6C5
330
6C1
100
AcDbEntity
  8
Capa 1
370
     0
100
AcDb2dPolyline
 66
     1
 10
0.0
 20
0.0
 30
0.0
  0
VERTEX
  5
6C6
330
6C5
100
AcDbEntity
  8
Capa 1
370
     0
100
AcDbVertex
100
AcDb2dVertex
 10
198.0213324157725
 20
-182.6851453536343
 30
0.0
  0
VERTEX
  5
6C7
330
6C5
100
AcDbEntity
  8
Capa 1
370
     0
100
AcDbVertex
100
AcDb2dVertex
 10
198.0213324157725
 20
-182.6851453536343
 30
0.0
  0
SEQEND
  5
6C8
330
6C5
100
AcDbEntity
  8
Capa 1
370
     0
  0
ENDBLK
  5
6C4
330
6C1
100
AcDbEntity
  8
0
100
AcDbBlockEnd
  0
BLOCK
  5
6CB
330
6C9
100
AcDbEntity
  8
0
100
AcDbBlockBegin
  2
block 19
 70
     0
 71
     0
 10
0.0
 20
0.0
 30
0.0
  3
block 19
  1

  0
POLYLINE
  5
6CD
330
6C9
100
AcDbEntity
  8
Capa 1
370
     0
100
AcDb2dPolyline
 66
     1
 10
0.0
 20
0.0
 30
0.0
  0
VERTEX
  5
6CE
330
6CD
100
AcDbEntity
  8
Capa 1
370
     0
100
AcDbVertex
100
AcDb2dVertex
 10
197.8056694383958
 20
-182.4825737391016
 30
0.0
  0
VERTEX
  5
6CF
330
6CD
100
AcDbEntity
  8
Capa 1
370
     0
100
AcDbVertex
100
AcDb2dVertex
 10
197.8056694383958
 20
-182.4825737391016
 30
0.0
  0
SEQEND
  5
6D0
330
6CD
100
AcDbEntity
  8
Capa 1
370
     0
  0
ENDBLK
  5
6CC
330
6C9
100
AcDbEntity
  8
0
100
AcDbBlockEnd
  0
ENDSEC
  0
SECTION
  2
ENTITIES
  0
POLYLINE
  5
3C
330
1F
100
AcDbEntity
  8
Capa 1
 62
     7
420
 16777215
370
     9
100
AcDb2dPolyline
 66
     1
 10
0.0
 20
0.0
 30
0.0
  0
VERTEX
  5
3D
330
3C
100
AcDbEntity
  8
Capa 1
 62
     7
420
 16777215
370
     9
100
AcDbVertex
100
AcDb2dVertex
 10
70.59620766464262
 20
-185.880815925752
 30
0.0
  0
VERTEX
  5
3E
330
3C
100
AcDbEntity
  8
Capa 1
 62
     7
420
 16777215
370
     9
100
AcDbVertex
100
AcDb2dVertex
 10
69.44520126302065
 20
-187.0328558560196
 30
0.0
  0
SEQEND
  5
3F
330
3C
100
AcDbEntity
  8
Capa 1
370
     9
  0
POLYLINE
  5
40
330
1F
100
AcDbEntity
  8
Capa 1
 62
     7
420
 16777215
370
     9
100
AcDb2dPolyline
 66
     1
 10
0.0
 20
0.0
 30
0.0
  0
VERTEX
  5
41
330
40
100
AcDbEntity
  8
Capa 1
 62
     7
420
 16777215
370
     9
100
AcDbVertex
100
AcDb2dVertex
 10
58.88202174092186
 20
-186.839585999297
 30
0.0
  0
VERTEX
  5
42
330
40
100
AcDbEntity
  8
Capa 1
 62
     7
420
 16777215
370
     9
100
AcDbVertex
100
AcDb2dVertex
 10
57.92101235531142
 20
-185.880815925752
 30
0.0
  0
SEQEND
  5
43
330
40
100
AcDbEntity
  8
Capa 1
370
     9
  0
POLYLINE
  5
44
330
1F
100
AcDbEntity
  8
Capa 1
 62
     7
420
 16777215
370
     9
100
AcDb2dPolyline
 66
     1
 10
0.0
 20
0.0
 30
0.0
  0
VERTEX
  5
45
330
44
100
AcDbEntity
  8
Capa 1
 62
     7
420
 16777215
370
     9
100
AcDbVertex
100
AcDb2dVertex
 10
57.92101235531142
 20
-182.9989935523406
 30
0.0
  0
VERTEX
  5
46
330
44
100
AcDbEntity
  8
Capa 1
 62
     7
420
 16777215
370
     9
100
AcDbVertex
100
AcDb2dVertex
 10
59.07167424738486
 20
-181.8466091125245
 30
0.0
  0
SEQEND
  5
47
330
44
100
AcDbEntity
  8
Capa 1
370
     9
  0
POLYLINE
  5
48
330
1F
100
AcDbEntity
  8
Capa 1
 62
     7
420
 16777215
370
     9
100
AcDb2dPolyline
 66
     1
 10
0.0
 20
0.0
 30
0.0
  0
VERTEX
  5
49
330
48
100
AcDbEntity
  8
Capa 1
 62
     7
420
 16777215
370
     9
100
AcDbVertex
100
AcDb2dVertex
 10
69.44520126302065
 20
-181.8466091125245
 30
0.0
  0
VERTEX
  5
4A
330
48
100
AcDbEntity
  8
Capa 1
 62
     7
420
 16777215
370
     9
100
AcDbVertex
100
AcDb2dVertex
 10
70.59620766464262
 20
-182.9989935523406
 30
0.0
  0
SEQEND
  5
4B
330
48
100
AcDbEntity
  8
Capa 1
370
     9
  0
POLYLINE
  5
4C
330
1F
100
AcDbEntity
  8
Capa 1
 62
     7
420
 16777215
370
     9
100
AcDb2dPolyline
 66
     1
 10
0.0
 20
0.0
 30
0.0
  0
VERTEX
  5
4D
330
4C
100
AcDbEntity
  8
Capa 1
 62
     7
420
 16777215
370
     9
100
AcDbVertex
100
AcDb2dVertex
 10
70.59620766464262
 20
-182.9989935523406
 30
0.0
  0
VERTEX
  5
4E
330
4C
100
AcDbEntity
  8
Capa 1
 62
     7
420
 16777215
370
     9
100
AcDbVertex
100
AcDb2dVertex
 10
70.59620766464262
 20
-185.880815925752
 30
0.0
  0
SEQEND
  5
4F
330
4C
100
AcDbEntity
  8
Capa 1
370
     9
  0
POLYLINE
  5
50
330
1F
100
AcDbEntity
  8
Capa 1
 62
     7
420
 16777215
370
     9
100
AcDb2dPolyline
 66
     1
 10
0.0
 20
0.0
 30
0.0
  0
VERTEX
  5
51
330
50
100
AcDbEntity
  8
Capa 1
 62
     7
420
 16777215
370
     9
100
AcDbVertex
100
AcDb2dVertex
 10
57.92101235531142
 20
-185.880815925752
 30
0.0
  0
VERTEX
  5
52
330
50
100
AcDbEntity
  8
Capa 1
 62
     7
420
 16777215
370
     9
100
AcDbVertex
100
AcDb2dVertex
 10
57.92101235531142
 20
-182.9989935523406
 30
0.0
  0
SEQEND
  5
53
330
50
100
AcDbEntity
  8
Capa 1
370
     9
  0
POLYLINE
  5
54
330
1F
100
AcDbEntity
  8
Capa 1
 62
     7
420
 16777215
370
     9
100
AcDb2dPolyline
 66
     1
 10
0.0
 20
0.0
 30
0.0
  0
VERTEX
  5
55
330
54
100
AcDbEntity
  8
Capa 1
 62
     7
420
 16777215
370
     9
100
AcDbVertex
100
AcDb2dVertex
 10
19.50354681587064
 20
-174.931613454531
 30
0.0
  0
VERTEX
  5
56
330
54
100
AcDbEntity
  8
Capa 1
 62
     7
420
 16777215
370
     9
100
AcDbVertex
100
AcDb2dVertex
 10
15.44332953172945
 20
-180.3162976979765
 30
0.0
  0
SEQEND
  5
57
330
54
100
AcDbEntity
  8
Capa 1
370
     9
  0
POLYLINE
  5
58
330
1F
100
AcDbEntity
  8
Capa 1
 62
     7
420
 16777215
370
     9
100
AcDb2dPolyline
 66
     1
 10
0.0
 20
0.0
 30
0.0
  0
VERTEX
  5
59
330
58
100
AcDbEntity
  8
Capa 1
 62
     7
420
 16777215
370
     9
100
AcDbVertex
100
AcDb2dVertex
 10
-2.562634276703092
 20
-180.3162976979765
 30
0.0
  0
VERTEX
  5
5A
330
58
100
AcDbEntity
  8
Capa 1
 62
     7
420
 16777215
370
     9
100
AcDbVertex
100
AcDb2dVertex
 10
-6.622851560844287
 20
-174.931613454531
 30
0.0
  0
SEQEND
  5
5B
330
58
100
AcDbEntity
  8
Capa 1
370
     9
  0
POLYLINE
  5
5C
330
1F
100
AcDbEntity
  8
Capa 1
 62
     7
420
 16777215
370
     9
100
AcDb2dPolyline
 66
     1
 10
0.0
 20
0.0
 30
0.0
  0
VERTEX
  5
5D
330
5C
100
AcDbEntity
  8
Capa 1
 62
     7
420
 16777215
370
     9
100
AcDbVertex
100
AcDb2dVertex
 10
77.31913924933342
 20
-174.931613454531
 30
0.0
  0
VERTEX
  5
5E
330
5C
100
AcDbEntity
  8
Capa 1
 62
     7
420
 16777215
370
     9
100
AcDbVertex
100
AcDb2dVertex
 10
73.26391735364582
 20
-180.3162976979765
 30
0.0
  0
SEQEND
  5
5F
330
5C
100
AcDbEntity
  8
Capa 1
370
     9
  0
POLYLINE
  5
60
330
1F
100
AcDbEntity
  8
Capa 1
 62
     7
420
 16777215
370
     9
100
AcDb2dPolyline
 66
     1
 10
0.0
 20
0.0
 30
0.0
  0
VERTEX
  5
61
330
60
100
AcDbEntity
  8
Capa 1
 62
     7
420
 16777215
370
     9
100
AcDbVertex
100
AcDb2dVertex
 10
55.25295815675968
 20
-180.3162976979765
 30
0.0
  0
VERTEX
  5
62
330
60
100
AcDbEntity
  8
Capa 1
 62
     7
420
 16777215
370
     9
100
AcDbVertex
100
AcDb2dVertex
 10
51.19773626107209
 20
-174.931613454531
 30
0.0
  0
SEQEND
  5
63
330
60
100
AcDbEntity
  8
Capa 1
370
     9
  0
POLYLINE
  5
64
330
1F
100
AcDbEntity
  8
Capa 1
 62
     7
420
 16777215
370
     9
100
AcDb2dPolyline
 66
     1
 10
0.0
 20
0.0
 30
0.0
  0
VERTEX
  5
65
330
64
100
AcDbEntity
  8
Capa 1
 62
     7
420
 16777215
370
     9
100
AcDbVertex
100
AcDb2dVertex
 10
12.78009846685706
 20
-185.880815925752
 30
0.0
  0
VERTEX
  5
66
330
64
100
AcDbEntity
  8
Capa 1
 62
     7
420
 16777215
370
     9
100
AcDbVertex
100
AcDb2dVertex
 10
11.81891682647236
 20
-186.839585999297
 30
0.0
  0
SEQEND
  5
67
330
64
100
AcDbEntity
  8
Capa 1
370
     9
  0
POLYLINE
  5
68
330
1F
100
AcDbEntity
  8
Capa 1
 62
     7
420
 16777215
370
     9
100
AcDb2dPolyline
 66
     1
 10
0.0
 20
0.0
 30
0.0
  0
VERTEX
  5
69
330
68
100
AcDbEntity
  8
Capa 1
 62
     7
420
 16777215
370
     9
100
AcDbVertex
100
AcDb2dVertex
 10
1.255565049599303
 20
-187.0328558560196
 30
0.0
  0
VERTEX
  5
6A
330
68
100
AcDbEntity
  8
Capa 1
 62
     7
420
 16777215
370
     9
100
AcDbVertex
100
AcDb2dVertex
 10
0.1004245333950328
 20
-185.880815925752
 30
0.0
  0
SEQEND
  5
6B
330
68
100
AcDbEntity
  8
Capa 1
370
     9
  0
POLYLINE
  5
6C
330
1F
100
AcDbEntity
  8
Capa 1
 62
     7
420
 16777215
370
     9
100
AcDb2dPolyline
 66
     1
 10
0.0
 20
0.0
 30
0.0
  0
VERTEX
  5
6D
330
6C
100
AcDbEntity
  8
Capa 1
 62
     7
420
 16777215
370
     9
100
AcDbVertex
100
AcDb2dVertex
 10
0.1004245333950328
 20
-182.9989935523406
 30
0.0
  0
VERTEX
  5
6E
330
6C
100
AcDbEntity
  8
Capa 1
 62
     7
420
 16777215
370
     9
100
AcDbVertex
100
AcDb2dVertex
 10
1.255565049599303
 20
-181.8466091125245
 30
0.0
  0
SEQEND
  5
6F
330
6C
100
AcDbEntity
  8
Capa 1
370
     9
  0
POLYLINE
  5
70
330
1F
100
AcDbEntity
  8
Capa 1
 62
     7
420
 16777215
370
     9
100
AcDb2dPolyline
 66
     1
 10
0.0
 20
0.0
 30
0.0
  0
VERTEX
  5
71
330
70
100
AcDbEntity
  8
Capa 1
 62
     7
420
 16777215
370
     9
100
AcDbVertex
100
AcDb2dVertex
 10
11.62495795065279
 20
-181.8466091125245
 30
0.0
  0
VERTEX
  5
72
330
70
100
AcDbEntity
  8
Capa 1
 62
     7
420
 16777215
370
     9
100
AcDbVertex
100
AcDb2dVertex
 10
12.78009846685706
 20
-182.9989935523406
 30
0.0
  0
SEQEND
  5
73
330
70
100
AcDbEntity
  8
Capa 1
370
     9
  0
POLYLINE
  5
74
330
1F
100
AcDbEntity
  8
Capa 1
 62
     7
420
 16777215
370
     9
100
AcDb2dPolyline
 66
     1
 10
0.0
 20
0.0
 30
0.0
  0
VERTEX
  5
75
330
74
100
AcDbEntity
  8
Capa 1
 62
     7
420
 16777215
370
     9
100
AcDbVertex
100
AcDb2dVertex
 10
12.78009846685706
 20
-182.9989935523406
 30
0.0
  0
VERTEX
  5
76
330
74
100
AcDbEntity
  8
Capa 1
 62
     7
420
 16777215
370
     9
100
AcDbVertex
100
AcDb2dVertex
 10
12.78009846685706
 20
-185.880815925752
 30
0.0
  0
SEQEND
  5
77
330
74
100
AcDbEntity
  8
Capa 1
370
     9
  0
POLYLINE
  5
78
330
1F
100
AcDbEntity
  8
Capa 1
 62
     7
420
 16777215
370
     9
100
AcDb2dPolyline
 66
     1
 10
0.0
 20
0.0
 30
0.0
  0
VERTEX
  5
79
330
78
100
AcDbEntity
  8
Capa 1
 62
     7
420
 16777215
370
     9
100
AcDbVertex
100
AcDb2dVertex
 10
0.1004245333950328
 20
-185.880815925752
 30
0.0
  0
VERTEX
  5
7A
330
78
100
AcDbEntity
  8
Capa 1
 62
     7
420
 16777215
370
     9
100
AcDbVertex
100
AcDb2dVertex
 10
0.1004245333950328
 20
-182.9989935523406
 30
0.0
  0
SEQEND
  5
7B
330
78
100
AcDbEntity
  8
Capa 1
370
     9
  0
POLYLINE
  5
7C
330
1F
100
AcDbEntity
  8
Capa 1
 62
     7
420
 16777215
370
     9
100
AcDb2dPolyline
 66
     1
 10
0.0
 20
0.0
 30
0.0
  0
VERTEX
  5
7D
330
7C
100
AcDbEntity
  8
Capa 1
 62
     7
420
 16777215
370
     9
100
AcDbVertex
100
AcDb2dVertex
 10
12.78009846685706
 20
-185.880815925752
 30
0.0
  0
VERTEX
  5
7E
330
7C
100
AcDbEntity
  8
Capa 1
 62
     7
420
 16777215
370
     9
100
AcDbVertex
100
AcDb2dVertex
 10
11.81891682647236
 20
-186.839585999297
 30
0.0
  0
SEQEND
  5
7F
330
7C
100
AcDbEntity
  8
Capa 1
370
     9
  0
POLYLINE
  5
80
330
1F
100
AcDbEntity
  8
Capa 1
 62
     7
420
 16777215
370
     9
100
AcDb2dPolyline
 66
     1
 10
0.0
 20
0.0
 30
0.0
  0
VERTEX
  5
81
330
80
100
AcDbEntity
  8
Capa 1
 62
     7
420
 16777215
370
     9
100
AcDbVertex
100
AcDb2dVertex
 10
1.255565049599303
 20
-187.0328558560196
 30
0.0
  0
VERTEX
  5
82
330
80
100
AcDbEntity
  8
Capa 1
 62
     7
420
 16777215
370
     9
100
AcDbVertex
100
AcDb2dVertex
 10
0.1004245333950328
 20
-185.880815925752
 30
0.0
  0
SEQEND
  5
83
330
80
100
AcDbEntity
  8
Capa 1
370
     9
  0
POLYLINE
  5
84
330
1F
100
AcDbEntity
  8
Capa 1
 62
     7
420
 16777215
370
     9
100
AcDb2dPolyline
 66
     1
 10
0.0
 20
0.0
 30
0.0
  0
VERTEX
  5
85
330
84
100
AcDbEntity
  8
Capa 1
 62
     7
420
 16777215
370
     9
100
AcDbVertex
100
AcDb2dVertex
 10
0.1004245333950328
 20
-182.9989935523406
 30
0.0
  0
VERTEX
  5
86
330
84
100
AcDbEntity
  8
Capa 1
 62
     7
420
 16777215
370
     9
100
AcDbVertex
100
AcDb2dVertex
 10
1.255565049599303
 20
-181.8466091125245
 30
0.0
  0
SEQEND
  5
87
330
84
100
AcDbEntity
  8
Capa 1
370
     9
  0
POLYLINE
  5
88
330
1F
100
AcDbEntity
  8
Capa 1
 62
     7
420
 16777215
370
     9
100
AcDb2dPolyline
 66
     1
 10
0.0
 20
0.0
 30
0.0
  0
VERTEX
  5
89
330
88
100
AcDbEntity
  8
Capa 1
 62
     7
420
 16777215
370
     9
100
AcDbVertex
100
AcDb2dVertex
 10
11.62495795065279
 20
-181.8466091125245
 30
0.0
  0
VERTEX
  5
8A
330
88
100
AcDbEntity
  8
Capa 1
 62
     7
420
 16777215
370
     9
100
AcDbVertex
100
AcDb2dVertex
 10
12.78009846685706
 20
-182.9989935523406
 30
0.0
  0
SEQEND
  5
8B
330
88
100
AcDbEntity
  8
Capa 1
370
     9
  0
POLYLINE
  5
8C
330
1F
100
AcDbEntity
  8
Capa 1
 62
     7
420
 16777215
370
     9
100
AcDb2dPolyline
 66
     1
 10
0.0
 20
0.0
 30
0.0
  0
VERTEX
  5
8D
330
8C
100
AcDbEntity
  8
Capa 1
 62
     7
420
 16777215
370
     9
100
AcDbVertex
100
AcDb2dVertex
 10
12.78009846685706
 20
-182.9989935523406
 30
0.0
  0
VERTEX
  5
8E
330
8C
100
AcDbEntity
  8
Capa 1
 62
     7
420
 16777215
370
     9
100
AcDbVertex
100
AcDb2dVertex
 10
12.78009846685706
 20
-185.880815925752
 30
0.0
  0
SEQEND
  5
8F
330
8C
100
AcDbEntity
  8
Capa 1
370
     9
  0
POLYLINE
  5
90
330
1F
100
AcDbEntity
  8
Capa 1
 62
     7
420
 16777215
370
     9
100
AcDb2dPolyline
 66
     1
 10
0.0
 20
0.0
 30
0.0
  0
VERTEX
  5
91
330
90
100
AcDbEntity
  8
Capa 1
 62
     7
420
 16777215
370
     9
100
AcDbVertex
100
AcDb2dVertex
 10
0.1004245333950328
 20
-185.880815925752
 30
0.0
  0
VERTEX
  5
92
330
90
100
AcDbEntity
  8
Capa 1
 62
     7
420
 16777215
370
     9
100
AcDbVertex
100
AcDb2dVertex
 10
0.1004245333950328
 20
-182.9989935523406
 30
0.0
  0
SEQEND
  5
93
330
90
100
AcDbEntity
  8
Capa 1
370
     9
  0
POLYLINE
  5
94
330
1F
100
AcDbEntity
  8
Capa 1
 62
     7
420
 16777215
370
     9
100
AcDb2dPolyline
 66
     1
 10
0.0
 20
0.0
 30
0.0
  0
VERTEX
  5
95
330
94
100
AcDbEntity
  8
Capa 1
 62
     7
420
 16777215
370
     9
100
AcDbVertex
100
AcDb2dVertex
 10
12.78009846685706
 20
-185.880815925752
 30
0.0
  0
VERTEX
  5
96
330
94
100
AcDbEntity
  8
Capa 1
 62
     7
420
 16777215
370
     9
100
AcDbVertex
100
AcDb2dVertex
 10
11.81891682647236
 20
-186.839585999297
 30
0.0
  0
SEQEND
  5
97
330
94
100
AcDbEntity
  8
Capa 1
370
     9
  0
POLYLINE
  5
98
330
1F
100
AcDbEntity
  8
Capa 1
 62
     7
420
 16777215
370
     9
100
AcDb2dPolyline
 66
     1
 10
0.0
 20
0.0
 30
0.0
  0
VERTEX
  5
99
330
98
100
AcDbEntity
  8
Capa 1
 62
     7
420
 16777215
370
     9
100
AcDbVertex
100
AcDb2dVertex
 10
1.255565049599303
 20
-187.0328558560196
 30
0.0
  0
VERTEX
  5
9A
330
98
100
AcDbEntity
  8
Capa 1
 62
     7
420
 16777215
370
     9
100
AcDbVertex
100
AcDb2dVertex
 10
0.1004245333950328
 20
-185.880815925752
 30
0.0
  0
SEQEND
  5
9B
330
98
100
AcDbEntity
  8
Capa 1
370
     9
  0
POLYLINE
  5
9C
330
1F
100
AcDbEntity
  8
Capa 1
 62
     7
420
 16777215
370
     9
100
AcDb2dPolyline
 66
     1
 10
0.0
 20
0.0
 30
0.0
  0
VERTEX
  5
9D
330
9C
100
AcDbEntity
  8
Capa 1
 62
     7
420
 16777215
370
     9
100
AcDbVertex
100
AcDb2dVertex
 10
0.1004245333950328
 20
-182.9989935523406
 30
0.0
  0
VERTEX
  5
9E
330
9C
100
AcDbEntity
  8
Capa 1
 62
     7
420
 16777215
370
     9
100
AcDbVertex
100
AcDb2dVertex
 10
1.255565049599303
 20
-181.8466091125245
 30
0.0
  0
SEQEND
  5
9F
330
9C
100
AcDbEntity
  8
Capa 1
370
     9
  0
POLYLINE
  5
A0
330
1F
100
AcDbEntity
  8
Capa 1
 62
     7
420
 16777215
370
     9
100
AcDb2dPolyline
 66
     1
 10
0.0
 20
0.0
 30
0.0
  0
VERTEX
  5
A1
330
A0
100
AcDbEntity
  8
Capa 1
 62
     7
420
 16777215
370
     9
100
AcDbVertex
100
AcDb2dVertex
 10
11.62495795065279
 20
-181.8466091125245
 30
0.0
  0
VERTEX
  5
A2
330
A0
100
AcDbEntity
  8
Capa 1
 62
     7
420
 16777215
370
     9
100
AcDbVertex
100
AcDb2dVertex
 10
12.78009846685706
 20
-182.9989935523406
 30
0.0
  0
SEQEND
  5
A3
330
A0
100
AcDbEntity
  8
Capa 1
370
     9
  0
POLYLINE
  5
A4
330
1F
100
AcDbEntity
  8
Capa 1
 62
     7
420
 16777215
370
     9
100
AcDb2dPolyline
 66
     1
 10
0.0
 20
0.0
 30
0.0
  0
VERTEX
  5
A5
330
A4
100
AcDbEntity
  8
Capa 1
 62
     7
420
 16777215
370
     9
100
AcDbVertex
100
AcDb2dVertex
 10
12.78009846685706
 20
-182.9989935523406
 30
0.0
  0
VERTEX
  5
A6
330
A4
100
AcDbEntity
  8
Capa 1
 62
     7
420
 16777215
370
     9
100
AcDbVertex
100
AcDb2dVertex
 10
12.78009846685706
 20
-185.880815925752
 30
0.0
  0
SEQEND
  5
A7
330
A4
100
AcDbEntity
  8
Capa 1
370
     9
  0
POLYLINE
  5
A8
330
1F
100
AcDbEntity
  8
Capa 1
 62
     7
420
 16777215
370
     9
100
AcDb2dPolyline
 66
     1
 10
0.0
 20
0.0
 30
0.0
  0
VERTEX
  5
A9
330
A8
100
AcDbEntity
  8
Capa 1
 62
     7
420
 16777215
370
     9
100
AcDbVertex
100
AcDb2dVertex
 10
0.1004245333950328
 20
-185.880815925752
 30
0.0
  0
VERTEX
  5
AA
330
A8
100
AcDbEntity
  8
Capa 1
 62
     7
420
 16777215
370
     9
100
AcDbVertex
100
AcDb2dVertex
 10
0.1004245333950328
 20
-182.9989935523406
 30
0.0
  0
SEQEND
  5
AB
330
A8
100
AcDbEntity
  8
Capa 1
370
     9
  0
POLYLINE
  5
AC
330
1F
100
AcDbEntity
  8
Capa 1
 62
     7
420
 16777215
370
     9
100
AcDb2dPolyline
 66
     1
 10
0.0
 20
0.0
 30
0.0
  0
VERTEX
  5
AD
330
AC
100
AcDbEntity
  8
Capa 1
 62
     7
420
 16777215
370
     9
100
AcDbVertex
100
AcDb2dVertex
 10
57.92101235531142
 20
-182.9989935523406
 30
0.0
  0
VERTEX
  5
AE
330
AC
100
AcDbEntity
  8
Capa 1
 62
     7
420
 16777215
370
     9
100
AcDbVertex
100
AcDb2dVertex
 10
59.07167424738486
 20
-181.8466091125245
 30
0.0
  0
SEQEND
  5
AF
330
AC
100
AcDbEntity
  8
Capa 1
370
     9
  0
POLYLINE
  5
B0
330
1F
100
AcDbEntity
  8
Capa 1
 62
     7
420
 16777215
370
     9
100
AcDb2dPolyline
 66
     1
 10
0.0
 20
0.0
 30
0.0
  0
VERTEX
  5
B1
330
B0
100
AcDbEntity
  8
Capa 1
 62
     7
420
 16777215
370
     9
100
AcDbVertex
100
AcDb2dVertex
 10
69.44520126302065
 20
-181.8466091125245
 30
0.0
  0
VERTEX
  5
B2
330
B0
100
AcDbEntity
  8
Capa 1
 62
     7
420
 16777215
370
     9
100
AcDbVertex
100
AcDb2dVertex
 10
70.59620766464262
 20
-182.9989935523406
 30
0.0
  0
SEQEND
  5
B3
330
B0
100
AcDbEntity
  8
Capa 1
370
     9
  0
POLYLINE
  5
B4
330
1F
100
AcDbEntity
  8
Capa 1
 62
     7
420
 16777215
370
     9
100
AcDb2dPolyline
 66
     1
 10
0.0
 20
0.0
 30
0.0
  0
VERTEX
  5
B5
330
B4
100
AcDbEntity
  8
Capa 1
 62
     7
420
 16777215
370
     9
100
AcDbVertex
100
AcDb2dVertex
 10
70.59620766464262
 20
-185.880815925752
 30
0.0
  0
VERTEX
  5
B6
330
B4
100
AcDbEntity
  8
Capa 1
 62
     7
420
 16777215
370
     9
100
AcDbVertex
100
AcDb2dVertex
 10
69.44520126302065
 20
-187.0328558560196
 30
0.0
  0
SEQEND
  5
B7
330
B4
100
AcDbEntity
  8
Capa 1
370
     9
  0
POLYLINE
  5
B8
330
1F
100
AcDbEntity
  8
Capa 1
 62
     7
420
 16777215
370
     9
100
AcDb2dPolyline
 66
     1
 10
0.0
 20
0.0
 30
0.0
  0
VERTEX
  5
B9
330
B8
100
AcDbEntity
  8
Capa 1
 62
     7
420
 16777215
370
     9
100
AcDbVertex
100
AcDb2dVertex
 10
58.88202174092186
 20
-186.839585999297
 30
0.0
  0
VERTEX
  5
BA
330
B8
100
AcDbEntity
  8
Capa 1
 62
     7
420
 16777215
370
     9
100
AcDbVertex
100
AcDb2dVertex
 10
57.92101235531142
 20
-185.880815925752
 30
0.0
  0
SEQEND
  5
BB
330
B8
100
AcDbEntity
  8
Capa 1
370
     9
  0
POLYLINE
  5
BC
330
1F
100
AcDbEntity
  8
Capa 1
 62
     7
420
 16777215
370
     9
100
AcDb2dPolyline
 66
     1
 10
0.0
 20
0.0
 30
0.0
  0
VERTEX
  5
BD
330
BC
100
AcDbEntity
  8
Capa 1
 62
     7
420
 16777215
370
     9
100
AcDbVertex
100
AcDb2dVertex
 10
70.59620766464262
 20
-182.9989935523406
 30
0.0
  0
VERTEX
  5
BE
330
BC
100
AcDbEntity
  8
Capa 1
 62
     7
420
 16777215
370
     9
100
AcDbVertex
100
AcDb2dVertex
 10
70.59620766464262
 20
-185.880815925752
 30
0.0
  0
SEQEND
  5
BF
330
BC
100
AcDbEntity
  8
Capa 1
370
     9
  0
POLYLINE
  5
C0
330
1F
100
AcDbEntity
  8
Capa 1
 62
     7
420
 16777215
370
     9
100
AcDb2dPolyline
 66
     1
 10
0.0
 20
0.0
 30
0.0
  0
VERTEX
  5
C1
330
C0
100
AcDbEntity
  8
Capa 1
 62
     7
420
 16777215
370
     9
100
AcDbVertex
100
AcDb2dVertex
 10
57.92101235531142
 20
-185.880815925752
 30
0.0
  0
VERTEX
  5
C2
330
C0
100
AcDbEntity
  8
Capa 1
 62
     7
420
 16777215
370
     9
100
AcDbVertex
100
AcDb2dVertex
 10
57.92101235531142
 20
-182.9989935523406
 30
0.0
  0
SEQEND
  5
C3
330
C0
100
AcDbEntity
  8
Capa 1
370
     9
  0
POLYLINE
  5
C4
330
1F
100
AcDbEntity
  8
Capa 1
 62
     7
420
 16777215
370
     9
100
AcDb2dPolyline
 66
     1
 10
0.0
 20
0.0
 30
0.0
  0
VERTEX
  5
C5
330
C4
100
AcDbEntity
  8
Capa 1
 62
     7
420
 16777215
370
     9
100
AcDbVertex
100
AcDb2dVertex
 10
57.92101235531142
 20
-182.9989935523406
 30
0.0
  0
VERTEX
  5
C6
330
C4
100
AcDbEntity
  8
Capa 1
 62
     7
420
 16777215
370
     9
100
AcDbVertex
100
AcDb2dVertex
 10
59.07167424738486
 20
-181.8466091125245
 30
0.0
  0
SEQEND
  5
C7
330
C4
100
AcDbEntity
  8
Capa 1
370
     9
  0
POLYLINE
  5
C8
330
1F
100
AcDbEntity
  8
Capa 1
 62
     7
420
 16777215
370
     9
100
AcDb2dPolyline
 66
     1
 10
0.0
 20
0.0
 30
0.0
  0
VERTEX
  5
C9
330
C8
100
AcDbEntity
  8
Capa 1
 62
     7
420
 16777215
370
     9
100
AcDbVertex
100
AcDb2dVertex
 10
69.44520126302065
 20
-181.8466091125245
 30
0.0
  0
VERTEX
  5
CA
330
C8
100
AcDbEntity
  8
Capa 1
 62
     7
420
 16777215
370
     9
100
AcDbVertex
100
AcDb2dVertex
 10
70.59620766464262
 20
-182.9989935523406
 30
0.0
  0
SEQEND
  5
CB
330
C8
100
AcDbEntity
  8
Capa 1
370
     9
  0
POLYLINE
  5
CC
330
1F
100
AcDbEntity
  8
Capa 1
 62
     7
420
 16777215
370
     9
100
AcDb2dPolyline
 66
     1
 10
0.0
 20
0.0
 30
0.0
  0
VERTEX
  5
CD
330
CC
100
AcDbEntity
  8
Capa 1
 62
     7
420
 16777215
370
     9
100
AcDbVertex
100
AcDb2dVertex
 10
70.59620766464262
 20
-185.880815925752
 30
0.0
  0
VERTEX
  5
CE
330
CC
100
AcDbEntity
  8
Capa 1
 62
     7
420
 16777215
370
     9
100
AcDbVertex
100
AcDb2dVertex
 10
69.44520126302065
 20
-187.0328558560196
 30
0.0
  0
SEQEND
  5
CF
330
CC
100
AcDbEntity
  8
Capa 1
370
     9
  0
POLYLINE
  5
D0
330
1F
100
AcDbEntity
  8
Capa 1
 62
     7
420
 16777215
370
     9
100
AcDb2dPolyline
 66
     1
 10
0.0
 20
0.0
 30
0.0
  0
VERTEX
  5
D1
330
D0
100
AcDbEntity
  8
Capa 1
 62
     7
420
 16777215
370
     9
100
AcDbVertex
100
AcDb2dVertex
 10
58.88202174092186
 20
-186.839585999297
 30
0.0
  0
VERTEX
  5
D2
330
D0
100
AcDbEntity
  8
Capa 1
 62
     7
420
 16777215
370
     9
100
AcDbVertex
100
AcDb2dVertex
 10
57.92101235531142
 20
-185.880815925752
 30
0.0
  0
SEQEND
  5
D3
330
D0
100
AcDbEntity
  8
Capa 1
370
     9
  0
POLYLINE
  5
D4
330
1F
100
AcDbEntity
  8
Capa 1
 62
     7
420
 16777215
370
     9
100
AcDb2dPolyline
 66
     1
 10
0.0
 20
0.0
 30
0.0
  0
VERTEX
  5
D5
330
D4
100
AcDbEntity
  8
Capa 1
 62
     7
420
 16777215
370
     9
100
AcDbVertex
100
AcDb2dVertex
 10
70.59620766464262
 20
-182.9989935523406
 30
0.0
  0
VERTEX
  5
D6
330
D4
100
AcDbEntity
  8
Capa 1
 62
     7
420
 16777215
370
     9
100
AcDbVertex
100
AcDb2dVertex
 10
70.59620766464262
 20
-185.880815925752
 30
0.0
  0
SEQEND
  5
D7
330
D4
100
AcDbEntity
  8
Capa 1
370
     9
  0
POLYLINE
  5
D8
330
1F
100
AcDbEntity
  8
Capa 1
 62
     7
420
 16777215
370
     9
100
AcDb2dPolyline
 66
     1
 10
0.0
 20
0.0
 30
0.0
  0
VERTEX
  5
D9
330
D8
100
AcDbEntity
  8
Capa 1
 62
     7
420
 16777215
370
     9
100
AcDbVertex
100
AcDb2dVertex
 10
57.92101235531142
 20
-185.880815925752
 30
0.0
  0
VERTEX
  5
DA
330
D8
100
AcDbEntity
  8
Capa 1
 62
     7
420
 16777215
370
     9
100
AcDbVertex
100
AcDb2dVertex
 10
57.92101235531142
 20
-182.9989935523406
 30
0.0
  0
SEQEND
  5
DB
330
D8
100
AcDbEntity
  8
Capa 1
370
     9
  0
POLYLINE
  5
DC
330
1F
100
AcDbEntity
  8
Capa 1
 62
     7
420
 16777215
370
     9
100
AcDb2dPolyline
 66
     1
 10
0.0
 20
0.0
 30
0.0
  0
VERTEX
  5
DD
330
DC
100
AcDbEntity
  8
Capa 1
 62
     7
420
 16777215
370
     9
100
AcDbVertex
100
AcDb2dVertex
 10
57.94667831667653
 20
-182.9989935523406
 30
0.0
  0
VERTEX
  5
DE
330
DC
100
AcDbEntity
  8
Capa 1
 62
     7
420
 16777215
370
     9
100
AcDbVertex
100
AcDb2dVertex
 10
57.94667831667653
 20
-185.880815925752
 30
0.0
  0
SEQEND
  5
DF
330
DC
100
AcDbEntity
  8
Capa 1
370
     9
  0
POLYLINE
  5
E0
330
1F
100
AcDbEntity
  8
Capa 1
 62
     7
420
 16777215
370
     9
100
AcDb2dPolyline
 66
     1
 10
0.0
 20
0.0
 30
0.0
  0
VERTEX
  5
E1
330
E0
100
AcDbEntity
  8
Capa 1
 62
     7
420
 16777215
370
     9
100
AcDbVertex
100
AcDb2dVertex
 10
70.57054170327751
 20
-185.880815925752
 30
0.0
  0
VERTEX
  5
E2
330
E0
100
AcDbEntity
  8
Capa 1
 62
     7
420
 16777215
370
     9
100
AcDbVertex
100
AcDb2dVertex
 10
70.59620766464262
 20
-185.880815925752
 30
0.0
  0
SEQEND
  5
E3
330
E0
100
AcDbEntity
  8
Capa 1
370
     9
  0
POLYLINE
  5
E4
330
1F
100
AcDbEntity
  8
Capa 1
 62
     7
420
 16777215
370
     9
100
AcDb2dPolyline
 66
     1
 10
0.0
 20
0.0
 30
0.0
  0
VERTEX
  5
E5
330
E4
100
AcDbEntity
  8
Capa 1
 62
     7
420
 16777215
370
     9
100
AcDbVertex
100
AcDb2dVertex
 10
67.9284979756394
 20
-185.880815925752
 30
0.0
  0
VERTEX
  5
E6
330
E4
100
AcDbEntity
  8
Capa 1
 62
     7
420
 16777215
370
     9
100
AcDbVertex
100
AcDb2dVertex
 10
66.8984144255497
 20
-185.880815925752
 30
0.0
  0
SEQEND
  5
E7
330
E4
100
AcDbEntity
  8
Capa 1
370
     9
  0
POLYLINE
  5
E8
330
1F
100
AcDbEntity
  8
Capa 1
 62
     7
420
 16777215
370
     9
100
AcDb2dPolyline
 66
     1
 10
0.0
 20
0.0
 30
0.0
  0
VERTEX
  5
E9
330
E8
100
AcDbEntity
  8
Capa 1
 62
     7
420
 16777215
370
     9
100
AcDbVertex
100
AcDb2dVertex
 10
61.61880559440433
 20
-185.880815925752
 30
0.0
  0
VERTEX
  5
EA
330
E8
100
AcDbEntity
  8
Capa 1
 62
     7
420
 16777215
370
     9
100
AcDbVertex
100
AcDb2dVertex
 10
60.58872204431463
 20
-185.880815925752
 30
0.0
  0
SEQEND
  5
EB
330
E8
100
AcDbEntity
  8
Capa 1
370
     9
  0
POLYLINE
  5
EC
330
1F
100
AcDbEntity
  8
Capa 1
 62
     7
420
 16777215
370
     9
100
AcDb2dPolyline
 66
     1
 10
0.0
 20
0.0
 30
0.0
  0
VERTEX
  5
ED
330
EC
100
AcDbEntity
  8
Capa 1
 62
     7
420
 16777215
370
     9
100
AcDbVertex
100
AcDb2dVertex
 10
57.94667831667653
 20
-185.880815925752
 30
0.0
  0
VERTEX
  5
EE
330
EC
100
AcDbEntity
  8
Capa 1
 62
     7
420
 16777215
370
     9
100
AcDbVertex
100
AcDb2dVertex
 10
57.92101235531142
 20
-185.880815925752
 30
0.0
  0
SEQEND
  5
EF
330
EC
100
AcDbEntity
  8
Capa 1
370
     9
  0
POLYLINE
  5
F0
330
1F
100
AcDbEntity
  8
Capa 1
 62
     7
420
 16777215
370
     9
100
AcDb2dPolyline
 66
     1
 10
0.0
 20
0.0
 30
0.0
  0
VERTEX
  5
F1
330
F0
100
AcDbEntity
  8
Capa 1
 62
     7
420
 16777215
370
     9
100
AcDbVertex
100
AcDb2dVertex
 10
70.57054170327751
 20
-185.880815925752
 30
0.0
  0
VERTEX
  5
F2
330
F0
100
AcDbEntity
  8
Capa 1
 62
     7
420
 16777215
370
     9
100
AcDbVertex
100
AcDb2dVertex
 10
70.57054170327751
 20
-182.9989935523406
 30
0.0
  0
SEQEND
  5
F3
330
F0
100
AcDbEntity
  8
Capa 1
370
     9
  0
POLYLINE
  5
F4
330
1F
100
AcDbEntity
  8
Capa 1
 62
     7
420
 16777215
370
     9
100
AcDb2dPolyline
 66
     1
 10
0.0
 20
0.0
 30
0.0
  0
VERTEX
  5
F5
330
F4
100
AcDbEntity
  8
Capa 1
 62
     7
420
 16777215
370
     9
100
AcDbVertex
100
AcDb2dVertex
 10
64.2563706979116
 20
-187.0328558560196
 30
0.0
  0
VERTEX
  5
F6
330
F4
100
AcDbEntity
  8
Capa 1
 62
     7
420
 16777215
370
     9
100
AcDbVertex
100
AcDb2dVertex
 10
69.44520126302065
 20
-187.0328558560196
 30
0.0
  0
SEQEND
  5
F7
330
F4
100
AcDbEntity
  8
Capa 1
370
     9
  0
POLYLINE
  5
F8
330
1F
100
AcDbEntity
  8
Capa 1
 62
     7
420
 16777215
370
     9
100
AcDb2dPolyline
 66
     1
 10
0.0
 20
0.0
 30
0.0
  0
VERTEX
  5
F9
330
F8
100
AcDbEntity
  8
Capa 1
 62
     7
420
 16777215
370
     9
100
AcDbVertex
100
AcDb2dVertex
 10
59.7741292168273
 20
-187.0328558560196
 30
0.0
  0
VERTEX
  5
FA
330
F8
100
AcDbEntity
  8
Capa 1
 62
     7
420
 16777215
370
     9
100
AcDbVertex
100
AcDb2dVertex
 10
64.2563706979116
 20
-187.0328558560196
 30
0.0
  0
SEQEND
  5
FB
330
F8
100
AcDbEntity
  8
Capa 1
370
     9
  0
POLYLINE
  5
FC
330
1F
100
AcDbEntity
  8
Capa 1
 62
     7
420
 16777215
370
     9
100
AcDb2dPolyline
 66
     1
 10
0.0
 20
0.0
 30
0.0
  0
VERTEX
  5
FD
330
FC
100
AcDbEntity
  8
Capa 1
 62
     7
420
 16777215
370
     9
100
AcDbVertex
100
AcDb2dVertex
 10
61.61880559440433
 20
-182.9989935523406
 30
0.0
  0
VERTEX
  5
FE
330
FC
100
AcDbEntity
  8
Capa 1
 62
     7
420
 16777215
370
     9
100
AcDbVertex
100
AcDb2dVertex
 10
61.61880559440433
 20
-185.880815925752
 30
0.0
  0
SEQEND
  5
FF
330
FC
100
AcDbEntity
  8
Capa 1
370
     9
  0
POLYLINE
  5
100
330
1F
100
AcDbEntity
  8
Capa 1
 62
     7
420
 16777215
370
     9
100
AcDb2dPolyline
 66
     1
 10
0.0
 20
0.0
 30
0.0
  0
VERTEX
  5
101
330
100
100
AcDbEntity
  8
Capa 1
 62
     7
420
 16777215
370
     9
100
AcDbVertex
100
AcDb2dVertex
 10
60.58872204431463
 20
-182.9989935523406
 30
0.0
  0
VERTEX
  5
102
330
100
100
AcDbEntity
  8
Capa 1
 62
     7
420
 16777215
370
     9
100
AcDbVertex
100
AcDb2dVertex
 10
61.61880559440433
 20
-182.9989935523406
 30
0.0
  0
SEQEND
  5
103
330
100
100
AcDbEntity
  8
Capa 1
370
     9
  0
POLYLINE
  5
104
330
1F
100
AcDbEntity
  8
Capa 1
 62
     7
420
 16777215
370
     9
100
AcDb2dPolyline
 66
     1
 10
0.0
 20
0.0
 30
0.0
  0
VERTEX
  5
105
330
104
100
AcDbEntity
  8
Capa 1
 62
     7
420
 16777215
370
     9
100
AcDbVertex
100
AcDb2dVertex
 10
60.58872204431463
 20
-185.880815925752
 30
0.0
  0
VERTEX
  5
106
330
104
100
AcDbEntity
  8
Capa 1
 62
     7
420
 16777215
370
     9
100
AcDbVertex
100
AcDb2dVertex
 10
60.58872204431463
 20
-182.9989935523406
 30
0.0
  0
SEQEND
  5
107
330
104
100
AcDbEntity
  8
Capa 1
370
     9
  0
POLYLINE
  5
108
330
1F
100
AcDbEntity
  8
Capa 1
 62
     7
420
 16777215
370
     9
100
AcDb2dPolyline
 66
     1
 10
0.0
 20
0.0
 30
0.0
  0
VERTEX
  5
109
330
108
100
AcDbEntity
  8
Capa 1
 62
     7
420
 16777215
370
     9
100
AcDbVertex
100
AcDb2dVertex
 10
66.8984144255497
 20
-182.9989935523406
 30
0.0
  0
VERTEX
  5
10A
330
108
100
AcDbEntity
  8
Capa 1
 62
     7
420
 16777215
370
     9
100
AcDbVertex
100
AcDb2dVertex
 10
67.9284979756394
 20
-182.9989935523406
 30
0.0
  0
SEQEND
  5
10B
330
108
100
AcDbEntity
  8
Capa 1
370
     9
  0
POLYLINE
  5
10C
330
1F
100
AcDbEntity
  8
Capa 1
 62
     7
420
 16777215
370
     9
100
AcDb2dPolyline
 66
     1
 10
0.0
 20
0.0
 30
0.0
  0
VERTEX
  5
10D
330
10C
100
AcDbEntity
  8
Capa 1
 62
     7
420
 16777215
370
     9
100
AcDbVertex
100
AcDb2dVertex
 10
70.57054170327751
 20
-182.9989935523406
 30
0.0
  0
VERTEX
  5
10E
330
10C
100
AcDbEntity
  8
Capa 1
 62
     7
420
 16777215
370
     9
100
AcDbVertex
100
AcDb2dVertex
 10
70.59620766464262
 20
-182.9989935523406
 30
0.0
  0
SEQEND
  5
10F
330
10C
100
AcDbEntity
  8
Capa 1
370
     9
  0
POLYLINE
  5
110
330
1F
100
AcDbEntity
  8
Capa 1
 62
     7
420
 16777215
370
     9
100
AcDb2dPolyline
 66
     1
 10
0.0
 20
0.0
 30
0.0
  0
VERTEX
  5
111
330
110
100
AcDbEntity
  8
Capa 1
 62
     7
420
 16777215
370
     9
100
AcDbVertex
100
AcDb2dVertex
 10
57.94667831667653
 20
-182.9989935523406
 30
0.0
  0
VERTEX
  5
112
330
110
100
AcDbEntity
  8
Capa 1
 62
     7
420
 16777215
370
     9
100
AcDbVertex
100
AcDb2dVertex
 10
57.92101235531142
 20
-182.9989935523406
 30
0.0
  0
SEQEND
  5
113
330
110
100
AcDbEntity
  8
Capa 1
370
     9
  0
POLYLINE
  5
114
330
1F
100
AcDbEntity
  8
Capa 1
 62
     7
420
 16777215
370
     9
100
AcDb2dPolyline
 66
     1
 10
0.0
 20
0.0
 30
0.0
  0
VERTEX
  5
115
330
114
100
AcDbEntity
  8
Capa 1
 62
     7
420
 16777215
370
     9
100
AcDbVertex
100
AcDb2dVertex
 10
66.8984144255497
 20
-185.880815925752
 30
0.0
  0
VERTEX
  5
116
330
114
100
AcDbEntity
  8
Capa 1
 62
     7
420
 16777215
370
     9
100
AcDbVertex
100
AcDb2dVertex
 10
66.8984144255497
 20
-182.9989935523406
 30
0.0
  0
SEQEND
  5
117
330
114
100
AcDbEntity
  8
Capa 1
370
     9
  0
POLYLINE
  5
118
330
1F
100
AcDbEntity
  8
Capa 1
 62
     7
420
 16777215
370
     9
100
AcDb2dPolyline
 66
     1
 10
0.0
 20
0.0
 30
0.0
  0
VERTEX
  5
119
330
118
100
AcDbEntity
  8
Capa 1
 62
     7
420
 16777215
370
     9
100
AcDbVertex
100
AcDb2dVertex
 10
67.9284979756394
 20
-182.9989935523406
 30
0.0
  0
VERTEX
  5
11A
330
118
100
AcDbEntity
  8
Capa 1
 62
     7
420
 16777215
370
     9
100
AcDbVertex
100
AcDb2dVertex
 10
67.9284979756394
 20
-185.880815925752
 30
0.0
  0
SEQEND
  5
11B
330
118
100
AcDbEntity
  8
Capa 1
370
     9
  0
POLYLINE
  5
11C
330
1F
100
AcDbEntity
  8
Capa 1
 62
     7
420
 16777215
370
     9
100
AcDb2dPolyline
 66
     1
 10
0.0
 20
0.0
 30
0.0
  0
VERTEX
  5
11D
330
11C
100
AcDbEntity
  8
Capa 1
 62
     7
420
 16777215
370
     9
100
AcDbVertex
100
AcDb2dVertex
 10
70.57054170327751
 20
-185.880815925752
 30
0.0
  0
VERTEX
  5
11E
330
11C
100
AcDbEntity
  8
Capa 1
 62
     7
420
 16777215
370
     9
100
AcDbVertex
100
AcDb2dVertex
 10
70.57054170327751
 20
-182.9989935523406
 30
0.0
  0
SEQEND
  5
11F
330
11C
100
AcDbEntity
  8
Capa 1
370
     9
  0
POLYLINE
  5
120
330
1F
100
AcDbEntity
  8
Capa 1
 62
     7
420
 16777215
370
     9
100
AcDb2dPolyline
 66
     1
 10
0.0
 20
0.0
 30
0.0
  0
VERTEX
  5
121
330
120
100
AcDbEntity
  8
Capa 1
 62
     7
420
 16777215
370
     9
100
AcDbVertex
100
AcDb2dVertex
 10
57.94667831667653
 20
-182.9989935523406
 30
0.0
  0
VERTEX
  5
122
330
120
100
AcDbEntity
  8
Capa 1
 62
     7
420
 16777215
370
     9
100
AcDbVertex
100
AcDb2dVertex
 10
57.94667831667653
 20
-185.880815925752
 30
0.0
  0
SEQEND
  5
123
330
120
100
AcDbEntity
  8
Capa 1
370
     9
  0
POLYLINE
  5
124
330
1F
100
AcDbEntity
  8
Capa 1
 62
     7
420
 16777215
370
     9
100
AcDb2dPolyline
 66
     1
 10
0.0
 20
0.0
 30
0.0
  0
VERTEX
  5
125
330
124
100
AcDbEntity
  8
Capa 1
 62
     7
420
 16777215
370
     9
100
AcDbVertex
100
AcDb2dVertex
 10
19.50354681587064
 20
-174.931613454531
 30
0.0
  0
VERTEX
  5
126
330
124
100
AcDbEntity
  8
Capa 1
 62
     7
420
 16777215
370
     9
100
AcDbVertex
100
AcDb2dVertex
 10
-6.622851560844287
 20
-174.931613454531
 30
0.0
  0
SEQEND
  5
127
330
124
100
AcDbEntity
  8
Capa 1
370
     9
  0
POLYLINE
  5
128
330
1F
100
AcDbEntity
  8
Capa 1
 62
     7
420
 16777215
370
     9
100
AcDb2dPolyline
 66
     1
 10
0.0
 20
0.0
 30
0.0
  0
VERTEX
  5
129
330
128
100
AcDbEntity
  8
Capa 1
 62
     7
420
 16777215
370
     9
100
AcDbVertex
100
AcDb2dVertex
 10
67.9284979756394
 20
-182.9989935523406
 30
0.0
  0
VERTEX
  5
12A
330
128
100
AcDbEntity
  8
Capa 1
 62
     7
420
 16777215
370
     9
100
AcDbVertex
100
AcDb2dVertex
 10
67.9284979756394
 20
-185.880815925752
 30
0.0
  0
SEQEND
  5
12B
330
128
100
AcDbEntity
  8
Capa 1
370
     9
  0
POLYLINE
  5
12C
330
1F
100
AcDbEntity
  8
Capa 1
 62
     7
420
 16777215
370
     9
100
AcDb2dPolyline
 66
     1
 10
0.0
 20
0.0
 30
0.0
  0
VERTEX
  5
12D
330
12C
100
AcDbEntity
  8
Capa 1
 62
     7
420
 16777215
370
     9
100
AcDbVertex
100
AcDb2dVertex
 10
66.8984144255497
 20
-185.880815925752
 30
0.0
  0
VERTEX
  5
12E
330
12C
100
AcDbEntity
  8
Capa 1
 62
     7
420
 16777215
370
     9
100
AcDbVertex
100
AcDb2dVertex
 10
66.8984144255497
 20
-182.9989935523406
 30
0.0
  0
SEQEND
  5
12F
330
12C
100
AcDbEntity
  8
Capa 1
370
     9
  0
POLYLINE
  5
130
330
1F
100
AcDbEntity
  8
Capa 1
 62
     7
420
 16777215
370
     9
100
AcDb2dPolyline
 66
     1
 10
0.0
 20
0.0
 30
0.0
  0
VERTEX
  5
131
330
130
100
AcDbEntity
  8
Capa 1
 62
     7
420
 16777215
370
     9
100
AcDbVertex
100
AcDb2dVertex
 10
64.2563706979116
 20
-187.0328558560196
 30
0.0
  0
VERTEX
  5
132
330
130
100
AcDbEntity
  8
Capa 1
 62
     7
420
 16777215
370
     9
100
AcDbVertex
100
AcDb2dVertex
 10
69.44520126302065
 20
-187.0328558560196
 30
0.0
  0
SEQEND
  5
133
330
130
100
AcDbEntity
  8
Capa 1
370
     9
  0
POLYLINE
  5
134
330
1F
100
AcDbEntity
  8
Capa 1
 62
     7
420
 16777215
370
     9
100
AcDb2dPolyline
 66
     1
 10
0.0
 20
0.0
 30
0.0
  0
VERTEX
  5
135
330
134
100
AcDbEntity
  8
Capa 1
 62
     7
420
 16777215
370
     9
100
AcDbVertex
100
AcDb2dVertex
 10
59.7741292168273
 20
-187.0328558560196
 30
0.0
  0
VERTEX
  5
136
330
134
100
AcDbEntity
  8
Capa 1
 62
     7
420
 16777215
370
     9
100
AcDbVertex
100
AcDb2dVertex
 10
64.2563706979116
 20
-187.0328558560196
 30
0.0
  0
SEQEND
  5
137
330
134
100
AcDbEntity
  8
Capa 1
370
     9
  0
POLYLINE
  5
138
330
1F
100
AcDbEntity
  8
Capa 1
 62
     7
420
 16777215
370
     9
100
AcDb2dPolyline
 66
     1
 10
0.0
 20
0.0
 30
0.0
  0
VERTEX
  5
139
330
138
100
AcDbEntity
  8
Capa 1
 62
     7
420
 16777215
370
     9
100
AcDbVertex
100
AcDb2dVertex
 10
12.37512749256594
 20
-181.8466091125245
 30
0.0
  0
VERTEX
  5
13A
330
138
100
AcDbEntity
  8
Capa 1
 62
     7
420
 16777215
370
     9
100
AcDbVertex
100
AcDb2dVertex
 10
0.5055677624604137
 20
-181.8466091125245
 30
0.0
  0
SEQEND
  5
13B
330
138
100
AcDbEntity
  8
Capa 1
370
     9
  0
POLYLINE
  5
13C
330
1F
100
AcDbEntity
  8
Capa 1
 62
     7
420
 16777215
370
     9
100
AcDb2dPolyline
 66
     1
 10
0.0
 20
0.0
 30
0.0
  0
VERTEX
  5
13D
330
13C
100
AcDbEntity
  8
Capa 1
 62
     7
420
 16777215
370
     9
100
AcDbVertex
100
AcDb2dVertex
 10
57.94667831667653
 20
-185.880815925752
 30
0.0
  0
VERTEX
  5
13E
330
13C
100
AcDbEntity
  8
Capa 1
 62
     7
420
 16777215
370
     9
100
AcDbVertex
100
AcDb2dVertex
 10
57.92101235531142
 20
-185.880815925752
 30
0.0
  0
SEQEND
  5
13F
330
13C
100
AcDbEntity
  8
Capa 1
370
     9
  0
POLYLINE
  5
140
330
1F
100
AcDbEntity
  8
Capa 1
 62
     7
420
 16777215
370
     9
100
AcDb2dPolyline
 66
     1
 10
0.0
 20
0.0
 30
0.0
  0
VERTEX
  5
141
330
140
100
AcDbEntity
  8
Capa 1
 62
     7
420
 16777215
370
     9
100
AcDbVertex
100
AcDb2dVertex
 10
77.31913924933342
 20
-174.931613454531
 30
0.0
  0
VERTEX
  5
142
330
140
100
AcDbEntity
  8
Capa 1
 62
     7
420
 16777215
370
     9
100
AcDbVertex
100
AcDb2dVertex
 10
51.19773626107209
 20
-174.931613454531
 30
0.0
  0
SEQEND
  5
143
330
140
100
AcDbEntity
  8
Capa 1
370
     9
  0
POLYLINE
  5
144
330
1F
100
AcDbEntity
  8
Capa 1
 62
     7
420
 16777215
370
     9
100
AcDb2dPolyline
 66
     1
 10
0.0
 20
0.0
 30
0.0
  0
VERTEX
  5
145
330
144
100
AcDbEntity
  8
Capa 1
 62
     7
420
 16777215
370
     9
100
AcDbVertex
100
AcDb2dVertex
 10
70.19571531448233
 20
-181.8466091125245
 30
0.0
  0
VERTEX
  5
146
330
144
100
AcDbEntity
  8
Capa 1
 62
     7
420
 16777215
370
     9
100
AcDbVertex
100
AcDb2dVertex
 10
58.32167696024597
 20
-181.8466091125245
 30
0.0
  0
SEQEND
  5
147
330
144
100
AcDbEntity
  8
Capa 1
370
     9
  0
POLYLINE
  5
148
330
1F
100
AcDbEntity
  8
Capa 1
 62
     7
420
 16777215
370
     9
100
AcDb2dPolyline
 66
     1
 10
0.0
 20
0.0
 30
0.0
  0
VERTEX
  5
149
330
148
100
AcDbEntity
  8
Capa 1
 62
     7
420
 16777215
370
     9
100
AcDbVertex
100
AcDb2dVertex
 10
3.798217772487946
 20
-182.9989935523406
 30
0.0
  0
VERTEX
  5
14A
330
148
100
AcDbEntity
  8
Capa 1
 62
     7
420
 16777215
370
     9
100
AcDbVertex
100
AcDb2dVertex
 10
3.798217772487946
 20
-185.880815925752
 30
0.0
  0
SEQEND
  5
14B
330
148
100
AcDbEntity
  8
Capa 1
370
     9
  0
POLYLINE
  5
14C
330
1F
100
AcDbEntity
  8
Capa 1
 62
     7
420
 16777215
370
     9
100
AcDb2dPolyline
 66
     1
 10
0.0
 20
0.0
 30
0.0
  0
VERTEX
  5
14D
330
14C
100
AcDbEntity
  8
Capa 1
 62
     7
420
 16777215
370
     9
100
AcDbVertex
100
AcDb2dVertex
 10
2.772785101303332
 20
-182.9989935523406
 30
0.0
  0
VERTEX
  5
14E
330
14C
100
AcDbEntity
  8
Capa 1
 62
     7
420
 16777215
370
     9
100
AcDbVertex
100
AcDb2dVertex
 10
3.798217772487946
 20
-182.9989935523406
 30
0.0
  0
SEQEND
  5
14F
330
14C
100
AcDbEntity
  8
Capa 1
370
     9
  0
POLYLINE
  5
150
330
1F
100
AcDbEntity
  8
Capa 1
 62
     7
420
 16777215
370
     9
100
AcDb2dPolyline
 66
     1
 10
0.0
 20
0.0
 30
0.0
  0
VERTEX
  5
151
330
150
100
AcDbEntity
  8
Capa 1
 62
     7
420
 16777215
370
     9
100
AcDbVertex
100
AcDb2dVertex
 10
2.772785101303332
 20
-185.880815925752
 30
0.0
  0
VERTEX
  5
152
330
150
100
AcDbEntity
  8
Capa 1
 62
     7
420
 16777215
370
     9
100
AcDbVertex
100
AcDb2dVertex
 10
2.772785101303332
 20
-182.9989935523406
 30
0.0
  0
SEQEND
  5
153
330
150
100
AcDbEntity
  8
Capa 1
370
     9
  0
POLYLINE
  5
154
330
1F
100
AcDbEntity
  8
Capa 1
 62
     7
420
 16777215
370
     9
100
AcDb2dPolyline
 66
     1
 10
0.0
 20
0.0
 30
0.0
  0
VERTEX
  5
155
330
154
100
AcDbEntity
  8
Capa 1
 62
     7
420
 16777215
370
     9
100
AcDbVertex
100
AcDb2dVertex
 10
3.798217772487946
 20
-185.880815925752
 30
0.0
  0
VERTEX
  5
156
330
154
100
AcDbEntity
  8
Capa 1
 62
     7
420
 16777215
370
     9
100
AcDbVertex
100
AcDb2dVertex
 10
2.772785101303332
 20
-185.880815925752
 30
0.0
  0
SEQEND
  5
157
330
154
100
AcDbEntity
  8
Capa 1
370
     9
  0
POLYLINE
  5
158
330
1F
100
AcDbEntity
  8
Capa 1
 62
     7
420
 16777215
370
     9
100
AcDb2dPolyline
 66
     1
 10
0.0
 20
0.0
 30
0.0
  0
VERTEX
  5
159
330
158
100
AcDbEntity
  8
Capa 1
 62
     7
420
 16777215
370
     9
100
AcDbVertex
100
AcDb2dVertex
 10
9.082305227764147
 20
-185.880815925752
 30
0.0
  0
VERTEX
  5
15A
330
158
100
AcDbEntity
  8
Capa 1
 62
     7
420
 16777215
370
     9
100
AcDbVertex
100
AcDb2dVertex
 10
9.082305227764147
 20
-182.9989935523406
 30
0.0
  0
SEQEND
  5
15B
330
158
100
AcDbEntity
  8
Capa 1
370
     9
  0
POLYLINE
  5
15C
330
1F
100
AcDbEntity
  8
Capa 1
 62
     7
420
 16777215
370
     9
100
AcDb2dPolyline
 66
     1
 10
0.0
 20
0.0
 30
0.0
  0
VERTEX
  5
15D
330
15C
100
AcDbEntity
  8
Capa 1
 62
     7
420
 16777215
370
     9
100
AcDbVertex
100
AcDb2dVertex
 10
12.74995388136112
 20
-185.880815925752
 30
0.0
  0
VERTEX
  5
15E
330
15C
100
AcDbEntity
  8
Capa 1
 62
     7
420
 16777215
370
     9
100
AcDbVertex
100
AcDb2dVertex
 10
12.78009846685706
 20
-185.880815925752
 30
0.0
  0
SEQEND
  5
15F
330
15C
100
AcDbEntity
  8
Capa 1
370
     9
  0
POLYLINE
  5
160
330
1F
100
AcDbEntity
  8
Capa 1
 62
     7
420
 16777215
370
     9
100
AcDb2dPolyline
 66
     1
 10
0.0
 20
0.0
 30
0.0
  0
VERTEX
  5
161
330
160
100
AcDbEntity
  8
Capa 1
 62
     7
420
 16777215
370
     9
100
AcDbVertex
100
AcDb2dVertex
 10
10.11238877785385
 20
-185.880815925752
 30
0.0
  0
VERTEX
  5
162
330
160
100
AcDbEntity
  8
Capa 1
 62
     7
420
 16777215
370
     9
100
AcDbVertex
100
AcDb2dVertex
 10
9.082305227764147
 20
-185.880815925752
 30
0.0
  0
SEQEND
  5
163
330
160
100
AcDbEntity
  8
Capa 1
370
     9
  0
POLYLINE
  5
164
330
1F
100
AcDbEntity
  8
Capa 1
 62
     7
420
 16777215
370
     9
100
AcDb2dPolyline
 66
     1
 10
0.0
 20
0.0
 30
0.0
  0
VERTEX
  5
165
330
164
100
AcDbEntity
  8
Capa 1
 62
     7
420
 16777215
370
     9
100
AcDbVertex
100
AcDb2dVertex
 10
0.1307413736652313
 20
-185.880815925752
 30
0.0
  0
VERTEX
  5
166
330
164
100
AcDbEntity
  8
Capa 1
 62
     7
420
 16777215
370
     9
100
AcDbVertex
100
AcDb2dVertex
 10
0.1004245333950328
 20
-185.880815925752
 30
0.0
  0
SEQEND
  5
167
330
164
100
AcDbEntity
  8
Capa 1
370
     9
  0
POLYLINE
  5
168
330
1F
100
AcDbEntity
  8
Capa 1
 62
     7
420
 16777215
370
     9
100
AcDb2dPolyline
 66
     1
 10
0.0
 20
0.0
 30
0.0
  0
VERTEX
  5
169
330
168
100
AcDbEntity
  8
Capa 1
 62
     7
420
 16777215
370
     9
100
AcDbVertex
100
AcDb2dVertex
 10
6.440261500126046
 20
-187.0328558560196
 30
0.0
  0
VERTEX
  5
16A
330
168
100
AcDbEntity
  8
Capa 1
 62
     7
420
 16777215
370
     9
100
AcDbVertex
100
AcDb2dVertex
 10
10.92250298121035
 20
-187.0328558560196
 30
0.0
  0
SEQEND
  5
16B
330
168
100
AcDbEntity
  8
Capa 1
370
     9
  0
POLYLINE
  5
16C
330
1F
100
AcDbEntity
  8
Capa 1
 62
     7
420
 16777215
370
     9
100
AcDb2dPolyline
 66
     1
 10
0.0
 20
0.0
 30
0.0
  0
VERTEX
  5
16D
330
16C
100
AcDbEntity
  8
Capa 1
 62
     7
420
 16777215
370
     9
100
AcDbVertex
100
AcDb2dVertex
 10
1.255565049599303
 20
-187.0328558560196
 30
0.0
  0
VERTEX
  5
16E
330
16C
100
AcDbEntity
  8
Capa 1
 62
     7
420
 16777215
370
     9
100
AcDbVertex
100
AcDb2dVertex
 10
6.440261500126046
 20
-187.0328558560196
 30
0.0
  0
SEQEND
  5
16F
330
16C
100
AcDbEntity
  8
Capa 1
370
     9
  0
POLYLINE
  5
170
330
1F
100
AcDbEntity
  8
Capa 1
 62
     7
420
 16777215
370
     9
100
AcDb2dPolyline
 66
     1
 10
0.0
 20
0.0
 30
0.0
  0
VERTEX
  5
171
330
170
100
AcDbEntity
  8
Capa 1
 62
     7
420
 16777215
370
     9
100
AcDbVertex
100
AcDb2dVertex
 10
9.082305227764147
 20
-182.9989935523406
 30
0.0
  0
VERTEX
  5
172
330
170
100
AcDbEntity
  8
Capa 1
 62
     7
420
 16777215
370
     9
100
AcDbVertex
100
AcDb2dVertex
 10
10.11238877785385
 20
-182.9989935523406
 30
0.0
  0
SEQEND
  5
173
330
170
100
AcDbEntity
  8
Capa 1
370
     9
  0
POLYLINE
  5
174
330
1F
100
AcDbEntity
  8
Capa 1
 62
     7
420
 16777215
370
     9
100
AcDb2dPolyline
 66
     1
 10
0.0
 20
0.0
 30
0.0
  0
VERTEX
  5
175
330
174
100
AcDbEntity
  8
Capa 1
 62
     7
420
 16777215
370
     9
100
AcDbVertex
100
AcDb2dVertex
 10
12.74995388136112
 20
-182.9989935523406
 30
0.0
  0
VERTEX
  5
176
330
174
100
AcDbEntity
  8
Capa 1
 62
     7
420
 16777215
370
     9
100
AcDbVertex
100
AcDb2dVertex
 10
12.78009846685706
 20
-182.9989935523406
 30
0.0
  0
SEQEND
  5
177
330
174
100
AcDbEntity
  8
Capa 1
370
     9
  0
POLYLINE
  5
178
330
1F
100
AcDbEntity
  8
Capa 1
 62
     7
420
 16777215
370
     9
100
AcDb2dPolyline
 66
     1
 10
0.0
 20
0.0
 30
0.0
  0
VERTEX
  5
179
330
178
100
AcDbEntity
  8
Capa 1
 62
     7
420
 16777215
370
     9
100
AcDbVertex
100
AcDb2dVertex
 10
0.1307413736652313
 20
-182.9989935523406
 30
0.0
  0
VERTEX
  5
17A
330
178
100
AcDbEntity
  8
Capa 1
 62
     7
420
 16777215
370
     9
100
AcDbVertex
100
AcDb2dVertex
 10
0.1004245333950328
 20
-182.9989935523406
 30
0.0
  0
SEQEND
  5
17B
330
178
100
AcDbEntity
  8
Capa 1
370
     9
  0
POLYLINE
  5
17C
330
1F
100
AcDbEntity
  8
Capa 1
 62
     7
420
 16777215
370
     9
100
AcDb2dPolyline
 66
     1
 10
0.0
 20
0.0
 30
0.0
  0
VERTEX
  5
17D
330
17C
100
AcDbEntity
  8
Capa 1
 62
     7
420
 16777215
370
     9
100
AcDbVertex
100
AcDb2dVertex
 10
10.11238877785385
 20
-182.9989935523406
 30
0.0
  0
VERTEX
  5
17E
330
17C
100
AcDbEntity
  8
Capa 1
 62
     7
420
 16777215
370
     9
100
AcDbVertex
100
AcDb2dVertex
 10
10.11238877785385
 20
-185.880815925752
 30
0.0
  0
SEQEND
  5
17F
330
17C
100
AcDbEntity
  8
Capa 1
370
     9
  0
POLYLINE
  5
180
330
1F
100
AcDbEntity
  8
Capa 1
 62
     7
420
 16777215
370
     9
100
AcDb2dPolyline
 66
     1
 10
0.0
 20
0.0
 30
0.0
  0
VERTEX
  5
181
330
180
100
AcDbEntity
  8
Capa 1
 62
     7
420
 16777215
370
     9
100
AcDbVertex
100
AcDb2dVertex
 10
12.74995388136112
 20
-185.880815925752
 30
0.0
  0
VERTEX
  5
182
330
180
100
AcDbEntity
  8
Capa 1
 62
     7
420
 16777215
370
     9
100
AcDbVertex
100
AcDb2dVertex
 10
12.74995388136112
 20
-182.9989935523406
 30
0.0
  0
SEQEND
  5
183
330
180
100
AcDbEntity
  8
Capa 1
370
     9
  0
POLYLINE
  5
184
330
1F
100
AcDbEntity
  8
Capa 1
 62
     7
420
 16777215
370
     9
100
AcDb2dPolyline
 66
     1
 10
0.0
 20
0.0
 30
0.0
  0
VERTEX
  5
185
330
184
100
AcDbEntity
  8
Capa 1
 62
     7
420
 16777215
370
     9
100
AcDbVertex
100
AcDb2dVertex
 10
0.1307413736652313
 20
-182.9989935523406
 30
0.0
  0
VERTEX
  5
186
330
184
100
AcDbEntity
  8
Capa 1
 62
     7
420
 16777215
370
     9
100
AcDbVertex
100
AcDb2dVertex
 10
0.1307413736652313
 20
-185.880815925752
 30
0.0
  0
SEQEND
  5
187
330
184
100
AcDbEntity
  8
Capa 1
370
     9
  0
POLYLINE
  5
188
330
1F
100
AcDbEntity
  8
Capa 1
 62
     7
420
 16777215
370
     9
100
AcDb2dPolyline
 66
     1
 10
0.0
 20
0.0
 30
0.0
  0
VERTEX
  5
189
330
188
100
AcDbEntity
  8
Capa 1
 62
     7
420
 16777215
370
     9
100
AcDbVertex
100
AcDb2dVertex
 10
12.74995388136112
 20
-185.880815925752
 30
0.0
  0
VERTEX
  5
18A
330
188
100
AcDbEntity
  8
Capa 1
 62
     7
420
 16777215
370
     9
100
AcDbVertex
100
AcDb2dVertex
 10
12.78009846685706
 20
-185.880815925752
 30
0.0
  0
SEQEND
  5
18B
330
188
100
AcDbEntity
  8
Capa 1
370
     9
  0
POLYLINE
  5
18C
330
1F
100
AcDbEntity
  8
Capa 1
 62
     7
420
 16777215
370
     9
100
AcDb2dPolyline
 66
     1
 10
0.0
 20
0.0
 30
0.0
  0
VERTEX
  5
18D
330
18C
100
AcDbEntity
  8
Capa 1
 62
     7
420
 16777215
370
     9
100
AcDbVertex
100
AcDb2dVertex
 10
10.11238877785385
 20
-185.880815925752
 30
0.0
  0
VERTEX
  5
18E
330
18C
100
AcDbEntity
  8
Capa 1
 62
     7
420
 16777215
370
     9
100
AcDbVertex
100
AcDb2dVertex
 10
9.082305227764147
 20
-185.880815925752
 30
0.0
  0
SEQEND
  5
18F
330
18C
100
AcDbEntity
  8
Capa 1
370
     9
  0
POLYLINE
  5
190
330
1F
100
AcDbEntity
  8
Capa 1
 62
     7
420
 16777215
370
     9
100
AcDb2dPolyline
 66
     1
 10
0.0
 20
0.0
 30
0.0
  0
VERTEX
  5
191
330
190
100
AcDbEntity
  8
Capa 1
 62
     7
420
 16777215
370
     9
100
AcDbVertex
100
AcDb2dVertex
 10
3.798217772487946
 20
-185.880815925752
 30
0.0
  0
VERTEX
  5
192
330
190
100
AcDbEntity
  8
Capa 1
 62
     7
420
 16777215
370
     9
100
AcDbVertex
100
AcDb2dVertex
 10
2.772785101303332
 20
-185.880815925752
 30
0.0
  0
SEQEND
  5
193
330
190
100
AcDbEntity
  8
Capa 1
370
     9
  0
POLYLINE
  5
194
330
1F
100
AcDbEntity
  8
Capa 1
 62
     7
420
 16777215
370
     9
100
AcDb2dPolyline
 66
     1
 10
0.0
 20
0.0
 30
0.0
  0
VERTEX
  5
195
330
194
100
AcDbEntity
  8
Capa 1
 62
     7
420
 16777215
370
     9
100
AcDbVertex
100
AcDb2dVertex
 10
0.1307413736652313
 20
-185.880815925752
 30
0.0
  0
VERTEX
  5
196
330
194
100
AcDbEntity
  8
Capa 1
 62
     7
420
 16777215
370
     9
100
AcDbVertex
100
AcDb2dVertex
 10
0.1004245333950328
 20
-185.880815925752
 30
0.0
  0
SEQEND
  5
197
330
194
100
AcDbEntity
  8
Capa 1
370
     9
  0
POLYLINE
  5
198
330
1F
100
AcDbEntity
  8
Capa 1
 62
     7
420
 16777215
370
     9
100
AcDb2dPolyline
 66
     1
 10
0.0
 20
0.0
 30
0.0
  0
VERTEX
  5
199
330
198
100
AcDbEntity
  8
Capa 1
 62
     7
420
 16777215
370
     9
100
AcDbVertex
100
AcDb2dVertex
 10
6.440261500126046
 20
-187.0328558560196
 30
0.0
  0
VERTEX
  5
19A
330
198
100
AcDbEntity
  8
Capa 1
 62
     7
420
 16777215
370
     9
100
AcDbVertex
100
AcDb2dVertex
 10
10.92250298121035
 20
-187.0328558560196
 30
0.0
  0
SEQEND
  5
19B
330
198
100
AcDbEntity
  8
Capa 1
370
     9
  0
POLYLINE
  5
19C
330
1F
100
AcDbEntity
  8
Capa 1
 62
     7
420
 16777215
370
     9
100
AcDb2dPolyline
 66
     1
 10
0.0
 20
0.0
 30
0.0
  0
VERTEX
  5
19D
330
19C
100
AcDbEntity
  8
Capa 1
 62
     7
420
 16777215
370
     9
100
AcDbVertex
100
AcDb2dVertex
 10
1.255565049599303
 20
-187.0328558560196
 30
0.0
  0
VERTEX
  5
19E
330
19C
100
AcDbEntity
  8
Capa 1
 62
     7
420
 16777215
370
     9
100
AcDbVertex
100
AcDb2dVertex
 10
6.440261500126046
 20
-187.0328558560196
 30
0.0
  0
SEQEND
  5
19F
330
19C
100
AcDbEntity
  8
Capa 1
370
     9
  0
POLYLINE
  5
1A0
330
1F
100
AcDbEntity
  8
Capa 1
 62
     7
420
 16777215
370
     9
100
AcDb2dPolyline
 66
     1
 10
0.0
 20
0.0
 30
0.0
  0
VERTEX
  5
1A1
330
1A0
100
AcDbEntity
  8
Capa 1
 62
     7
420
 16777215
370
     9
100
AcDbVertex
100
AcDb2dVertex
 10
3.798217772487946
 20
-182.9989935523406
 30
0.0
  0
VERTEX
  5
1A2
330
1A0
100
AcDbEntity
  8
Capa 1
 62
     7
420
 16777215
370
     9
100
AcDbVertex
100
AcDb2dVertex
 10
3.798217772487946
 20
-185.880815925752
 30
0.0
  0
SEQEND
  5
1A3
330
1A0
100
AcDbEntity
  8
Capa 1
370
     9
  0
POLYLINE
  5
1A4
330
1F
100
AcDbEntity
  8
Capa 1
 62
     7
420
 16777215
370
     9
100
AcDb2dPolyline
 66
     1
 10
0.0
 20
0.0
 30
0.0
  0
VERTEX
  5
1A5
330
1A4
100
AcDbEntity
  8
Capa 1
 62
     7
420
 16777215
370
     9
100
AcDbVertex
100
AcDb2dVertex
 10
2.772785101303332
 20
-182.9989935523406
 30
0.0
  0
VERTEX
  5
1A6
330
1A4
100
AcDbEntity
  8
Capa 1
 62
     7
420
 16777215
370
     9
100
AcDbVertex
100
AcDb2dVertex
 10
3.798217772487946
 20
-182.9989935523406
 30
0.0
  0
SEQEND
  5
1A7
330
1A4
100
AcDbEntity
  8
Capa 1
370
     9
  0
POLYLINE
  5
1A8
330
1F
100
AcDbEntity
  8
Capa 1
 62
     7
420
 16777215
370
     9
100
AcDb2dPolyline
 66
     1
 10
0.0
 20
0.0
 30
0.0
  0
VERTEX
  5
1A9
330
1A8
100
AcDbEntity
  8
Capa 1
 62
     7
420
 16777215
370
     9
100
AcDbVertex
100
AcDb2dVertex
 10
2.772785101303332
 20
-185.880815925752
 30
0.0
  0
VERTEX
  5
1AA
330
1A8
100
AcDbEntity
  8
Capa 1
 62
     7
420
 16777215
370
     9
100
AcDbVertex
100
AcDb2dVertex
 10
2.772785101303332
 20
-182.9989935523406
 30
0.0
  0
SEQEND
  5
1AB
330
1A8
100
AcDbEntity
  8
Capa 1
370
     9
  0
POLYLINE
  5
1AC
330
1F
100
AcDbEntity
  8
Capa 1
 62
     7
420
 16777215
370
     9
100
AcDb2dPolyline
 66
     1
 10
0.0
 20
0.0
 30
0.0
  0
VERTEX
  5
1AD
330
1AC
100
AcDbEntity
  8
Capa 1
 62
     7
420
 16777215
370
     9
100
AcDbVertex
100
AcDb2dVertex
 10
9.082305227764147
 20
-182.9989935523406
 30
0.0
  0
VERTEX
  5
1AE
330
1AC
100
AcDbEntity
  8
Capa 1
 62
     7
420
 16777215
370
     9
100
AcDbVertex
100
AcDb2dVertex
 10
10.11238877785385
 20
-182.9989935523406
 30
0.0
  0
SEQEND
  5
1AF
330
1AC
100
AcDbEntity
  8
Capa 1
370
     9
  0
POLYLINE
  5
1B0
330
1F
100
AcDbEntity
  8
Capa 1
 62
     7
420
 16777215
370
     9
100
AcDb2dPolyline
 66
     1
 10
0.0
 20
0.0
 30
0.0
  0
VERTEX
  5
1B1
330
1B0
100
AcDbEntity
  8
Capa 1
 62
     7
420
 16777215
370
     9
100
AcDbVertex
100
AcDb2dVertex
 10
12.74995388136112
 20
-182.9989935523406
 30
0.0
  0
VERTEX
  5
1B2
330
1B0
100
AcDbEntity
  8
Capa 1
 62
     7
420
 16777215
370
     9
100
AcDbVertex
100
AcDb2dVertex
 10
12.78009846685706
 20
-182.9989935523406
 30
0.0
  0
SEQEND
  5
1B3
330
1B0
100
AcDbEntity
  8
Capa 1
370
     9
  0
POLYLINE
  5
1B4
330
1F
100
AcDbEntity
  8
Capa 1
 62
     7
420
 16777215
370
     9
100
AcDb2dPolyline
 66
     1
 10
0.0
 20
0.0
 30
0.0
  0
VERTEX
  5
1B5
330
1B4
100
AcDbEntity
  8
Capa 1
 62
     7
420
 16777215
370
     9
100
AcDbVertex
100
AcDb2dVertex
 10
0.1307413736652313
 20
-182.9989935523406
 30
0.0
  0
VERTEX
  5
1B6
330
1B4
100
AcDbEntity
  8
Capa 1
 62
     7
420
 16777215
370
     9
100
AcDbVertex
100
AcDb2dVertex
 10
0.1004245333950328
 20
-182.9989935523406
 30
0.0
  0
SEQEND
  5
1B7
330
1B4
100
AcDbEntity
  8
Capa 1
370
     9
  0
POLYLINE
  5
1B8
330
1F
100
AcDbEntity
  8
Capa 1
 62
     7
420
 16777215
370
     9
100
AcDb2dPolyline
 66
     1
 10
0.0
 20
0.0
 30
0.0
  0
VERTEX
  5
1B9
330
1B8
100
AcDbEntity
  8
Capa 1
 62
     7
420
 16777215
370
     9
100
AcDbVertex
100
AcDb2dVertex
 10
9.082305227764147
 20
-185.880815925752
 30
0.0
  0
VERTEX
  5
1BA
330
1B8
100
AcDbEntity
  8
Capa 1
 62
     7
420
 16777215
370
     9
100
AcDbVertex
100
AcDb2dVertex
 10
9.082305227764147
 20
-182.9989935523406
 30
0.0
  0
SEQEND
  5
1BB
330
1B8
100
AcDbEntity
  8
Capa 1
370
     9
  0
POLYLINE
  5
1BC
330
1F
100
AcDbEntity
  8
Capa 1
 62
     7
420
 16777215
370
     9
100
AcDb2dPolyline
 66
     1
 10
0.0
 20
0.0
 30
0.0
  0
VERTEX
  5
1BD
330
1BC
100
AcDbEntity
  8
Capa 1
 62
     7
420
 16777215
370
     9
100
AcDbVertex
100
AcDb2dVertex
 10
10.11238877785385
 20
-182.9989935523406
 30
0.0
  0
VERTEX
  5
1BE
330
1BC
100
AcDbEntity
  8
Capa 1
 62
     7
420
 16777215
370
     9
100
AcDbVertex
100
AcDb2dVertex
 10
10.11238877785385
 20
-185.880815925752
 30
0.0
  0
SEQEND
  5
1BF
330
1BC
100
AcDbEntity
  8
Capa 1
370
     9
  0
POLYLINE
  5
1C0
330
1F
100
AcDbEntity
  8
Capa 1
 62
     7
420
 16777215
370
     9
100
AcDb2dPolyline
 66
     1
 10
0.0
 20
0.0
 30
0.0
  0
VERTEX
  5
1C1
330
1C0
100
AcDbEntity
  8
Capa 1
 62
     7
420
 16777215
370
     9
100
AcDbVertex
100
AcDb2dVertex
 10
12.74995388136112
 20
-185.880815925752
 30
0.0
  0
VERTEX
  5
1C2
330
1C0
100
AcDbEntity
  8
Capa 1
 62
     7
420
 16777215
370
     9
100
AcDbVertex
100
AcDb2dVertex
 10
12.74995388136112
 20
-182.9989935523406
 30
0.0
  0
SEQEND
  5
1C3
330
1C0
100
AcDbEntity
  8
Capa 1
370
     9
  0
POLYLINE
  5
1C4
330
1F
100
AcDbEntity
  8
Capa 1
 62
     7
420
 16777215
370
     9
100
AcDb2dPolyline
 66
     1
 10
0.0
 20
0.0
 30
0.0
  0
VERTEX
  5
1C5
330
1C4
100
AcDbEntity
  8
Capa 1
 62
     7
420
 16777215
370
     9
100
AcDbVertex
100
AcDb2dVertex
 10
0.1307413736652313
 20
-182.9989935523406
 30
0.0
  0
VERTEX
  5
1C6
330
1C4
100
AcDbEntity
  8
Capa 1
 62
     7
420
 16777215
370
     9
100
AcDbVertex
100
AcDb2dVertex
 10
0.1307413736652313
 20
-185.880815925752
 30
0.0
  0
SEQEND
  5
1C7
330
1C4
100
AcDbEntity
  8
Capa 1
370
     9
  0
POLYLINE
  5
1C8
330
1F
100
AcDbEntity
  8
Capa 1
 62
     7
420
 16777215
370
     9
100
AcDb2dPolyline
 66
     1
 10
0.0
 20
0.0
 30
0.0
  0
VERTEX
  5
1C9
330
1C8
100
AcDbEntity
  8
Capa 1
 62
     7
420
 16777215
370
     9
100
AcDbVertex
100
AcDb2dVertex
 10
70.57054170327751
 20
-185.880815925752
 30
0.0
  0
VERTEX
  5
1CA
330
1C8
100
AcDbEntity
  8
Capa 1
 62
     7
420
 16777215
370
     9
100
AcDbVertex
100
AcDb2dVertex
 10
70.59620766464262
 20
-185.880815925752
 30
0.0
  0
SEQEND
  5
1CB
330
1C8
100
AcDbEntity
  8
Capa 1
370
     9
  0
POLYLINE
  5
1CC
330
1F
100
AcDbEntity
  8
Capa 1
 62
     7
420
 16777215
370
     9
100
AcDb2dPolyline
 66
     1
 10
0.0
 20
0.0
 30
0.0
  0
VERTEX
  5
1CD
330
1CC
100
AcDbEntity
  8
Capa 1
 62
     7
420
 16777215
370
     9
100
AcDbVertex
100
AcDb2dVertex
 10
61.61880559440433
 20
-185.880815925752
 30
0.0
  0
VERTEX
  5
1CE
330
1CC
100
AcDbEntity
  8
Capa 1
 62
     7
420
 16777215
370
     9
100
AcDbVertex
100
AcDb2dVertex
 10
60.58872204431463
 20
-185.880815925752
 30
0.0
  0
SEQEND
  5
1CF
330
1CC
100
AcDbEntity
  8
Capa 1
370
     9
  0
POLYLINE
  5
1D0
330
1F
100
AcDbEntity
  8
Capa 1
 62
     7
420
 16777215
370
     9
100
AcDb2dPolyline
 66
     1
 10
0.0
 20
0.0
 30
0.0
  0
VERTEX
  5
1D1
330
1D0
100
AcDbEntity
  8
Capa 1
 62
     7
420
 16777215
370
     9
100
AcDbVertex
100
AcDb2dVertex
 10
59.7741292168273
 20
-186.839585999297
 30
0.0
  0
VERTEX
  5
1D2
330
1D0
100
AcDbEntity
  8
Capa 1
 62
     7
420
 16777215
370
     9
100
AcDbVertex
100
AcDb2dVertex
 10
59.7741292168273
 20
-187.0328558560196
 30
0.0
  0
SEQEND
  5
1D3
330
1D0
100
AcDbEntity
  8
Capa 1
370
     9
  0
POLYLINE
  5
1D4
330
1F
100
AcDbEntity
  8
Capa 1
 62
     7
420
 16777215
370
     9
100
AcDb2dPolyline
 66
     1
 10
0.0
 20
0.0
 30
0.0
  0
VERTEX
  5
1D5
330
1D4
100
AcDbEntity
  8
Capa 1
 62
     7
420
 16777215
370
     9
100
AcDbVertex
100
AcDb2dVertex
 10
10.92250298121035
 20
-187.0328558560196
 30
0.0
  0
VERTEX
  5
1D6
330
1D4
100
AcDbEntity
  8
Capa 1
 62
     7
420
 16777215
370
     9
100
AcDbVertex
100
AcDb2dVertex
 10
10.92250298121035
 20
-186.839585999297
 30
0.0
  0
SEQEND
  5
1D7
330
1D4
100
AcDbEntity
  8
Capa 1
370
     9
  0
POLYLINE
  5
1D8
330
1F
100
AcDbEntity
  8
Capa 1
 62
     7
420
 16777215
370
     9
100
AcDb2dPolyline
 66
     1
 10
0.0
 20
0.0
 30
0.0
  0
VERTEX
  5
1D9
330
1D8
100
AcDbEntity
  8
Capa 1
 62
     7
420
 16777215
370
     9
100
AcDbVertex
100
AcDb2dVertex
 10
67.9284979756394
 20
-185.880815925752
 30
0.0
  0
VERTEX
  5
1DA
330
1D8
100
AcDbEntity
  8
Capa 1
 62
     7
420
 16777215
370
     9
100
AcDbVertex
100
AcDb2dVertex
 10
66.8984144255497
 20
-185.880815925752
 30
0.0
  0
SEQEND
  5
1DB
330
1D8
100
AcDbEntity
  8
Capa 1
370
     9
  0
POLYLINE
  5
1DC
330
1F
100
AcDbEntity
  8
Capa 1
 62
     7
420
 16777215
370
     9
100
AcDb2dPolyline
 66
     1
 10
0.0
 20
0.0
 30
0.0
  0
VERTEX
  5
1DD
330
1DC
100
AcDbEntity
  8
Capa 1
 62
     7
420
 16777215
370
     9
100
AcDbVertex
100
AcDb2dVertex
 10
69.25089787765256
 20
-190.0287108899928
 30
0.0
  0
VERTEX
  5
1DE
330
1DC
100
AcDbEntity
  8
Capa 1
 62
     7
420
 16777215
370
     9
100
AcDbVertex
100
AcDb2dVertex
 10
69.25089787765256
 20
-187.0328558560196
 30
0.0
  0
SEQEND
  5
1DF
330
1DC
100
AcDbEntity
  8
Capa 1
370
     9
  0
POLYLINE
  5
1E0
330
1F
100
AcDbEntity
  8
Capa 1
 62
     7
420
 16777215
370
     9
100
AcDb2dPolyline
 66
     1
 10
0.0
 20
0.0
 30
0.0
  0
VERTEX
  5
1E1
330
1E0
100
AcDbEntity
  8
Capa 1
 62
     7
420
 16777215
370
     9
100
AcDbVertex
100
AcDb2dVertex
 10
1.445389810836569
 20
-187.0328558560196
 30
0.0
  0
VERTEX
  5
1E2
330
1E0
100
AcDbEntity
  8
Capa 1
 62
     7
420
 16777215
370
     9
100
AcDbVertex
100
AcDb2dVertex
 10
1.445389810836569
 20
-190.0287108899928
 30
0.0
  0
SEQEND
  5
1E3
330
1E0
100
AcDbEntity
  8
Capa 1
370
     9
  0
POLYLINE
  5
1E4
330
1F
100
AcDbEntity
  8
Capa 1
 62
     7
420
 16777215
370
     9
100
AcDb2dPolyline
 66
     1
 10
0.0
 20
0.0
 30
0.0
  0
VERTEX
  5
1E5
330
1E4
100
AcDbEntity
  8
Capa 1
 62
     7
420
 16777215
370
     9
100
AcDbVertex
100
AcDb2dVertex
 10
3.798217772487946
 20
-182.9989935523406
 30
0.0
  0
VERTEX
  5
1E6
330
1E4
100
AcDbEntity
  8
Capa 1
 62
     7
420
 16777215
370
     9
100
AcDbVertex
100
AcDb2dVertex
 10
3.798217772487946
 20
-185.880815925752
 30
0.0
  0
SEQEND
  5
1E7
330
1E4
100
AcDbEntity
  8
Capa 1
370
     9
  0
POLYLINE
  5
1E8
330
1F
100
AcDbEntity
  8
Capa 1
 62
     7
420
 16777215
370
     9
100
AcDb2dPolyline
 66
     1
 10
0.0
 20
0.0
 30
0.0
  0
VERTEX
  5
1E9
330
1E8
100
AcDbEntity
  8
Capa 1
 62
     7
420
 16777215
370
     9
100
AcDbVertex
100
AcDb2dVertex
 10
2.772785101303332
 20
-182.9989935523406
 30
0.0
  0
VERTEX
  5
1EA
330
1E8
100
AcDbEntity
  8
Capa 1
 62
     7
420
 16777215
370
     9
100
AcDbVertex
100
AcDb2dVertex
 10
3.798217772487946
 20
-182.9989935523406
 30
0.0
  0
SEQEND
  5
1EB
330
1E8
100
AcDbEntity
  8
Capa 1
370
     9
  0
POLYLINE
  5
1EC
330
1F
100
AcDbEntity
  8
Capa 1
 62
     7
420
 16777215
370
     9
100
AcDb2dPolyline
 66
     1
 10
0.0
 20
0.0
 30
0.0
  0
VERTEX
  5
1ED
330
1EC
100
AcDbEntity
  8
Capa 1
 62
     7
420
 16777215
370
     9
100
AcDbVertex
100
AcDb2dVertex
 10
2.772785101303332
 20
-185.880815925752
 30
0.0
  0
VERTEX
  5
1EE
330
1EC
100
AcDbEntity
  8
Capa 1
 62
     7
420
 16777215
370
     9
100
AcDbVertex
100
AcDb2dVertex
 10
2.772785101303332
 20
-182.9989935523406
 30
0.0
  0
SEQEND
  5
1EF
330
1EC
100
AcDbEntity
  8
Capa 1
370
     9
  0
POLYLINE
  5
1F0
330
1F
100
AcDbEntity
  8
Capa 1
 62
     7
420
 16777215
370
     9
100
AcDb2dPolyline
 66
     1
 10
0.0
 20
0.0
 30
0.0
  0
VERTEX
  5
1F1
330
1F0
100
AcDbEntity
  8
Capa 1
 62
     7
420
 16777215
370
     9
100
AcDbVertex
100
AcDb2dVertex
 10
9.082305227764147
 20
-185.880815925752
 30
0.0
  0
VERTEX
  5
1F2
330
1F0
100
AcDbEntity
  8
Capa 1
 62
     7
420
 16777215
370
     9
100
AcDbVertex
100
AcDb2dVertex
 10
9.082305227764147
 20
-182.9989935523406
 30
0.0
  0
SEQEND
  5
1F3
330
1F0
100
AcDbEntity
  8
Capa 1
370
     9
  0
POLYLINE
  5
1F4
330
1F
100
AcDbEntity
  8
Capa 1
 62
     7
420
 16777215
370
     9
100
AcDb2dPolyline
 66
     1
 10
0.0
 20
0.0
 30
0.0
  0
VERTEX
  5
1F5
330
1F4
100
AcDbEntity
  8
Capa 1
 62
     7
420
 16777215
370
     9
100
AcDbVertex
100
AcDb2dVertex
 10
12.74995388136112
 20
-185.880815925752
 30
0.0
  0
VERTEX
  5
1F6
330
1F4
100
AcDbEntity
  8
Capa 1
 62
     7
420
 16777215
370
     9
100
AcDbVertex
100
AcDb2dVertex
 10
12.78009846685706
 20
-185.880815925752
 30
0.0
  0
SEQEND
  5
1F7
330
1F4
100
AcDbEntity
  8
Capa 1
370
     9
  0
POLYLINE
  5
1F8
330
1F
100
AcDbEntity
  8
Capa 1
 62
     7
420
 16777215
370
     9
100
AcDb2dPolyline
 66
     1
 10
0.0
 20
0.0
 30
0.0
  0
VERTEX
  5
1F9
330
1F8
100
AcDbEntity
  8
Capa 1
 62
     7
420
 16777215
370
     9
100
AcDbVertex
100
AcDb2dVertex
 10
10.11238877785385
 20
-185.880815925752
 30
0.0
  0
VERTEX
  5
1FA
330
1F8
100
AcDbEntity
  8
Capa 1
 62
     7
420
 16777215
370
     9
100
AcDbVertex
100
AcDb2dVertex
 10
9.082305227764147
 20
-185.880815925752
 30
0.0
  0
SEQEND
  5
1FB
330
1F8
100
AcDbEntity
  8
Capa 1
370
     9
  0
POLYLINE
  5
1FC
330
1F
100
AcDbEntity
  8
Capa 1
 62
     7
420
 16777215
370
     9
100
AcDb2dPolyline
 66
     1
 10
0.0
 20
0.0
 30
0.0
  0
VERTEX
  5
1FD
330
1FC
100
AcDbEntity
  8
Capa 1
 62
     7
420
 16777215
370
     9
100
AcDbVertex
100
AcDb2dVertex
 10
3.798217772487946
 20
-185.880815925752
 30
0.0
  0
VERTEX
  5
1FE
330
1FC
100
AcDbEntity
  8
Capa 1
 62
     7
420
 16777215
370
     9
100
AcDbVertex
100
AcDb2dVertex
 10
2.772785101303332
 20
-185.880815925752
 30
0.0
  0
SEQEND
  5
1FF
330
1FC
100
AcDbEntity
  8
Capa 1
370
     9
  0
POLYLINE
  5
200
330
1F
100
AcDbEntity
  8
Capa 1
 62
     7
420
 16777215
370
     9
100
AcDb2dPolyline
 66
     1
 10
0.0
 20
0.0
 30
0.0
  0
VERTEX
  5
201
330
200
100
AcDbEntity
  8
Capa 1
 62
     7
420
 16777215
370
     9
100
AcDbVertex
100
AcDb2dVertex
 10
0.1307413736652313
 20
-185.880815925752
 30
0.0
  0
VERTEX
  5
202
330
200
100
AcDbEntity
  8
Capa 1
 62
     7
420
 16777215
370
     9
100
AcDbVertex
100
AcDb2dVertex
 10
0.1004245333950328
 20
-185.880815925752
 30
0.0
  0
SEQEND
  5
203
330
200
100
AcDbEntity
  8
Capa 1
370
     9
  0
POLYLINE
  5
204
330
1F
100
AcDbEntity
  8
Capa 1
 62
     7
420
 16777215
370
     9
100
AcDb2dPolyline
 66
     1
 10
0.0
 20
0.0
 30
0.0
  0
VERTEX
  5
205
330
204
100
AcDbEntity
  8
Capa 1
 62
     7
420
 16777215
370
     9
100
AcDbVertex
100
AcDb2dVertex
 10
6.440261500126046
 20
-187.0328558560196
 30
0.0
  0
VERTEX
  5
206
330
204
100
AcDbEntity
  8
Capa 1
 62
     7
420
 16777215
370
     9
100
AcDbVertex
100
AcDb2dVertex
 10
10.92250298121035
 20
-187.0328558560196
 30
0.0
  0
SEQEND
  5
207
330
204
100
AcDbEntity
  8
Capa 1
370
     9
  0
POLYLINE
  5
208
330
1F
100
AcDbEntity
  8
Capa 1
 62
     7
420
 16777215
370
     9
100
AcDb2dPolyline
 66
     1
 10
0.0
 20
0.0
 30
0.0
  0
VERTEX
  5
209
330
208
100
AcDbEntity
  8
Capa 1
 62
     7
420
 16777215
370
     9
100
AcDbVertex
100
AcDb2dVertex
 10
1.255565049599303
 20
-187.0328558560196
 30
0.0
  0
VERTEX
  5
20A
330
208
100
AcDbEntity
  8
Capa 1
 62
     7
420
 16777215
370
     9
100
AcDbVertex
100
AcDb2dVertex
 10
6.440261500126046
 20
-187.0328558560196
 30
0.0
  0
SEQEND
  5
20B
330
208
100
AcDbEntity
  8
Capa 1
370
     9
  0
POLYLINE
  5
20C
330
1F
100
AcDbEntity
  8
Capa 1
 62
     7
420
 16777215
370
     9
100
AcDb2dPolyline
 66
     1
 10
0.0
 20
0.0
 30
0.0
  0
VERTEX
  5
20D
330
20C
100
AcDbEntity
  8
Capa 1
 62
     7
420
 16777215
370
     9
100
AcDbVertex
100
AcDb2dVertex
 10
9.082305227764147
 20
-182.9989935523406
 30
0.0
  0
VERTEX
  5
20E
330
20C
100
AcDbEntity
  8
Capa 1
 62
     7
420
 16777215
370
     9
100
AcDbVertex
100
AcDb2dVertex
 10
10.11238877785385
 20
-182.9989935523406
 30
0.0
  0
SEQEND
  5
20F
330
20C
100
AcDbEntity
  8
Capa 1
370
     9
  0
POLYLINE
  5
210
330
1F
100
AcDbEntity
  8
Capa 1
 62
     7
420
 16777215
370
     9
100
AcDb2dPolyline
 66
     1
 10
0.0
 20
0.0
 30
0.0
  0
VERTEX
  5
211
330
210
100
AcDbEntity
  8
Capa 1
 62
     7
420
 16777215
370
     9
100
AcDbVertex
100
AcDb2dVertex
 10
12.74995388136112
 20
-182.9989935523406
 30
0.0
  0
VERTEX
  5
212
330
210
100
AcDbEntity
  8
Capa 1
 62
     7
420
 16777215
370
     9
100
AcDbVertex
100
AcDb2dVertex
 10
12.78009846685706
 20
-182.9989935523406
 30
0.0
  0
SEQEND
  5
213
330
210
100
AcDbEntity
  8
Capa 1
370
     9
  0
POLYLINE
  5
214
330
1F
100
AcDbEntity
  8
Capa 1
 62
     7
420
 16777215
370
     9
100
AcDb2dPolyline
 66
     1
 10
0.0
 20
0.0
 30
0.0
  0
VERTEX
  5
215
330
214
100
AcDbEntity
  8
Capa 1
 62
     7
420
 16777215
370
     9
100
AcDbVertex
100
AcDb2dVertex
 10
0.1307413736652313
 20
-182.9989935523406
 30
0.0
  0
VERTEX
  5
216
330
214
100
AcDbEntity
  8
Capa 1
 62
     7
420
 16777215
370
     9
100
AcDbVertex
100
AcDb2dVertex
 10
0.1004245333950328
 20
-182.9989935523406
 30
0.0
  0
SEQEND
  5
217
330
214
100
AcDbEntity
  8
Capa 1
370
     9
  0
POLYLINE
  5
218
330
1F
100
AcDbEntity
  8
Capa 1
 62
     7
420
 16777215
370
     9
100
AcDb2dPolyline
 66
     1
 10
0.0
 20
0.0
 30
0.0
  0
VERTEX
  5
219
330
218
100
AcDbEntity
  8
Capa 1
 62
     7
420
 16777215
370
     9
100
AcDbVertex
100
AcDb2dVertex
 10
10.11238877785385
 20
-182.9989935523406
 30
0.0
  0
VERTEX
  5
21A
330
218
100
AcDbEntity
  8
Capa 1
 62
     7
420
 16777215
370
     9
100
AcDbVertex
100
AcDb2dVertex
 10
10.11238877785385
 20
-185.880815925752
 30
0.0
  0
SEQEND
  5
21B
330
218
100
AcDbEntity
  8
Capa 1
370
     9
  0
POLYLINE
  5
21C
330
1F
100
AcDbEntity
  8
Capa 1
 62
     7
420
 16777215
370
     9
100
AcDb2dPolyline
 66
     1
 10
0.0
 20
0.0
 30
0.0
  0
VERTEX
  5
21D
330
21C
100
AcDbEntity
  8
Capa 1
 62
     7
420
 16777215
370
     9
100
AcDbVertex
100
AcDb2dVertex
 10
12.74995388136112
 20
-185.880815925752
 30
0.0
  0
VERTEX
  5
21E
330
21C
100
AcDbEntity
  8
Capa 1
 62
     7
420
 16777215
370
     9
100
AcDbVertex
100
AcDb2dVertex
 10
12.74995388136112
 20
-182.9989935523406
 30
0.0
  0
SEQEND
  5
21F
330
21C
100
AcDbEntity
  8
Capa 1
370
     9
  0
POLYLINE
  5
220
330
1F
100
AcDbEntity
  8
Capa 1
 62
     7
420
 16777215
370
     9
100
AcDb2dPolyline
 66
     1
 10
0.0
 20
0.0
 30
0.0
  0
VERTEX
  5
221
330
220
100
AcDbEntity
  8
Capa 1
 62
     7
420
 16777215
370
     9
100
AcDbVertex
100
AcDb2dVertex
 10
0.1307413736652313
 20
-182.9989935523406
 30
0.0
  0
VERTEX
  5
222
330
220
100
AcDbEntity
  8
Capa 1
 62
     7
420
 16777215
370
     9
100
AcDbVertex
100
AcDb2dVertex
 10
0.1307413736652313
 20
-185.880815925752
 30
0.0
  0
SEQEND
  5
223
330
220
100
AcDbEntity
  8
Capa 1
370
     9
  0
POLYLINE
  5
224
330
1F
100
AcDbEntity
  8
Capa 1
 62
     7
420
 16777215
370
     9
100
AcDb2dPolyline
 66
     1
 10
0.0
 20
0.0
 30
0.0
  0
VERTEX
  5
225
330
224
100
AcDbEntity
  8
Capa 1
 62
     7
420
 16777215
370
     9
100
AcDbVertex
100
AcDb2dVertex
 10
66.8984144255497
 20
-182.9989935523406
 30
0.0
  0
VERTEX
  5
226
330
224
100
AcDbEntity
  8
Capa 1
 62
     7
420
 16777215
370
     9
100
AcDbVertex
100
AcDb2dVertex
 10
67.9284979756394
 20
-182.9989935523406
 30
0.0
  0
SEQEND
  5
227
330
224
100
AcDbEntity
  8
Capa 1
370
     9
  0
POLYLINE
  5
228
330
1F
100
AcDbEntity
  8
Capa 1
 62
     7
420
 16777215
370
     9
100
AcDb2dPolyline
 66
     1
 10
0.0
 20
0.0
 30
0.0
  0
VERTEX
  5
229
330
228
100
AcDbEntity
  8
Capa 1
 62
     7
420
 16777215
370
     9
100
AcDbVertex
100
AcDb2dVertex
 10
70.57054170327751
 20
-182.9989935523406
 30
0.0
  0
VERTEX
  5
22A
330
228
100
AcDbEntity
  8
Capa 1
 62
     7
420
 16777215
370
     9
100
AcDbVertex
100
AcDb2dVertex
 10
70.59620766464262
 20
-182.9989935523406
 30
0.0
  0
SEQEND
  5
22B
330
228
100
AcDbEntity
  8
Capa 1
370
     9
  0
POLYLINE
  5
22C
330
1F
100
AcDbEntity
  8
Capa 1
 62
     7
420
 16777215
370
     9
100
AcDb2dPolyline
 66
     1
 10
0.0
 20
0.0
 30
0.0
  0
VERTEX
  5
22D
330
22C
100
AcDbEntity
  8
Capa 1
 62
     7
420
 16777215
370
     9
100
AcDbVertex
100
AcDb2dVertex
 10
57.94667831667653
 20
-182.9989935523406
 30
0.0
  0
VERTEX
  5
22E
330
22C
100
AcDbEntity
  8
Capa 1
 62
     7
420
 16777215
370
     9
100
AcDbVertex
100
AcDb2dVertex
 10
57.92101235531142
 20
-182.9989935523406
 30
0.0
  0
SEQEND
  5
22F
330
22C
100
AcDbEntity
  8
Capa 1
370
     9
  0
POLYLINE
  5
230
330
1F
100
AcDbEntity
  8
Capa 1
 62
     7
420
 16777215
370
     9
100
AcDb2dPolyline
 66
     1
 10
0.0
 20
0.0
 30
0.0
  0
VERTEX
  5
231
330
230
100
AcDbEntity
  8
Capa 1
 62
     7
420
 16777215
370
     9
100
AcDbVertex
100
AcDb2dVertex
 10
70.57054170327751
 20
-185.880815925752
 30
0.0
  0
VERTEX
  5
232
330
230
100
AcDbEntity
  8
Capa 1
 62
     7
420
 16777215
370
     9
100
AcDbVertex
100
AcDb2dVertex
 10
70.59620766464262
 20
-185.880815925752
 30
0.0
  0
SEQEND
  5
233
330
230
100
AcDbEntity
  8
Capa 1
370
     9
  0
POLYLINE
  5
234
330
1F
100
AcDbEntity
  8
Capa 1
 62
     7
420
 16777215
370
     9
100
AcDb2dPolyline
 66
     1
 10
0.0
 20
0.0
 30
0.0
  0
VERTEX
  5
235
330
234
100
AcDbEntity
  8
Capa 1
 62
     7
420
 16777215
370
     9
100
AcDbVertex
100
AcDb2dVertex
 10
67.9284979756394
 20
-185.880815925752
 30
0.0
  0
VERTEX
  5
236
330
234
100
AcDbEntity
  8
Capa 1
 62
     7
420
 16777215
370
     9
100
AcDbVertex
100
AcDb2dVertex
 10
66.8984144255497
 20
-185.880815925752
 30
0.0
  0
SEQEND
  5
237
330
234
100
AcDbEntity
  8
Capa 1
370
     9
  0
POLYLINE
  5
238
330
1F
100
AcDbEntity
  8
Capa 1
 62
     7
420
 16777215
370
     9
100
AcDb2dPolyline
 66
     1
 10
0.0
 20
0.0
 30
0.0
  0
VERTEX
  5
239
330
238
100
AcDbEntity
  8
Capa 1
 62
     7
420
 16777215
370
     9
100
AcDbVertex
100
AcDb2dVertex
 10
57.94667831667653
 20
-185.880815925752
 30
0.0
  0
VERTEX
  5
23A
330
238
100
AcDbEntity
  8
Capa 1
 62
     7
420
 16777215
370
     9
100
AcDbVertex
100
AcDb2dVertex
 10
57.92101235531142
 20
-185.880815925752
 30
0.0
  0
SEQEND
  5
23B
330
238
100
AcDbEntity
  8
Capa 1
370
     9
  0
POLYLINE
  5
23C
330
1F
100
AcDbEntity
  8
Capa 1
 62
     7
420
 16777215
370
     9
100
AcDb2dPolyline
 66
     1
 10
0.0
 20
0.0
 30
0.0
  0
VERTEX
  5
23D
330
23C
100
AcDbEntity
  8
Capa 1
 62
     7
420
 16777215
370
     9
100
AcDbVertex
100
AcDb2dVertex
 10
64.2563706979116
 20
-187.0328558560196
 30
0.0
  0
VERTEX
  5
23E
330
23C
100
AcDbEntity
  8
Capa 1
 62
     7
420
 16777215
370
     9
100
AcDbVertex
100
AcDb2dVertex
 10
69.44520126302065
 20
-187.0328558560196
 30
0.0
  0
SEQEND
  5
23F
330
23C
100
AcDbEntity
  8
Capa 1
370
     9
  0
POLYLINE
  5
240
330
1F
100
AcDbEntity
  8
Capa 1
 62
     7
420
 16777215
370
     9
100
AcDb2dPolyline
 66
     1
 10
0.0
 20
0.0
 30
0.0
  0
VERTEX
  5
241
330
240
100
AcDbEntity
  8
Capa 1
 62
     7
420
 16777215
370
     9
100
AcDbVertex
100
AcDb2dVertex
 10
59.7741292168273
 20
-187.0328558560196
 30
0.0
  0
VERTEX
  5
242
330
240
100
AcDbEntity
  8
Capa 1
 62
     7
420
 16777215
370
     9
100
AcDbVertex
100
AcDb2dVertex
 10
64.2563706979116
 20
-187.0328558560196
 30
0.0
  0
SEQEND
  5
243
330
240
100
AcDbEntity
  8
Capa 1
370
     9
  0
POLYLINE
  5
244
330
1F
100
AcDbEntity
  8
Capa 1
 62
     7
420
 16777215
370
     9
100
AcDb2dPolyline
 66
     1
 10
0.0
 20
0.0
 30
0.0
  0
VERTEX
  5
245
330
244
100
AcDbEntity
  8
Capa 1
 62
     7
420
 16777215
370
     9
100
AcDbVertex
100
AcDb2dVertex
 10
66.8984144255497
 20
-185.880815925752
 30
0.0
  0
VERTEX
  5
246
330
244
100
AcDbEntity
  8
Capa 1
 62
     7
420
 16777215
370
     9
100
AcDbVertex
100
AcDb2dVertex
 10
66.8984144255497
 20
-182.9989935523406
 30
0.0
  0
SEQEND
  5
247
330
244
100
AcDbEntity
  8
Capa 1
370
     9
  0
POLYLINE
  5
248
330
1F
100
AcDbEntity
  8
Capa 1
 62
     7
420
 16777215
370
     9
100
AcDb2dPolyline
 66
     1
 10
0.0
 20
0.0
 30
0.0
  0
VERTEX
  5
249
330
248
100
AcDbEntity
  8
Capa 1
 62
     7
420
 16777215
370
     9
100
AcDbVertex
100
AcDb2dVertex
 10
61.61880559440433
 20
-182.9989935523406
 30
0.0
  0
VERTEX
  5
24A
330
248
100
AcDbEntity
  8
Capa 1
 62
     7
420
 16777215
370
     9
100
AcDbVertex
100
AcDb2dVertex
 10
61.61880559440433
 20
-185.880815925752
 30
0.0
  0
SEQEND
  5
24B
330
248
100
AcDbEntity
  8
Capa 1
370
     9
  0
POLYLINE
  5
24C
330
1F
100
AcDbEntity
  8
Capa 1
 62
     7
420
 16777215
370
     9
100
AcDb2dPolyline
 66
     1
 10
0.0
 20
0.0
 30
0.0
  0
VERTEX
  5
24D
330
24C
100
AcDbEntity
  8
Capa 1
 62
     7
420
 16777215
370
     9
100
AcDbVertex
100
AcDb2dVertex
 10
60.58872204431463
 20
-182.9989935523406
 30
0.0
  0
VERTEX
  5
24E
330
24C
100
AcDbEntity
  8
Capa 1
 62
     7
420
 16777215
370
     9
100
AcDbVertex
100
AcDb2dVertex
 10
61.61880559440433
 20
-182.9989935523406
 30
0.0
  0
SEQEND
  5
24F
330
24C
100
AcDbEntity
  8
Capa 1
370
     9
  0
POLYLINE
  5
250
330
1F
100
AcDbEntity
  8
Capa 1
 62
     7
420
 16777215
370
     9
100
AcDb2dPolyline
 66
     1
 10
0.0
 20
0.0
 30
0.0
  0
VERTEX
  5
251
330
250
100
AcDbEntity
  8
Capa 1
 62
     7
420
 16777215
370
     9
100
AcDbVertex
100
AcDb2dVertex
 10
60.58872204431463
 20
-185.880815925752
 30
0.0
  0
VERTEX
  5
252
330
250
100
AcDbEntity
  8
Capa 1
 62
     7
420
 16777215
370
     9
100
AcDbVertex
100
AcDb2dVertex
 10
60.58872204431463
 20
-182.9989935523406
 30
0.0
  0
SEQEND
  5
253
330
250
100
AcDbEntity
  8
Capa 1
370
     9
  0
POLYLINE
  5
254
330
1F
100
AcDbEntity
  8
Capa 1
 62
     7
420
 16777215
370
     9
100
AcDb2dPolyline
 66
     1
 10
0.0
 20
0.0
 30
0.0
  0
VERTEX
  5
255
330
254
100
AcDbEntity
  8
Capa 1
 62
     7
420
 16777215
370
     9
100
AcDbVertex
100
AcDb2dVertex
 10
61.61880559440433
 20
-185.880815925752
 30
0.0
  0
VERTEX
  5
256
330
254
100
AcDbEntity
  8
Capa 1
 62
     7
420
 16777215
370
     9
100
AcDbVertex
100
AcDb2dVertex
 10
60.58872204431463
 20
-185.880815925752
 30
0.0
  0
SEQEND
  5
257
330
254
100
AcDbEntity
  8
Capa 1
370
     9
  0
POLYLINE
  5
258
330
1F
100
AcDbEntity
  8
Capa 1
 62
     7
420
 16777215
370
     9
100
AcDb2dPolyline
 66
     1
 10
0.0
 20
0.0
 30
0.0
  0
VERTEX
  5
259
330
258
100
AcDbEntity
  8
Capa 1
 62
     7
420
 16777215
370
     9
100
AcDbVertex
100
AcDb2dVertex
 10
67.9284979756394
 20
-182.9989935523406
 30
0.0
  0
VERTEX
  5
25A
330
258
100
AcDbEntity
  8
Capa 1
 62
     7
420
 16777215
370
     9
100
AcDbVertex
100
AcDb2dVertex
 10
67.9284979756394
 20
-185.880815925752
 30
0.0
  0
SEQEND
  5
25B
330
258
100
AcDbEntity
  8
Capa 1
370
     9
  0
POLYLINE
  5
25C
330
1F
100
AcDbEntity
  8
Capa 1
 62
     7
420
 16777215
370
     9
100
AcDb2dPolyline
 66
     1
 10
0.0
 20
0.0
 30
0.0
  0
VERTEX
  5
25D
330
25C
100
AcDbEntity
  8
Capa 1
 62
     7
420
 16777215
370
     9
100
AcDbVertex
100
AcDb2dVertex
 10
70.57054170327751
 20
-185.880815925752
 30
0.0
  0
VERTEX
  5
25E
330
25C
100
AcDbEntity
  8
Capa 1
 62
     7
420
 16777215
370
     9
100
AcDbVertex
100
AcDb2dVertex
 10
70.57054170327751
 20
-182.9989935523406
 30
0.0
  0
SEQEND
  5
25F
330
25C
100
AcDbEntity
  8
Capa 1
370
     9
  0
POLYLINE
  5
260
330
1F
100
AcDbEntity
  8
Capa 1
 62
     7
420
 16777215
370
     9
100
AcDb2dPolyline
 66
     1
 10
0.0
 20
0.0
 30
0.0
  0
VERTEX
  5
261
330
260
100
AcDbEntity
  8
Capa 1
 62
     7
420
 16777215
370
     9
100
AcDbVertex
100
AcDb2dVertex
 10
57.94667831667653
 20
-182.9989935523406
 30
0.0
  0
VERTEX
  5
262
330
260
100
AcDbEntity
  8
Capa 1
 62
     7
420
 16777215
370
     9
100
AcDbVertex
100
AcDb2dVertex
 10
57.94667831667653
 20
-185.880815925752
 30
0.0
  0
SEQEND
  5
263
330
260
100
AcDbEntity
  8
Capa 1
370
     9
  0
POLYLINE
  5
264
330
1F
100
AcDbEntity
  8
Capa 1
 62
     7
420
 16777215
370
     9
100
AcDb2dPolyline
 66
     1
 10
0.0
 20
0.0
 30
0.0
  0
VERTEX
  5
265
330
264
100
AcDbEntity
  8
Capa 1
 62
     7
420
 16777215
370
     9
100
AcDbVertex
100
AcDb2dVertex
 10
66.8984144255497
 20
-182.9989935523406
 30
0.0
  0
VERTEX
  5
266
330
264
100
AcDbEntity
  8
Capa 1
 62
     7
420
 16777215
370
     9
100
AcDbVertex
100
AcDb2dVertex
 10
67.9284979756394
 20
-182.9989935523406
 30
0.0
  0
SEQEND
  5
267
330
264
100
AcDbEntity
  8
Capa 1
370
     9
  0
POLYLINE
  5
268
330
1F
100
AcDbEntity
  8
Capa 1
 62
     7
420
 16777215
370
     9
100
AcDb2dPolyline
 66
     1
 10
0.0
 20
0.0
 30
0.0
  0
VERTEX
  5
269
330
268
100
AcDbEntity
  8
Capa 1
 62
     7
420
 16777215
370
     9
100
AcDbVertex
100
AcDb2dVertex
 10
70.57054170327751
 20
-182.9989935523406
 30
0.0
  0
VERTEX
  5
26A
330
268
100
AcDbEntity
  8
Capa 1
 62
     7
420
 16777215
370
     9
100
AcDbVertex
100
AcDb2dVertex
 10
70.59620766464262
 20
-182.9989935523406
 30
0.0
  0
SEQEND
  5
26B
330
268
100
AcDbEntity
  8
Capa 1
370
     9
  0
POLYLINE
  5
26C
330
1F
100
AcDbEntity
  8
Capa 1
 62
     7
420
 16777215
370
     9
100
AcDb2dPolyline
 66
     1
 10
0.0
 20
0.0
 30
0.0
  0
VERTEX
  5
26D
330
26C
100
AcDbEntity
  8
Capa 1
 62
     7
420
 16777215
370
     9
100
AcDbVertex
100
AcDb2dVertex
 10
57.94667831667653
 20
-182.9989935523406
 30
0.0
  0
VERTEX
  5
26E
330
26C
100
AcDbEntity
  8
Capa 1
 62
     7
420
 16777215
370
     9
100
AcDbVertex
100
AcDb2dVertex
 10
57.92101235531142
 20
-182.9989935523406
 30
0.0
  0
SEQEND
  5
26F
330
26C
100
AcDbEntity
  8
Capa 1
370
     9
  0
POLYLINE
  5
270
330
1F
100
AcDbEntity
  8
Capa 1
 62
     7
420
 16777215
370
     9
100
AcDb2dPolyline
 66
     1
 10
0.0
 20
0.0
 30
0.0
  0
VERTEX
  5
271
330
270
100
AcDbEntity
  8
Capa 1
 62
     7
420
 16777215
370
     9
100
AcDbVertex
100
AcDb2dVertex
 10
61.61880559440433
 20
-182.9989935523406
 30
0.0
  0
VERTEX
  5
272
330
270
100
AcDbEntity
  8
Capa 1
 62
     7
420
 16777215
370
     9
100
AcDbVertex
100
AcDb2dVertex
 10
61.61880559440433
 20
-185.880815925752
 30
0.0
  0
SEQEND
  5
273
330
270
100
AcDbEntity
  8
Capa 1
370
     9
  0
POLYLINE
  5
274
330
1F
100
AcDbEntity
  8
Capa 1
 62
     7
420
 16777215
370
     9
100
AcDb2dPolyline
 66
     1
 10
0.0
 20
0.0
 30
0.0
  0
VERTEX
  5
275
330
274
100
AcDbEntity
  8
Capa 1
 62
     7
420
 16777215
370
     9
100
AcDbVertex
100
AcDb2dVertex
 10
60.58872204431463
 20
-182.9989935523406
 30
0.0
  0
VERTEX
  5
276
330
274
100
AcDbEntity
  8
Capa 1
 62
     7
420
 16777215
370
     9
100
AcDbVertex
100
AcDb2dVertex
 10
61.61880559440433
 20
-182.9989935523406
 30
0.0
  0
SEQEND
  5
277
330
274
100
AcDbEntity
  8
Capa 1
370
     9
  0
POLYLINE
  5
278
330
1F
100
AcDbEntity
  8
Capa 1
 62
     7
420
 16777215
370
     9
100
AcDb2dPolyline
 66
     1
 10
0.0
 20
0.0
 30
0.0
  0
VERTEX
  5
279
330
278
100
AcDbEntity
  8
Capa 1
 62
     7
420
 16777215
370
     9
100
AcDbVertex
100
AcDb2dVertex
 10
60.58872204431463
 20
-185.880815925752
 30
0.0
  0
VERTEX
  5
27A
330
278
100
AcDbEntity
  8
Capa 1
 62
     7
420
 16777215
370
     9
100
AcDbVertex
100
AcDb2dVertex
 10
60.58872204431463
 20
-182.9989935523406
 30
0.0
  0
SEQEND
  5
27B
330
278
100
AcDbEntity
  8
Capa 1
370
     9
  0
POLYLINE
  5
27C
330
1F
100
AcDbEntity
  8
Capa 1
 62
     7
420
 16777215
370
     9
100
AcDb2dPolyline
 66
     1
 10
0.0
 20
0.0
 30
0.0
  0
VERTEX
  5
27D
330
27C
100
AcDbEntity
  8
Capa 1
 62
     7
420
 16777215
370
     9
100
AcDbVertex
100
AcDb2dVertex
 10
138.6451117274915
 20
-162.0497124160848
 30
0.0
  0
VERTEX
  5
27E
330
27C
100
AcDbEntity
  8
Capa 1
 62
     7
420
 16777215
370
     9
100
AcDbVertex
100
AcDb2dVertex
 10
144.029795970937
 20
-166.1052788213209
 30
0.0
  0
SEQEND
  5
27F
330
27C
100
AcDbEntity
  8
Capa 1
370
     9
  0
POLYLINE
  5
280
330
1F
100
AcDbEntity
  8
Capa 1
 62
     7
420
 16777215
370
     9
100
AcDb2dPolyline
 66
     1
 10
0.0
 20
0.0
 30
0.0
  0
VERTEX
  5
281
330
280
100
AcDbEntity
  8
Capa 1
 62
     7
420
 16777215
370
     9
100
AcDbVertex
100
AcDb2dVertex
 10
144.029795970937
 20
-184.11554899911
 30
0.0
  0
VERTEX
  5
282
330
280
100
AcDbEntity
  8
Capa 1
 62
     7
420
 16777215
370
     9
100
AcDbVertex
100
AcDb2dVertex
 10
138.6451117274915
 20
-188.1718044234432
 30
0.0
  0
SEQEND
  5
283
330
280
100
AcDbEntity
  8
Capa 1
370
     9
  0
POLYLINE
  5
284
330
1F
100
AcDbEntity
  8
Capa 1
 62
     7
420
 16777215
370
     9
100
AcDb2dPolyline
 66
     1
 10
0.0
 20
0.0
 30
0.0
  0
VERTEX
  5
285
330
284
100
AcDbEntity
  8
Capa 1
 62
     7
420
 16777215
370
     9
100
AcDbVertex
100
AcDb2dVertex
 10
193.8603460886877
 20
-183.0041611955684
 30
0.0
  0
VERTEX
  5
286
330
284
100
AcDbEntity
  8
Capa 1
 62
     7
420
 16777215
370
     9
100
AcDbVertex
100
AcDb2dVertex
 10
193.3835448735291
 20
-182.7416449195924
 30
0.0
  0
SEQEND
  5
287
330
284
100
AcDbEntity
  8
Capa 1
370
     9
  0
POLYLINE
  5
288
330
1F
100
AcDbEntity
  8
Capa 1
 62
     7
420
 16777215
370
     9
100
AcDb2dPolyline
 66
     1
 10
0.0
 20
0.0
 30
0.0
  0
VERTEX
  5
289
330
288
100
AcDbEntity
  8
Capa 1
 62
     7
420
 16777215
370
     9
100
AcDbVertex
100
AcDb2dVertex
 10
193.3835448735291
 20
-182.7416449195924
 30
0.0
  0
VERTEX
  5
28A
330
288
100
AcDbEntity
  8
Capa 1
 62
     7
420
 16777215
370
     9
100
AcDbVertex
100
AcDb2dVertex
 10
192.7220865403611
 20
-180.4306748680868
 30
0.0
  0
SEQEND
  5
28B
330
288
100
AcDbEntity
  8
Capa 1
370
     9
  0
POLYLINE
  5
28C
330
1F
100
AcDbEntity
  8
Capa 1
 62
     7
420
 16777215
370
     9
100
AcDb2dPolyline
 66
     1
 10
0.0
 20
0.0
 30
0.0
  0
VERTEX
  5
28D
330
28C
100
AcDbEntity
  8
Capa 1
 62
     7
420
 16777215
370
     9
100
AcDbVertex
100
AcDb2dVertex
 10
201.5856282048119
 20
-177.8930175336517
 30
0.0
  0
VERTEX
  5
28E
330
28C
100
AcDbEntity
  8
Capa 1
 62
     7
420
 16777215
370
     9
100
AcDbVertex
100
AcDb2dVertex
 10
202.2463975188828
 20
-180.1984754323809
 30
0.0
  0
SEQEND
  5
28F
330
28C
100
AcDbEntity
  8
Capa 1
370
     9
  0
POLYLINE
  5
290
330
1F
100
AcDbEntity
  8
Capa 1
 62
     7
420
 16777215
370
     9
100
AcDb2dPolyline
 66
     1
 10
0.0
 20
0.0
 30
0.0
  0
VERTEX
  5
291
330
290
100
AcDbEntity
  8
Capa 1
 62
     7
420
 16777215
370
     9
100
AcDbVertex
100
AcDb2dVertex
 10
202.2463975188828
 20
-180.1984754323809
 30
0.0
  0
VERTEX
  5
292
330
290
100
AcDbEntity
  8
Capa 1
 62
     7
420
 16777215
370
     9
100
AcDbVertex
100
AcDb2dVertex
 10
201.9838812429068
 20
-180.6725205711513
 30
0.0
  0
SEQEND
  5
293
330
290
100
AcDbEntity
  8
Capa 1
370
     9
  0
POLYLINE
  5
294
330
1F
100
AcDbEntity
  8
Capa 1
 62
     7
420
 16777215
370
     9
100
AcDb2dPolyline
 66
     1
 10
0.0
 20
0.0
 30
0.0
  0
VERTEX
  5
295
330
294
100
AcDbEntity
  8
Capa 1
 62
     7
420
 16777215
370
     9
100
AcDbVertex
100
AcDb2dVertex
 10
193.8603460886877
 20
-183.0041611955684
 30
0.0
  0
VERTEX
  5
296
330
294
100
AcDbEntity
  8
Capa 1
 62
     7
420
 16777215
370
     9
100
AcDbVertex
100
AcDb2dVertex
 10
193.3835448735291
 20
-182.7416449195924
 30
0.0
  0
SEQEND
  5
297
330
294
100
AcDbEntity
  8
Capa 1
370
     9
  0
POLYLINE
  5
298
330
1F
100
AcDbEntity
  8
Capa 1
 62
     7
420
 16777215
370
     9
100
AcDb2dPolyline
 66
     1
 10
0.0
 20
0.0
 30
0.0
  0
VERTEX
  5
299
330
298
100
AcDbEntity
  8
Capa 1
 62
     7
420
 16777215
370
     9
100
AcDbVertex
100
AcDb2dVertex
 10
146.1350938219732
 20
-180.875092185684
 30
0.0
  0
VERTEX
  5
29A
330
298
100
AcDbEntity
  8
Capa 1
 62
     7
420
 16777215
370
     9
100
AcDbVertex
100
AcDb2dVertex
 10
145.560107385485
 20
-180.2976941823561
 30
0.0
  0
SEQEND
  5
29B
330
298
100
AcDbEntity
  8
Capa 1
370
     9
  0
POLYLINE
  5
29C
330
1F
100
AcDbEntity
  8
Capa 1
 62
     7
420
 16777215
370
     9
100
AcDb2dPolyline
 66
     1
 10
0.0
 20
0.0
 30
0.0
  0
VERTEX
  5
29D
330
29C
100
AcDbEntity
  8
Capa 1
 62
     7
420
 16777215
370
     9
100
AcDbVertex
100
AcDb2dVertex
 10
145.560107385485
 20
-169.9238226571718
 30
0.0
  0
VERTEX
  5
29E
330
29C
100
AcDbEntity
  8
Capa 1
 62
     7
420
 16777215
370
     9
100
AcDbVertex
100
AcDb2dVertex
 10
146.1350938219732
 20
-169.346424653844
 30
0.0
  0
SEQEND
  5
29F
330
29C
100
AcDbEntity
  8
Capa 1
370
     9
  0
POLYLINE
  5
2A0
330
1F
100
AcDbEntity
  8
Capa 1
 62
     7
420
 16777215
370
     9
100
AcDb2dPolyline
 66
     1
 10
0.0
 20
0.0
 30
0.0
  0
VERTEX
  5
2A1
330
2A0
100
AcDbEntity
  8
Capa 1
 62
     7
420
 16777215
370
     9
100
AcDbVertex
100
AcDb2dVertex
 10
150.1689561256522
 20
-169.346424653844
 30
0.0
  0
VERTEX
  5
2A2
330
2A0
100
AcDbEntity
  8
Capa 1
 62
     7
420
 16777215
370
     9
100
AcDbVertex
100
AcDb2dVertex
 10
150.7463541289801
 20
-169.9238226571718
 30
0.0
  0
SEQEND
  5
2A3
330
2A0
100
AcDbEntity
  8
Capa 1
370
     9
  0
POLYLINE
  5
2A4
330
1F
100
AcDbEntity
  8
Capa 1
 62
     7
420
 16777215
370
     9
100
AcDb2dPolyline
 66
     1
 10
0.0
 20
0.0
 30
0.0
  0
VERTEX
  5
2A5
330
2A4
100
AcDbEntity
  8
Capa 1
 62
     7
420
 16777215
370
     9
100
AcDbVertex
100
AcDb2dVertex
 10
150.7463541289801
 20
-180.2976941823561
 30
0.0
  0
VERTEX
  5
2A6
330
2A4
100
AcDbEntity
  8
Capa 1
 62
     7
420
 16777215
370
     9
100
AcDbVertex
100
AcDb2dVertex
 10
150.1689561256522
 20
-180.875092185684
 30
0.0
  0
SEQEND
  5
2A7
330
2A4
100
AcDbEntity
  8
Capa 1
370
     9
  0
POLYLINE
  5
2A8
330
1F
100
AcDbEntity
  8
Capa 1
 62
     7
420
 16777215
370
     9
100
AcDb2dPolyline
 66
     1
 10
0.0
 20
0.0
 30
0.0
  0
VERTEX
  5
2A9
330
2A8
100
AcDbEntity
  8
Capa 1
 62
     7
420
 16777215
370
     9
100
AcDbVertex
100
AcDb2dVertex
 10
146.1350938219732
 20
-180.875092185684
 30
0.0
  0
VERTEX
  5
2AA
330
2A8
100
AcDbEntity
  8
Capa 1
 62
     7
420
 16777215
370
     9
100
AcDbVertex
100
AcDb2dVertex
 10
145.560107385485
 20
-180.2976941823561
 30
0.0
  0
SEQEND
  5
2AB
330
2A8
100
AcDbEntity
  8
Capa 1
370
     9
  0
POLYLINE
  5
2AC
330
1F
100
AcDbEntity
  8
Capa 1
 62
     7
420
 16777215
370
     9
100
AcDb2dPolyline
 66
     1
 10
0.0
 20
0.0
 30
0.0
  0
VERTEX
  5
2AD
330
2AC
100
AcDbEntity
  8
Capa 1
 62
     7
420
 16777215
370
     9
100
AcDbVertex
100
AcDb2dVertex
 10
145.560107385485
 20
-169.9238226571718
 30
0.0
  0
VERTEX
  5
2AE
330
2AC
100
AcDbEntity
  8
Capa 1
 62
     7
420
 16777215
370
     9
100
AcDbVertex
100
AcDb2dVertex
 10
146.1350938219732
 20
-169.346424653844
 30
0.0
  0
SEQEND
  5
2AF
330
2AC
100
AcDbEntity
  8
Capa 1
370
     9
  0
POLYLINE
  5
2B0
330
1F
100
AcDbEntity
  8
Capa 1
 62
     7
420
 16777215
370
     9
100
AcDb2dPolyline
 66
     1
 10
0.0
 20
0.0
 30
0.0
  0
VERTEX
  5
2B1
330
2B0
100
AcDbEntity
  8
Capa 1
 62
     7
420
 16777215
370
     9
100
AcDbVertex
100
AcDb2dVertex
 10
150.1689561256522
 20
-169.346424653844
 30
0.0
  0
VERTEX
  5
2B2
330
2B0
100
AcDbEntity
  8
Capa 1
 62
     7
420
 16777215
370
     9
100
AcDbVertex
100
AcDb2dVertex
 10
150.7463541289801
 20
-169.9238226571718
 30
0.0
  0
SEQEND
  5
2B3
330
2B0
100
AcDbEntity
  8
Capa 1
370
     9
  0
POLYLINE
  5
2B4
330
1F
100
AcDbEntity
  8
Capa 1
 62
     7
420
 16777215
370
     9
100
AcDb2dPolyline
 66
     1
 10
0.0
 20
0.0
 30
0.0
  0
VERTEX
  5
2B5
330
2B4
100
AcDbEntity
  8
Capa 1
 62
     7
420
 16777215
370
     9
100
AcDbVertex
100
AcDb2dVertex
 10
150.7463541289801
 20
-180.2976941823561
 30
0.0
  0
VERTEX
  5
2B6
330
2B4
100
AcDbEntity
  8
Capa 1
 62
     7
420
 16777215
370
     9
100
AcDbVertex
100
AcDb2dVertex
 10
150.1689561256522
 20
-180.875092185684
 30
0.0
  0
SEQEND
  5
2B7
330
2B4
100
AcDbEntity
  8
Capa 1
370
     9
  0
POLYLINE
  5
2B8
330
1F
100
AcDbEntity
  8
Capa 1
 62
     7
420
 16777215
370
     9
100
AcDb2dPolyline
 66
     1
 10
0.0
 20
0.0
 30
0.0
  0
VERTEX
  5
2B9
330
2B8
100
AcDbEntity
  8
Capa 1
 62
     7
420
 16777215
370
     9
100
AcDbVertex
100
AcDb2dVertex
 10
202.2463975188828
 20
-180.1984754323809
 30
0.0
  0
VERTEX
  5
2BA
330
2B8
100
AcDbEntity
  8
Capa 1
 62
     7
420
 16777215
370
     9
100
AcDbVertex
100
AcDb2dVertex
 10
201.9838812429068
 20
-180.6725205711513
 30
0.0
  0
SEQEND
  5
2BB
330
2B8
100
AcDbEntity
  8
Capa 1
370
     9
  0
POLYLINE
  5
2BC
330
1F
100
AcDbEntity
  8
Capa 1
 62
     7
420
 16777215
370
     9
100
AcDb2dPolyline
 66
     1
 10
0.0
 20
0.0
 30
0.0
  0
VERTEX
  5
2BD
330
2BC
100
AcDbEntity
  8
Capa 1
 62
     7
420
 16777215
370
     9
100
AcDbVertex
100
AcDb2dVertex
 10
150.1689561256522
 20
-169.346424653844
 30
0.0
  0
VERTEX
  5
2BE
330
2BC
100
AcDbEntity
  8
Capa 1
 62
     7
420
 16777215
370
     9
100
AcDbVertex
100
AcDb2dVertex
 10
150.7463541289801
 20
-169.9238226571718
 30
0.0
  0
SEQEND
  5
2BF
330
2BC
100
AcDbEntity
  8
Capa 1
370
     9
  0
POLYLINE
  5
2C0
330
1F
100
AcDbEntity
  8
Capa 1
 62
     7
420
 16777215
370
     9
100
AcDb2dPolyline
 66
     1
 10
0.0
 20
0.0
 30
0.0
  0
VERTEX
  5
2C1
330
2C0
100
AcDbEntity
  8
Capa 1
 62
     7
420
 16777215
370
     9
100
AcDbVertex
100
AcDb2dVertex
 10
150.7463541289801
 20
-180.2976941823561
 30
0.0
  0
VERTEX
  5
2C2
330
2C0
100
AcDbEntity
  8
Capa 1
 62
     7
420
 16777215
370
     9
100
AcDbVertex
100
AcDb2dVertex
 10
150.1689561256522
 20
-180.875092185684
 30
0.0
  0
SEQEND
  5
2C3
330
2C0
100
AcDbEntity
  8
Capa 1
370
     9
  0
POLYLINE
  5
2C4
330
1F
100
AcDbEntity
  8
Capa 1
 62
     7
420
 16777215
370
     9
100
AcDb2dPolyline
 66
     1
 10
0.0
 20
0.0
 30
0.0
  0
VERTEX
  5
2C5
330
2C4
100
AcDbEntity
  8
Capa 1
 62
     7
420
 16777215
370
     9
100
AcDbVertex
100
AcDb2dVertex
 10
146.1350938219732
 20
-180.875092185684
 30
0.0
  0
VERTEX
  5
2C6
330
2C4
100
AcDbEntity
  8
Capa 1
 62
     7
420
 16777215
370
     9
100
AcDbVertex
100
AcDb2dVertex
 10
145.560107385485
 20
-180.2976941823561
 30
0.0
  0
SEQEND
  5
2C7
330
2C4
100
AcDbEntity
  8
Capa 1
370
     9
  0
POLYLINE
  5
2C8
330
1F
100
AcDbEntity
  8
Capa 1
 62
     7
420
 16777215
370
     9
100
AcDb2dPolyline
 66
     1
 10
0.0
 20
0.0
 30
0.0
  0
VERTEX
  5
2C9
330
2C8
100
AcDbEntity
  8
Capa 1
 62
     7
420
 16777215
370
     9
100
AcDbVertex
100
AcDb2dVertex
 10
145.560107385485
 20
-169.9238226571718
 30
0.0
  0
VERTEX
  5
2CA
330
2C8
100
AcDbEntity
  8
Capa 1
 62
     7
420
 16777215
370
     9
100
AcDbVertex
100
AcDb2dVertex
 10
146.1350938219732
 20
-169.346424653844
 30
0.0
  0
SEQEND
  5
2CB
330
2C8
100
AcDbEntity
  8
Capa 1
370
     9
  0
POLYLINE
  5
2CC
330
1F
100
AcDbEntity
  8
Capa 1
 62
     7
420
 16777215
370
     9
100
AcDb2dPolyline
 66
     1
 10
0.0
 20
0.0
 30
0.0
  0
VERTEX
  5
2CD
330
2CC
100
AcDbEntity
  8
Capa 1
 62
     7
420
 16777215
370
     9
100
AcDbVertex
100
AcDb2dVertex
 10
173.5067219618317
 20
-160.5159559060516
 30
0.0
  0
VERTEX
  5
2CE
330
2CC
100
AcDbEntity
  8
Capa 1
 62
     7
420
 16777215
370
     9
100
AcDbVertex
100
AcDb2dVertex
 10
173.5067219618317
 20
-168.9715982650488
 30
0.0
  0
SEQEND
  5
2CF
330
2CC
100
AcDbEntity
  8
Capa 1
370
     9
  0
POLYLINE
  5
2D0
330
1F
100
AcDbEntity
  8
Capa 1
 62
     7
420
 16777215
370
     9
100
AcDb2dPolyline
 66
     1
 10
0.0
 20
0.0
 30
0.0
  0
VERTEX
  5
2D1
330
2D0
100
AcDbEntity
  8
Capa 1
 62
     7
420
 16777215
370
     9
100
AcDbVertex
100
AcDb2dVertex
 10
155.0671928865804
 20
-168.9674641504665
 30
0.0
  0
VERTEX
  5
2D2
330
2D0
100
AcDbEntity
  8
Capa 1
 62
     7
420
 16777215
370
     9
100
AcDbVertex
100
AcDb2dVertex
 10
155.0671928865804
 20
-160.5159559060516
 30
0.0
  0
SEQEND
  5
2D3
330
2D0
100
AcDbEntity
  8
Capa 1
370
     9
  0
POLYLINE
  5
2D4
330
1F
100
AcDbEntity
  8
Capa 1
 62
     7
420
 16777215
370
     9
100
AcDb2dPolyline
 66
     1
 10
0.0
 20
0.0
 30
0.0
  0
VERTEX
  5
2D5
330
2D4
100
AcDbEntity
  8
Capa 1
 62
     7
420
 16777215
370
     9
100
AcDbVertex
100
AcDb2dVertex
 10
201.5856282048119
 20
-177.8930175336517
 30
0.0
  0
VERTEX
  5
2D6
330
2D4
100
AcDbEntity
  8
Capa 1
 62
     7
420
 16777215
370
     9
100
AcDbVertex
100
AcDb2dVertex
 10
202.2463975188828
 20
-180.1984754323809
 30
0.0
  0
SEQEND
  5
2D7
330
2D4
100
AcDbEntity
  8
Capa 1
370
     9
  0
POLYLINE
  5
2D8
330
1F
100
AcDbEntity
  8
Capa 1
 62
     7
420
 16777215
370
     9
100
AcDb2dPolyline
 66
     1
 10
0.0
 20
0.0
 30
0.0
  0
VERTEX
  5
2D9
330
2D8
100
AcDbEntity
  8
Capa 1
 62
     7
420
 16777215
370
     9
100
AcDbVertex
100
AcDb2dVertex
 10
193.3835448735291
 20
-182.7416449195924
 30
0.0
  0
VERTEX
  5
2DA
330
2D8
100
AcDbEntity
  8
Capa 1
 62
     7
420
 16777215
370
     9
100
AcDbVertex
100
AcDb2dVertex
 10
192.7220865403611
 20
-180.4306748680868
 30
0.0
  0
SEQEND
  5
2DB
330
2D8
100
AcDbEntity
  8
Capa 1
370
     9
  0
POLYLINE
  5
2DC
330
1F
100
AcDbEntity
  8
Capa 1
 62
     7
420
 16777215
370
     9
100
AcDb2dPolyline
 66
     1
 10
0.0
 20
0.0
 30
0.0
  0
VERTEX
  5
2DD
330
2DC
100
AcDbEntity
  8
Capa 1
 62
     7
420
 16777215
370
     9
100
AcDbVertex
100
AcDb2dVertex
 10
138.6451117274915
 20
-162.0497124160848
 30
0.0
  0
VERTEX
  5
2DE
330
2DC
100
AcDbEntity
  8
Capa 1
 62
     7
420
 16777215
370
     9
100
AcDbVertex
100
AcDb2dVertex
 10
138.6451117274915
 20
-188.1718044234432
 30
0.0
  0
SEQEND
  5
2DF
330
2DC
100
AcDbEntity
  8
Capa 1
370
     9
  0
POLYLINE
  5
2E0
330
1F
100
AcDbEntity
  8
Capa 1
 62
     7
420
 16777215
370
     9
100
AcDb2dPolyline
 66
     1
 10
0.0
 20
0.0
 30
0.0
  0
VERTEX
  5
2E1
330
2E0
100
AcDbEntity
  8
Capa 1
 62
     7
420
 16777215
370
     9
100
AcDbVertex
100
AcDb2dVertex
 10
145.560107385485
 20
-169.1741698795815
 30
0.0
  0
VERTEX
  5
2E2
330
2E0
100
AcDbEntity
  8
Capa 1
 62
     7
420
 16777215
370
     9
100
AcDbVertex
100
AcDb2dVertex
 10
145.560107385485
 20
-181.0473469599465
 30
0.0
  0
SEQEND
  5
2E3
330
2E0
100
AcDbEntity
  8
Capa 1
370
     9
  0
POLYLINE
  5
2E4
330
1F
100
AcDbEntity
  8
Capa 1
 62
     7
420
 16777215
370
     9
100
AcDb2dPolyline
 66
     1
 10
0.0
 20
0.0
 30
0.0
  0
VERTEX
  5
2E5
330
2E4
100
AcDbEntity
  8
Capa 1
 62
     7
420
 16777215
370
     9
100
AcDbVertex
100
AcDb2dVertex
 10
146.712491825301
 20
-169.346424653844
 30
0.0
  0
VERTEX
  5
2E6
330
2E4
100
AcDbEntity
  8
Capa 1
 62
     7
420
 16777215
370
     9
100
AcDbVertex
100
AcDb2dVertex
 10
149.5943141987125
 20
-169.346424653844
 30
0.0
  0
SEQEND
  5
2E7
330
2E4
100
AcDbEntity
  8
Capa 1
370
     9
  0
POLYLINE
  5
2E8
330
1F
100
AcDbEntity
  8
Capa 1
 62
     7
420
 16777215
370
     9
100
AcDb2dPolyline
 66
     1
 10
0.0
 20
0.0
 30
0.0
  0
VERTEX
  5
2E9
330
2E8
100
AcDbEntity
  8
Capa 1
 62
     7
420
 16777215
370
     9
100
AcDbVertex
100
AcDb2dVertex
 10
146.712491825301
 20
-169.9410481345981
 30
0.0
  0
VERTEX
  5
2EA
330
2E8
100
AcDbEntity
  8
Capa 1
 62
     7
420
 16777215
370
     9
100
AcDbVertex
100
AcDb2dVertex
 10
146.712491825301
 20
-169.346424653844
 30
0.0
  0
SEQEND
  5
2EB
330
2E8
100
AcDbEntity
  8
Capa 1
370
     9
  0
POLYLINE
  5
2EC
330
1F
100
AcDbEntity
  8
Capa 1
 62
     7
420
 16777215
370
     9
100
AcDb2dPolyline
 66
     1
 10
0.0
 20
0.0
 30
0.0
  0
VERTEX
  5
2ED
330
2EC
100
AcDbEntity
  8
Capa 1
 62
     7
420
 16777215
370
     9
100
AcDbVertex
100
AcDb2dVertex
 10
149.5943141987125
 20
-169.9410481345981
 30
0.0
  0
VERTEX
  5
2EE
330
2EC
100
AcDbEntity
  8
Capa 1
 62
     7
420
 16777215
370
     9
100
AcDbVertex
100
AcDb2dVertex
 10
146.712491825301
 20
-169.9410481345981
 30
0.0
  0
SEQEND
  5
2EF
330
2EC
100
AcDbEntity
  8
Capa 1
370
     9
  0
POLYLINE
  5
2F0
330
1F
100
AcDbEntity
  8
Capa 1
 62
     7
420
 16777215
370
     9
100
AcDb2dPolyline
 66
     1
 10
0.0
 20
0.0
 30
0.0
  0
VERTEX
  5
2F1
330
2F0
100
AcDbEntity
  8
Capa 1
 62
     7
420
 16777215
370
     9
100
AcDbVertex
100
AcDb2dVertex
 10
149.5943141987125
 20
-169.346424653844
 30
0.0
  0
VERTEX
  5
2F2
330
2F0
100
AcDbEntity
  8
Capa 1
 62
     7
420
 16777215
370
     9
100
AcDbVertex
100
AcDb2dVertex
 10
149.5943141987125
 20
-169.9410481345981
 30
0.0
  0
SEQEND
  5
2F3
330
2F0
100
AcDbEntity
  8
Capa 1
370
     9
  0
POLYLINE
  5
2F4
330
1F
100
AcDbEntity
  8
Capa 1
 62
     7
420
 16777215
370
     9
100
AcDb2dPolyline
 66
     1
 10
0.0
 20
0.0
 30
0.0
  0
VERTEX
  5
2F5
330
2F4
100
AcDbEntity
  8
Capa 1
 62
     7
420
 16777215
370
     9
100
AcDbVertex
100
AcDb2dVertex
 10
149.5943141987125
 20
-174.518201996301
 30
0.0
  0
VERTEX
  5
2F6
330
2F4
100
AcDbEntity
  8
Capa 1
 62
     7
420
 16777215
370
     9
100
AcDbVertex
100
AcDb2dVertex
 10
149.5943141987125
 20
-175.703314843227
 30
0.0
  0
SEQEND
  5
2F7
330
2F4
100
AcDbEntity
  8
Capa 1
370
     9
  0
POLYLINE
  5
2F8
330
1F
100
AcDbEntity
  8
Capa 1
 62
     7
420
 16777215
370
     9
100
AcDb2dPolyline
 66
     1
 10
0.0
 20
0.0
 30
0.0
  0
VERTEX
  5
2F9
330
2F8
100
AcDbEntity
  8
Capa 1
 62
     7
420
 16777215
370
     9
100
AcDbVertex
100
AcDb2dVertex
 10
150.7463541289801
 20
-180.2976941823561
 30
0.0
  0
VERTEX
  5
2FA
330
2F8
100
AcDbEntity
  8
Capa 1
 62
     7
420
 16777215
370
     9
100
AcDbVertex
100
AcDb2dVertex
 10
150.7463541289801
 20
-169.9238226571718
 30
0.0
  0
SEQEND
  5
2FB
330
2F8
100
AcDbEntity
  8
Capa 1
370
     9
  0
POLYLINE
  5
2FC
330
1F
100
AcDbEntity
  8
Capa 1
 62
     7
420
 16777215
370
     9
100
AcDb2dPolyline
 66
     1
 10
0.0
 20
0.0
 30
0.0
  0
VERTEX
  5
2FD
330
2FC
100
AcDbEntity
  8
Capa 1
 62
     7
420
 16777215
370
     9
100
AcDbVertex
100
AcDb2dVertex
 10
146.712491825301
 20
-175.703314843227
 30
0.0
  0
VERTEX
  5
2FE
330
2FC
100
AcDbEntity
  8
Capa 1
 62
     7
420
 16777215
370
     9
100
AcDbVertex
100
AcDb2dVertex
 10
146.712491825301
 20
-174.518201996301
 30
0.0
  0
SEQEND
  5
2FF
330
2FC
100
AcDbEntity
  8
Capa 1
370
     9
  0
POLYLINE
  5
300
330
1F
100
AcDbEntity
  8
Capa 1
 62
     7
420
 16777215
370
     9
100
AcDb2dPolyline
 66
     1
 10
0.0
 20
0.0
 30
0.0
  0
VERTEX
  5
301
330
300
100
AcDbEntity
  8
Capa 1
 62
     7
420
 16777215
370
     9
100
AcDbVertex
100
AcDb2dVertex
 10
146.712491825301
 20
-174.518201996301
 30
0.0
  0
VERTEX
  5
302
330
300
100
AcDbEntity
  8
Capa 1
 62
     7
420
 16777215
370
     9
100
AcDbVertex
100
AcDb2dVertex
 10
149.5943141987125
 20
-174.518201996301
 30
0.0
  0
SEQEND
  5
303
330
300
100
AcDbEntity
  8
Capa 1
370
     9
  0
POLYLINE
  5
304
330
1F
100
AcDbEntity
  8
Capa 1
 62
     7
420
 16777215
370
     9
100
AcDb2dPolyline
 66
     1
 10
0.0
 20
0.0
 30
0.0
  0
VERTEX
  5
305
330
304
100
AcDbEntity
  8
Capa 1
 62
     7
420
 16777215
370
     9
100
AcDbVertex
100
AcDb2dVertex
 10
149.5943141987125
 20
-169.346424653844
 30
0.0
  0
VERTEX
  5
306
330
304
100
AcDbEntity
  8
Capa 1
 62
     7
420
 16777215
370
     9
100
AcDbVertex
100
AcDb2dVertex
 10
149.5943141987125
 20
-169.9410481345981
 30
0.0
  0
SEQEND
  5
307
330
304
100
AcDbEntity
  8
Capa 1
370
     9
  0
POLYLINE
  5
308
330
1F
100
AcDbEntity
  8
Capa 1
 62
     7
420
 16777215
370
     9
100
AcDb2dPolyline
 66
     1
 10
0.0
 20
0.0
 30
0.0
  0
VERTEX
  5
309
330
308
100
AcDbEntity
  8
Capa 1
 62
     7
420
 16777215
370
     9
100
AcDbVertex
100
AcDb2dVertex
 10
149.5943141987125
 20
-174.518201996301
 30
0.0
  0
VERTEX
  5
30A
330
308
100
AcDbEntity
  8
Capa 1
 62
     7
420
 16777215
370
     9
100
AcDbVertex
100
AcDb2dVertex
 10
149.5943141987125
 20
-175.703314843227
 30
0.0
  0
SEQEND
  5
30B
330
308
100
AcDbEntity
  8
Capa 1
370
     9
  0
POLYLINE
  5
30C
330
1F
100
AcDbEntity
  8
Capa 1
 62
     7
420
 16777215
370
     9
100
AcDb2dPolyline
 66
     1
 10
0.0
 20
0.0
 30
0.0
  0
VERTEX
  5
30D
330
30C
100
AcDbEntity
  8
Capa 1
 62
     7
420
 16777215
370
     9
100
AcDbVertex
100
AcDb2dVertex
 10
150.7463541289801
 20
-180.2976941823561
 30
0.0
  0
VERTEX
  5
30E
330
30C
100
AcDbEntity
  8
Capa 1
 62
     7
420
 16777215
370
     9
100
AcDbVertex
100
AcDb2dVertex
 10
150.7463541289801
 20
-169.9238226571718
 30
0.0
  0
SEQEND
  5
30F
330
30C
100
AcDbEntity
  8
Capa 1
370
     9
  0
POLYLINE
  5
310
330
1F
100
AcDbEntity
  8
Capa 1
 62
     7
420
 16777215
370
     9
100
AcDb2dPolyline
 66
     1
 10
0.0
 20
0.0
 30
0.0
  0
VERTEX
  5
311
330
310
100
AcDbEntity
  8
Capa 1
 62
     7
420
 16777215
370
     9
100
AcDbVertex
100
AcDb2dVertex
 10
146.712491825301
 20
-169.346424653844
 30
0.0
  0
VERTEX
  5
312
330
310
100
AcDbEntity
  8
Capa 1
 62
     7
420
 16777215
370
     9
100
AcDbVertex
100
AcDb2dVertex
 10
149.5943141987125
 20
-169.346424653844
 30
0.0
  0
SEQEND
  5
313
330
310
100
AcDbEntity
  8
Capa 1
370
     9
  0
POLYLINE
  5
314
330
1F
100
AcDbEntity
  8
Capa 1
 62
     7
420
 16777215
370
     9
100
AcDb2dPolyline
 66
     1
 10
0.0
 20
0.0
 30
0.0
  0
VERTEX
  5
315
330
314
100
AcDbEntity
  8
Capa 1
 62
     7
420
 16777215
370
     9
100
AcDbVertex
100
AcDb2dVertex
 10
146.712491825301
 20
-169.9410481345981
 30
0.0
  0
VERTEX
  5
316
330
314
100
AcDbEntity
  8
Capa 1
 62
     7
420
 16777215
370
     9
100
AcDbVertex
100
AcDb2dVertex
 10
146.712491825301
 20
-169.346424653844
 30
0.0
  0
SEQEND
  5
317
330
314
100
AcDbEntity
  8
Capa 1
370
     9
  0
POLYLINE
  5
318
330
1F
100
AcDbEntity
  8
Capa 1
 62
     7
420
 16777215
370
     9
100
AcDb2dPolyline
 66
     1
 10
0.0
 20
0.0
 30
0.0
  0
VERTEX
  5
319
330
318
100
AcDbEntity
  8
Capa 1
 62
     7
420
 16777215
370
     9
100
AcDbVertex
100
AcDb2dVertex
 10
149.5943141987125
 20
-169.9410481345981
 30
0.0
  0
VERTEX
  5
31A
330
318
100
AcDbEntity
  8
Capa 1
 62
     7
420
 16777215
370
     9
100
AcDbVertex
100
AcDb2dVertex
 10
146.712491825301
 20
-169.9410481345981
 30
0.0
  0
SEQEND
  5
31B
330
318
100
AcDbEntity
  8
Capa 1
370
     9
  0
POLYLINE
  5
31C
330
1F
100
AcDbEntity
  8
Capa 1
 62
     7
420
 16777215
370
     9
100
AcDb2dPolyline
 66
     1
 10
0.0
 20
0.0
 30
0.0
  0
VERTEX
  5
31D
330
31C
100
AcDbEntity
  8
Capa 1
 62
     7
420
 16777215
370
     9
100
AcDbVertex
100
AcDb2dVertex
 10
146.712491825301
 20
-175.703314843227
 30
0.0
  0
VERTEX
  5
31E
330
31C
100
AcDbEntity
  8
Capa 1
 62
     7
420
 16777215
370
     9
100
AcDbVertex
100
AcDb2dVertex
 10
146.712491825301
 20
-174.518201996301
 30
0.0
  0
SEQEND
  5
31F
330
31C
100
AcDbEntity
  8
Capa 1
370
     9
  0
POLYLINE
  5
320
330
1F
100
AcDbEntity
  8
Capa 1
 62
     7
420
 16777215
370
     9
100
AcDb2dPolyline
 66
     1
 10
0.0
 20
0.0
 30
0.0
  0
VERTEX
  5
321
330
320
100
AcDbEntity
  8
Capa 1
 62
     7
420
 16777215
370
     9
100
AcDbVertex
100
AcDb2dVertex
 10
146.712491825301
 20
-174.518201996301
 30
0.0
  0
VERTEX
  5
322
330
320
100
AcDbEntity
  8
Capa 1
 62
     7
420
 16777215
370
     9
100
AcDbVertex
100
AcDb2dVertex
 10
149.5943141987125
 20
-174.518201996301
 30
0.0
  0
SEQEND
  5
323
330
320
100
AcDbEntity
  8
Capa 1
370
     9
  0
POLYLINE
  5
324
330
1F
100
AcDbEntity
  8
Capa 1
 62
     7
420
 16777215
370
     9
100
AcDb2dPolyline
 66
     1
 10
0.0
 20
0.0
 30
0.0
  0
VERTEX
  5
325
330
324
100
AcDbEntity
  8
Capa 1
 62
     7
420
 16777215
370
     9
100
AcDbVertex
100
AcDb2dVertex
 10
150.7463541289801
 20
-169.8459634992052
 30
0.0
  0
VERTEX
  5
326
330
324
100
AcDbEntity
  8
Capa 1
 62
     7
420
 16777215
370
     9
100
AcDbVertex
100
AcDb2dVertex
 10
150.6671169328193
 20
-169.8459634992052
 30
0.0
  0
SEQEND
  5
327
330
324
100
AcDbEntity
  8
Capa 1
370
     9
  0
POLYLINE
  5
328
330
1F
100
AcDbEntity
  8
Capa 1
 62
     7
420
 16777215
370
     9
100
AcDb2dPolyline
 66
     1
 10
0.0
 20
0.0
 30
0.0
  0
VERTEX
  5
329
330
328
100
AcDbEntity
  8
Capa 1
 62
     7
420
 16777215
370
     9
100
AcDbVertex
100
AcDb2dVertex
 10
146.712491825301
 20
-169.346424653844
 30
0.0
  0
VERTEX
  5
32A
330
328
100
AcDbEntity
  8
Capa 1
 62
     7
420
 16777215
370
     9
100
AcDbVertex
100
AcDb2dVertex
 10
149.5943141987125
 20
-169.346424653844
 30
0.0
  0
SEQEND
  5
32B
330
328
100
AcDbEntity
  8
Capa 1
370
     9
  0
POLYLINE
  5
32C
330
1F
100
AcDbEntity
  8
Capa 1
 62
     7
420
 16777215
370
     9
100
AcDb2dPolyline
 66
     1
 10
0.0
 20
0.0
 30
0.0
  0
VERTEX
  5
32D
330
32C
100
AcDbEntity
  8
Capa 1
 62
     7
420
 16777215
370
     9
100
AcDbVertex
100
AcDb2dVertex
 10
146.712491825301
 20
-169.9410481345981
 30
0.0
  0
VERTEX
  5
32E
330
32C
100
AcDbEntity
  8
Capa 1
 62
     7
420
 16777215
370
     9
100
AcDbVertex
100
AcDb2dVertex
 10
146.712491825301
 20
-169.346424653844
 30
0.0
  0
SEQEND
  5
32F
330
32C
100
AcDbEntity
  8
Capa 1
370
     9
  0
POLYLINE
  5
330
330
1F
100
AcDbEntity
  8
Capa 1
 62
     7
420
 16777215
370
     9
100
AcDb2dPolyline
 66
     1
 10
0.0
 20
0.0
 30
0.0
  0
VERTEX
  5
331
330
330
100
AcDbEntity
  8
Capa 1
 62
     7
420
 16777215
370
     9
100
AcDbVertex
100
AcDb2dVertex
 10
149.5943141987125
 20
-169.9410481345981
 30
0.0
  0
VERTEX
  5
332
330
330
100
AcDbEntity
  8
Capa 1
 62
     7
420
 16777215
370
     9
100
AcDbVertex
100
AcDb2dVertex
 10
146.712491825301
 20
-169.9410481345981
 30
0.0
  0
SEQEND
  5
333
330
330
100
AcDbEntity
  8
Capa 1
370
     9
  0
POLYLINE
  5
334
330
1F
100
AcDbEntity
  8
Capa 1
 62
     7
420
 16777215
370
     9
100
AcDb2dPolyline
 66
     1
 10
0.0
 20
0.0
 30
0.0
  0
VERTEX
  5
335
330
334
100
AcDbEntity
  8
Capa 1
 62
     7
420
 16777215
370
     9
100
AcDbVertex
100
AcDb2dVertex
 10
149.5943141987125
 20
-169.346424653844
 30
0.0
  0
VERTEX
  5
336
330
334
100
AcDbEntity
  8
Capa 1
 62
     7
420
 16777215
370
     9
100
AcDbVertex
100
AcDb2dVertex
 10
149.5943141987125
 20
-169.9410481345981
 30
0.0
  0
SEQEND
  5
337
330
334
100
AcDbEntity
  8
Capa 1
370
     9
  0
POLYLINE
  5
338
330
1F
100
AcDbEntity
  8
Capa 1
 62
     7
420
 16777215
370
     9
100
AcDb2dPolyline
 66
     1
 10
0.0
 20
0.0
 30
0.0
  0
VERTEX
  5
339
330
338
100
AcDbEntity
  8
Capa 1
 62
     7
420
 16777215
370
     9
100
AcDbVertex
100
AcDb2dVertex
 10
149.5943141987125
 20
-174.518201996301
 30
0.0
  0
VERTEX
  5
33A
330
338
100
AcDbEntity
  8
Capa 1
 62
     7
420
 16777215
370
     9
100
AcDbVertex
100
AcDb2dVertex
 10
149.5943141987125
 20
-175.703314843227
 30
0.0
  0
SEQEND
  5
33B
330
338
100
AcDbEntity
  8
Capa 1
370
     9
  0
POLYLINE
  5
33C
330
1F
100
AcDbEntity
  8
Capa 1
 62
     7
420
 16777215
370
     9
100
AcDb2dPolyline
 66
     1
 10
0.0
 20
0.0
 30
0.0
  0
VERTEX
  5
33D
330
33C
100
AcDbEntity
  8
Capa 1
 62
     7
420
 16777215
370
     9
100
AcDbVertex
100
AcDb2dVertex
 10
150.7463541289801
 20
-180.2976941823561
 30
0.0
  0
VERTEX
  5
33E
330
33C
100
AcDbEntity
  8
Capa 1
 62
     7
420
 16777215
370
     9
100
AcDbVertex
100
AcDb2dVertex
 10
150.7463541289801
 20
-169.9238226571718
 30
0.0
  0
SEQEND
  5
33F
330
33C
100
AcDbEntity
  8
Capa 1
370
     9
  0
POLYLINE
  5
340
330
1F
100
AcDbEntity
  8
Capa 1
 62
     7
420
 16777215
370
     9
100
AcDb2dPolyline
 66
     1
 10
0.0
 20
0.0
 30
0.0
  0
VERTEX
  5
341
330
340
100
AcDbEntity
  8
Capa 1
 62
     7
420
 16777215
370
     9
100
AcDbVertex
100
AcDb2dVertex
 10
146.712491825301
 20
-175.703314843227
 30
0.0
  0
VERTEX
  5
342
330
340
100
AcDbEntity
  8
Capa 1
 62
     7
420
 16777215
370
     9
100
AcDbVertex
100
AcDb2dVertex
 10
146.712491825301
 20
-174.518201996301
 30
0.0
  0
SEQEND
  5
343
330
340
100
AcDbEntity
  8
Capa 1
370
     9
  0
POLYLINE
  5
344
330
1F
100
AcDbEntity
  8
Capa 1
 62
     7
420
 16777215
370
     9
100
AcDb2dPolyline
 66
     1
 10
0.0
 20
0.0
 30
0.0
  0
VERTEX
  5
345
330
344
100
AcDbEntity
  8
Capa 1
 62
     7
420
 16777215
370
     9
100
AcDbVertex
100
AcDb2dVertex
 10
146.712491825301
 20
-174.518201996301
 30
0.0
  0
VERTEX
  5
346
330
344
100
AcDbEntity
  8
Capa 1
 62
     7
420
 16777215
370
     9
100
AcDbVertex
100
AcDb2dVertex
 10
149.5943141987125
 20
-174.518201996301
 30
0.0
  0
SEQEND
  5
347
330
344
100
AcDbEntity
  8
Capa 1
370
     9
  0
POLYLINE
  5
348
330
1F
100
AcDbEntity
  8
Capa 1
 62
     7
420
 16777215
370
     9
100
AcDb2dPolyline
 66
     1
 10
0.0
 20
0.0
 30
0.0
  0
VERTEX
  5
349
330
348
100
AcDbEntity
  8
Capa 1
 62
     7
420
 16777215
370
     9
100
AcDbVertex
100
AcDb2dVertex
 10
195.2370062445935
 20
-181.0080728714147
 30
0.0
  0
VERTEX
  5
34A
330
348
100
AcDbEntity
  8
Capa 1
 62
     7
420
 16777215
370
     9
100
AcDbVertex
100
AcDb2dVertex
 10
195.5539550292365
 20
-182.116015579471
 30
0.0
  0
SEQEND
  5
34B
330
348
100
AcDbEntity
  8
Capa 1
370
     9
  0
POLYLINE
  5
34C
330
1F
100
AcDbEntity
  8
Capa 1
 62
     7
420
 16777215
370
     9
100
AcDb2dPolyline
 66
     1
 10
0.0
 20
0.0
 30
0.0
  0
VERTEX
  5
34D
330
34C
100
AcDbEntity
  8
Capa 1
 62
     7
420
 16777215
370
     9
100
AcDbVertex
100
AcDb2dVertex
 10
195.2370062445935
 20
-181.0080728714147
 30
0.0
  0
VERTEX
  5
34E
330
34C
100
AcDbEntity
  8
Capa 1
 62
     7
420
 16777215
370
     9
100
AcDbVertex
100
AcDb2dVertex
 10
199.5254611046325
 20
-179.7809298595687
 30
0.0
  0
SEQEND
  5
34F
330
34C
100
AcDbEntity
  8
Capa 1
370
     9
  0
POLYLINE
  5
350
330
1F
100
AcDbEntity
  8
Capa 1
 62
     7
420
 16777215
370
     9
100
AcDb2dPolyline
 66
     1
 10
0.0
 20
0.0
 30
0.0
  0
VERTEX
  5
351
330
350
100
AcDbEntity
  8
Capa 1
 62
     7
420
 16777215
370
     9
100
AcDbVertex
100
AcDb2dVertex
 10
199.8437879274696
 20
-180.888183548528
 30
0.0
  0
VERTEX
  5
352
330
350
100
AcDbEntity
  8
Capa 1
 62
     7
420
 16777215
370
     9
100
AcDbVertex
100
AcDb2dVertex
 10
199.5254611046325
 20
-179.7809298595687
 30
0.0
  0
SEQEND
  5
353
330
350
100
AcDbEntity
  8
Capa 1
370
     9
  0
POLYLINE
  5
354
330
1F
100
AcDbEntity
  8
Capa 1
 62
     7
420
 16777215
370
     9
100
AcDb2dPolyline
 66
     1
 10
0.0
 20
0.0
 30
0.0
  0
VERTEX
  5
355
330
354
100
AcDbEntity
  8
Capa 1
 62
     7
420
 16777215
370
     9
100
AcDbVertex
100
AcDb2dVertex
 10
199.0142089346215
 20
-181.5262152323962
 30
0.0
  0
VERTEX
  5
356
330
354
100
AcDbEntity
  8
Capa 1
 62
     7
420
 16777215
370
     9
100
AcDbVertex
100
AcDb2dVertex
 10
201.9838812429068
 20
-180.6725205711513
 30
0.0
  0
SEQEND
  5
357
330
354
100
AcDbEntity
  8
Capa 1
370
     9
  0
POLYLINE
  5
358
330
1F
100
AcDbEntity
  8
Capa 1
 62
     7
420
 16777215
370
     9
100
AcDb2dPolyline
 66
     1
 10
0.0
 20
0.0
 30
0.0
  0
VERTEX
  5
359
330
358
100
AcDbEntity
  8
Capa 1
 62
     7
420
 16777215
370
     9
100
AcDbVertex
100
AcDb2dVertex
 10
196.594373865782
 20
-182.2200574631256
 30
0.0
  0
VERTEX
  5
35A
330
358
100
AcDbEntity
  8
Capa 1
 62
     7
420
 16777215
370
     9
100
AcDbVertex
100
AcDb2dVertex
 10
199.0142089346215
 20
-181.5262152323962
 30
0.0
  0
SEQEND
  5
35B
330
358
100
AcDbEntity
  8
Capa 1
370
     9
  0
POLYLINE
  5
35C
330
1F
100
AcDbEntity
  8
Capa 1
 62
     7
420
 16777215
370
     9
100
AcDb2dPolyline
 66
     1
 10
0.0
 20
0.0
 30
0.0
  0
VERTEX
  5
35D
330
35C
100
AcDbEntity
  8
Capa 1
 62
     7
420
 16777215
370
     9
100
AcDbVertex
100
AcDb2dVertex
 10
196.594373865782
 20
-182.2200574631256
 30
0.0
  0
VERTEX
  5
35E
330
35C
100
AcDbEntity
  8
Capa 1
 62
     7
420
 16777215
370
     9
100
AcDbVertex
100
AcDb2dVertex
 10
193.8603460886877
 20
-183.0041611955684
 30
0.0
  0
SEQEND
  5
35F
330
35C
100
AcDbEntity
  8
Capa 1
370
     9
  0
POLYLINE
  5
360
330
1F
100
AcDbEntity
  8
Capa 1
 62
     7
420
 16777215
370
     9
100
AcDb2dPolyline
 66
     1
 10
0.0
 20
0.0
 30
0.0
  0
VERTEX
  5
361
330
360
100
AcDbEntity
  8
Capa 1
 62
     7
420
 16777215
370
     9
100
AcDbVertex
100
AcDb2dVertex
 10
149.5943141987125
 20
-180.2804687049299
 30
0.0
  0
VERTEX
  5
362
330
360
100
AcDbEntity
  8
Capa 1
 62
     7
420
 16777215
370
     9
100
AcDbVertex
100
AcDb2dVertex
 10
149.5943141987125
 20
-180.875092185684
 30
0.0
  0
SEQEND
  5
363
330
360
100
AcDbEntity
  8
Capa 1
370
     9
  0
POLYLINE
  5
364
330
1F
100
AcDbEntity
  8
Capa 1
 62
     7
420
 16777215
370
     9
100
AcDb2dPolyline
 66
     1
 10
0.0
 20
0.0
 30
0.0
  0
VERTEX
  5
365
330
364
100
AcDbEntity
  8
Capa 1
 62
     7
420
 16777215
370
     9
100
AcDbVertex
100
AcDb2dVertex
 10
146.712491825301
 20
-180.875092185684
 30
0.0
  0
VERTEX
  5
366
330
364
100
AcDbEntity
  8
Capa 1
 62
     7
420
 16777215
370
     9
100
AcDbVertex
100
AcDb2dVertex
 10
146.712491825301
 20
-180.2804687049299
 30
0.0
  0
SEQEND
  5
367
330
364
100
AcDbEntity
  8
Capa 1
370
     9
  0
POLYLINE
  5
368
330
1F
100
AcDbEntity
  8
Capa 1
 62
     7
420
 16777215
370
     9
100
AcDb2dPolyline
 66
     1
 10
0.0
 20
0.0
 30
0.0
  0
VERTEX
  5
369
330
368
100
AcDbEntity
  8
Capa 1
 62
     7
420
 16777215
370
     9
100
AcDbVertex
100
AcDb2dVertex
 10
149.5943141987125
 20
-175.703314843227
 30
0.0
  0
VERTEX
  5
36A
330
368
100
AcDbEntity
  8
Capa 1
 62
     7
420
 16777215
370
     9
100
AcDbVertex
100
AcDb2dVertex
 10
146.712491825301
 20
-175.703314843227
 30
0.0
  0
SEQEND
  5
36B
330
368
100
AcDbEntity
  8
Capa 1
370
     9
  0
POLYLINE
  5
36C
330
1F
100
AcDbEntity
  8
Capa 1
 62
     7
420
 16777215
370
     9
100
AcDb2dPolyline
 66
     1
 10
0.0
 20
0.0
 30
0.0
  0
VERTEX
  5
36D
330
36C
100
AcDbEntity
  8
Capa 1
 62
     7
420
 16777215
370
     9
100
AcDbVertex
100
AcDb2dVertex
 10
146.712491825301
 20
-180.2804687049299
 30
0.0
  0
VERTEX
  5
36E
330
36C
100
AcDbEntity
  8
Capa 1
 62
     7
420
 16777215
370
     9
100
AcDbVertex
100
AcDb2dVertex
 10
149.5943141987125
 20
-180.2804687049299
 30
0.0
  0
SEQEND
  5
36F
330
36C
100
AcDbEntity
  8
Capa 1
370
     9
  0
POLYLINE
  5
370
330
1F
100
AcDbEntity
  8
Capa 1
 62
     7
420
 16777215
370
     9
100
AcDb2dPolyline
 66
     1
 10
0.0
 20
0.0
 30
0.0
  0
VERTEX
  5
371
330
370
100
AcDbEntity
  8
Capa 1
 62
     7
420
 16777215
370
     9
100
AcDbVertex
100
AcDb2dVertex
 10
149.5943141987125
 20
-180.875092185684
 30
0.0
  0
VERTEX
  5
372
330
370
100
AcDbEntity
  8
Capa 1
 62
     7
420
 16777215
370
     9
100
AcDbVertex
100
AcDb2dVertex
 10
146.712491825301
 20
-180.875092185684
 30
0.0
  0
SEQEND
  5
373
330
370
100
AcDbEntity
  8
Capa 1
370
     9
  0
POLYLINE
  5
374
330
1F
100
AcDbEntity
  8
Capa 1
 62
     7
420
 16777215
370
     9
100
AcDb2dPolyline
 66
     1
 10
0.0
 20
0.0
 30
0.0
  0
VERTEX
  5
375
330
374
100
AcDbEntity
  8
Capa 1
 62
     7
420
 16777215
370
     9
100
AcDbVertex
100
AcDb2dVertex
 10
149.5943141987125
 20
-180.2804687049299
 30
0.0
  0
VERTEX
  5
376
330
374
100
AcDbEntity
  8
Capa 1
 62
     7
420
 16777215
370
     9
100
AcDbVertex
100
AcDb2dVertex
 10
149.5943141987125
 20
-180.875092185684
 30
0.0
  0
SEQEND
  5
377
330
374
100
AcDbEntity
  8
Capa 1
370
     9
  0
POLYLINE
  5
378
330
1F
100
AcDbEntity
  8
Capa 1
 62
     7
420
 16777215
370
     9
100
AcDb2dPolyline
 66
     1
 10
0.0
 20
0.0
 30
0.0
  0
VERTEX
  5
379
330
378
100
AcDbEntity
  8
Capa 1
 62
     7
420
 16777215
370
     9
100
AcDbVertex
100
AcDb2dVertex
 10
146.712491825301
 20
-180.875092185684
 30
0.0
  0
VERTEX
  5
37A
330
378
100
AcDbEntity
  8
Capa 1
 62
     7
420
 16777215
370
     9
100
AcDbVertex
100
AcDb2dVertex
 10
146.712491825301
 20
-180.2804687049299
 30
0.0
  0
SEQEND
  5
37B
330
378
100
AcDbEntity
  8
Capa 1
370
     9
  0
POLYLINE
  5
37C
330
1F
100
AcDbEntity
  8
Capa 1
 62
     7
420
 16777215
370
     9
100
AcDb2dPolyline
 66
     1
 10
0.0
 20
0.0
 30
0.0
  0
VERTEX
  5
37D
330
37C
100
AcDbEntity
  8
Capa 1
 62
     7
420
 16777215
370
     9
100
AcDbVertex
100
AcDb2dVertex
 10
149.5943141987125
 20
-175.703314843227
 30
0.0
  0
VERTEX
  5
37E
330
37C
100
AcDbEntity
  8
Capa 1
 62
     7
420
 16777215
370
     9
100
AcDbVertex
100
AcDb2dVertex
 10
146.712491825301
 20
-175.703314843227
 30
0.0
  0
SEQEND
  5
37F
330
37C
100
AcDbEntity
  8
Capa 1
370
     9
  0
POLYLINE
  5
380
330
1F
100
AcDbEntity
  8
Capa 1
 62
     7
420
 16777215
370
     9
100
AcDb2dPolyline
 66
     1
 10
0.0
 20
0.0
 30
0.0
  0
VERTEX
  5
381
330
380
100
AcDbEntity
  8
Capa 1
 62
     7
420
 16777215
370
     9
100
AcDbVertex
100
AcDb2dVertex
 10
146.712491825301
 20
-180.2804687049299
 30
0.0
  0
VERTEX
  5
382
330
380
100
AcDbEntity
  8
Capa 1
 62
     7
420
 16777215
370
     9
100
AcDbVertex
100
AcDb2dVertex
 10
149.5943141987125
 20
-180.2804687049299
 30
0.0
  0
SEQEND
  5
383
330
380
100
AcDbEntity
  8
Capa 1
370
     9
  0
POLYLINE
  5
384
330
1F
100
AcDbEntity
  8
Capa 1
 62
     7
420
 16777215
370
     9
100
AcDb2dPolyline
 66
     1
 10
0.0
 20
0.0
 30
0.0
  0
VERTEX
  5
385
330
384
100
AcDbEntity
  8
Capa 1
 62
     7
420
 16777215
370
     9
100
AcDbVertex
100
AcDb2dVertex
 10
149.5943141987125
 20
-180.875092185684
 30
0.0
  0
VERTEX
  5
386
330
384
100
AcDbEntity
  8
Capa 1
 62
     7
420
 16777215
370
     9
100
AcDbVertex
100
AcDb2dVertex
 10
146.712491825301
 20
-180.875092185684
 30
0.0
  0
SEQEND
  5
387
330
384
100
AcDbEntity
  8
Capa 1
370
     9
  0
POLYLINE
  5
388
330
1F
100
AcDbEntity
  8
Capa 1
 62
     7
420
 16777215
370
     9
100
AcDb2dPolyline
 66
     1
 10
0.0
 20
0.0
 30
0.0
  0
VERTEX
  5
389
330
388
100
AcDbEntity
  8
Capa 1
 62
     7
420
 16777215
370
     9
100
AcDbVertex
100
AcDb2dVertex
 10
150.5530842722576
 20
-180.4871744340449
 30
0.0
  0
VERTEX
  5
38A
330
388
100
AcDbEntity
  8
Capa 1
 62
     7
420
 16777215
370
     9
100
AcDbVertex
100
AcDb2dVertex
 10
150.5530842722576
 20
-180.9012749113719
 30
0.0
  0
SEQEND
  5
38B
330
388
100
AcDbEntity
  8
Capa 1
370
     9
  0
POLYLINE
  5
38C
330
1F
100
AcDbEntity
  8
Capa 1
 62
     7
420
 16777215
370
     9
100
AcDb2dPolyline
 66
     1
 10
0.0
 20
0.0
 30
0.0
  0
VERTEX
  5
38D
330
38C
100
AcDbEntity
  8
Capa 1
 62
     7
420
 16777215
370
     9
100
AcDbVertex
100
AcDb2dVertex
 10
153.7422091629533
 20
-174.8461750864968
 30
0.0
  0
VERTEX
  5
38E
330
38C
100
AcDbEntity
  8
Capa 1
 62
     7
420
 16777215
370
     9
100
AcDbVertex
100
AcDb2dVertex
 10
153.7422091629533
 20
-175.3760307721282
 30
0.0
  0
SEQEND
  5
38F
330
38C
100
AcDbEntity
  8
Capa 1
370
     9
  0
POLYLINE
  5
390
330
1F
100
AcDbEntity
  8
Capa 1
 62
     7
420
 16777215
370
     9
100
AcDb2dPolyline
 66
     1
 10
0.0
 20
0.0
 30
0.0
  0
VERTEX
  5
391
330
390
100
AcDbEntity
  8
Capa 1
 62
     7
420
 16777215
370
     9
100
AcDbVertex
100
AcDb2dVertex
 10
201.3175997760595
 20
-177.9660535579391
 30
0.0
  0
VERTEX
  5
392
330
390
100
AcDbEntity
  8
Capa 1
 62
     7
420
 16777215
370
     9
100
AcDbVertex
100
AcDb2dVertex
 10
190.499999952375
 20
-181.068706551955
 30
0.0
  0
SEQEND
  5
393
330
390
100
AcDbEntity
  8
Capa 1
370
     9
  0
POLYLINE
  5
394
330
1F
100
AcDbEntity
  8
Capa 1
 62
     7
420
 16777215
370
     9
100
AcDb2dPolyline
 66
     1
 10
0.0
 20
0.0
 30
0.0
  0
VERTEX
  5
395
330
394
100
AcDbEntity
  8
Capa 1
 62
     7
420
 16777215
370
     9
100
AcDbVertex
100
AcDb2dVertex
 10
190.499999952375
 20
-181.068706551955
 30
0.0
  0
VERTEX
  5
396
330
394
100
AcDbEntity
  8
Capa 1
 62
     7
420
 16777215
370
     9
100
AcDbVertex
100
AcDb2dVertex
 10
179.8829046859321
 20
-181.068706551955
 30
0.0
  0
SEQEND
  5
397
330
394
100
AcDbEntity
  8
Capa 1
370
     9
  0
POLYLINE
  5
398
330
1F
100
AcDbEntity
  8
Capa 1
 62
     7
420
 16777215
370
     9
100
AcDb2dPolyline
 66
     1
 10
0.0
 20
0.0
 30
0.0
  0
VERTEX
  5
399
330
398
100
AcDbEntity
  8
Capa 1
 62
     7
420
 16777215
370
     9
100
AcDbVertex
100
AcDb2dVertex
 10
179.8829046859321
 20
-181.068706551955
 30
0.0
  0
VERTEX
  5
39A
330
398
100
AcDbEntity
  8
Capa 1
 62
     7
420
 16777215
370
     9
100
AcDbVertex
100
AcDb2dVertex
 10
176.6748317700674
 20
-181.068706551955
 30
0.0
  0
SEQEND
  5
39B
330
398
100
AcDbEntity
  8
Capa 1
370
     9
  0
POLYLINE
  5
39C
330
1F
100
AcDbEntity
  8
Capa 1
 62
     7
420
 16777215
370
     9
100
AcDb2dPolyline
 66
     1
 10
0.0
 20
0.0
 30
0.0
  0
VERTEX
  5
39D
330
39C
100
AcDbEntity
  8
Capa 1
 62
     7
420
 16777215
370
     9
100
AcDbVertex
100
AcDb2dVertex
 10
149.5943141987125
 20
-180.2804687049299
 30
0.0
  0
VERTEX
  5
39E
330
39C
100
AcDbEntity
  8
Capa 1
 62
     7
420
 16777215
370
     9
100
AcDbVertex
100
AcDb2dVertex
 10
149.5943141987125
 20
-180.875092185684
 30
0.0
  0
SEQEND
  5
39F
330
39C
100
AcDbEntity
  8
Capa 1
370
     9
  0
POLYLINE
  5
3A0
330
1F
100
AcDbEntity
  8
Capa 1
 62
     7
420
 16777215
370
     9
100
AcDb2dPolyline
 66
     1
 10
0.0
 20
0.0
 30
0.0
  0
VERTEX
  5
3A1
330
3A0
100
AcDbEntity
  8
Capa 1
 62
     7
420
 16777215
370
     9
100
AcDbVertex
100
AcDb2dVertex
 10
146.712491825301
 20
-180.875092185684
 30
0.0
  0
VERTEX
  5
3A2
330
3A0
100
AcDbEntity
  8
Capa 1
 62
     7
420
 16777215
370
     9
100
AcDbVertex
100
AcDb2dVertex
 10
146.712491825301
 20
-180.2804687049299
 30
0.0
  0
SEQEND
  5
3A3
330
3A0
100
AcDbEntity
  8
Capa 1
370
     9
  0
POLYLINE
  5
3A4
330
1F
100
AcDbEntity
  8
Capa 1
 62
     7
420
 16777215
370
     9
100
AcDb2dPolyline
 66
     1
 10
0.0
 20
0.0
 30
0.0
  0
VERTEX
  5
3A5
330
3A4
100
AcDbEntity
  8
Capa 1
 62
     7
420
 16777215
370
     9
100
AcDbVertex
100
AcDb2dVertex
 10
149.5943141987125
 20
-175.703314843227
 30
0.0
  0
VERTEX
  5
3A6
330
3A4
100
AcDbEntity
  8
Capa 1
 62
     7
420
 16777215
370
     9
100
AcDbVertex
100
AcDb2dVertex
 10
146.712491825301
 20
-175.703314843227
 30
0.0
  0
SEQEND
  5
3A7
330
3A4
100
AcDbEntity
  8
Capa 1
370
     9
  0
POLYLINE
  5
3A8
330
1F
100
AcDbEntity
  8
Capa 1
 62
     7
420
 16777215
370
     9
100
AcDb2dPolyline
 66
     1
 10
0.0
 20
0.0
 30
0.0
  0
VERTEX
  5
3A9
330
3A8
100
AcDbEntity
  8
Capa 1
 62
     7
420
 16777215
370
     9
100
AcDbVertex
100
AcDb2dVertex
 10
146.712491825301
 20
-180.2804687049299
 30
0.0
  0
VERTEX
  5
3AA
330
3A8
100
AcDbEntity
  8
Capa 1
 62
     7
420
 16777215
370
     9
100
AcDbVertex
100
AcDb2dVertex
 10
149.5943141987125
 20
-180.2804687049299
 30
0.0
  0
SEQEND
  5
3AB
330
3A8
100
AcDbEntity
  8
Capa 1
370
     9
  0
POLYLINE
  5
3AC
330
1F
100
AcDbEntity
  8
Capa 1
 62
     7
420
 16777215
370
     9
100
AcDb2dPolyline
 66
     1
 10
0.0
 20
0.0
 30
0.0
  0
VERTEX
  5
3AD
330
3AC
100
AcDbEntity
  8
Capa 1
 62
     7
420
 16777215
370
     9
100
AcDbVertex
100
AcDb2dVertex
 10
149.5943141987125
 20
-180.875092185684
 30
0.0
  0
VERTEX
  5
3AE
330
3AC
100
AcDbEntity
  8
Capa 1
 62
     7
420
 16777215
370
     9
100
AcDbVertex
100
AcDb2dVertex
 10
146.712491825301
 20
-180.875092185684
 30
0.0
  0
SEQEND
  5
3AF
330
3AC
100
AcDbEntity
  8
Capa 1
370
     9
  0
POLYLINE
  5
3B0
330
1F
100
AcDbEntity
  8
Capa 1
 62
     7
420
 16777215
370
     9
100
AcDb2dPolyline
 66
     1
 10
0.0
 20
0.0
 30
0.0
  0
VERTEX
  5
3B1
330
3B0
100
AcDbEntity
  8
Capa 1
 62
     7
420
 16777215
370
     9
100
AcDbVertex
100
AcDb2dVertex
 10
195.2370062445935
 20
-181.0080728714147
 30
0.0
  0
VERTEX
  5
3B2
330
3B0
100
AcDbEntity
  8
Capa 1
 62
     7
420
 16777215
370
     9
100
AcDbVertex
100
AcDb2dVertex
 10
195.6593749510852
 20
-182.4873968727809
 30
0.0
  0
SEQEND
  5
3B3
330
3B0
100
AcDbEntity
  8
Capa 1
370
     9
  0
POLYLINE
  5
3B4
330
1F
100
AcDbEntity
  8
Capa 1
 62
     7
420
 16777215
370
     9
100
AcDb2dPolyline
 66
     1
 10
0.0
 20
0.0
 30
0.0
  0
VERTEX
  5
3B5
330
3B4
100
AcDbEntity
  8
Capa 1
 62
     7
420
 16777215
370
     9
100
AcDbVertex
100
AcDb2dVertex
 10
195.2370062445935
 20
-181.0080728714147
 30
0.0
  0
VERTEX
  5
3B6
330
3B4
100
AcDbEntity
  8
Capa 1
 62
     7
420
 16777215
370
     9
100
AcDbVertex
100
AcDb2dVertex
 10
199.5254611046325
 20
-179.7809298595687
 30
0.0
  0
SEQEND
  5
3B7
330
3B4
100
AcDbEntity
  8
Capa 1
370
     9
  0
POLYLINE
  5
3B8
330
1F
100
AcDbEntity
  8
Capa 1
 62
     7
420
 16777215
370
     9
100
AcDb2dPolyline
 66
     1
 10
0.0
 20
0.0
 30
0.0
  0
VERTEX
  5
3B9
330
3B8
100
AcDbEntity
  8
Capa 1
 62
     7
420
 16777215
370
     9
100
AcDbVertex
100
AcDb2dVertex
 10
199.9478298111242
 20
-181.2588758227408
 30
0.0
  0
VERTEX
  5
3BA
330
3B8
100
AcDbEntity
  8
Capa 1
 62
     7
420
 16777215
370
     9
100
AcDbVertex
100
AcDb2dVertex
 10
199.5254611046325
 20
-179.7809298595687
 30
0.0
  0
SEQEND
  5
3BB
330
3B8
100
AcDbEntity
  8
Capa 1
370
     9
  0
POLYLINE
  5
3BC
330
1F
100
AcDbEntity
  8
Capa 1
 62
     7
420
 16777215
370
     9
100
AcDb2dPolyline
 66
     1
 10
0.0
 20
0.0
 30
0.0
  0
VERTEX
  5
3BD
330
3BC
100
AcDbEntity
  8
Capa 1
 62
     7
420
 16777215
370
     9
100
AcDbVertex
100
AcDb2dVertex
 10
199.0142089346215
 20
-181.5262152323962
 30
0.0
  0
VERTEX
  5
3BE
330
3BC
100
AcDbEntity
  8
Capa 1
 62
     7
420
 16777215
370
     9
100
AcDbVertex
100
AcDb2dVertex
 10
201.9838812429068
 20
-180.6725205711513
 30
0.0
  0
SEQEND
  5
3BF
330
3BC
100
AcDbEntity
  8
Capa 1
370
     9
  0
POLYLINE
  5
3C0
330
1F
100
AcDbEntity
  8
Capa 1
 62
     7
420
 16777215
370
     9
100
AcDb2dPolyline
 66
     1
 10
0.0
 20
0.0
 30
0.0
  0
VERTEX
  5
3C1
330
3C0
100
AcDbEntity
  8
Capa 1
 62
     7
420
 16777215
370
     9
100
AcDbVertex
100
AcDb2dVertex
 10
196.594373865782
 20
-182.2200574631256
 30
0.0
  0
VERTEX
  5
3C2
330
3C0
100
AcDbEntity
  8
Capa 1
 62
     7
420
 16777215
370
     9
100
AcDbVertex
100
AcDb2dVertex
 10
199.0142089346215
 20
-181.5262152323962
 30
0.0
  0
SEQEND
  5
3C3
330
3C0
100
AcDbEntity
  8
Capa 1
370
     9
  0
POLYLINE
  5
3C4
330
1F
100
AcDbEntity
  8
Capa 1
 62
     7
420
 16777215
370
     9
100
AcDb2dPolyline
 66
     1
 10
0.0
 20
0.0
 30
0.0
  0
VERTEX
  5
3C5
330
3C4
100
AcDbEntity
  8
Capa 1
 62
     7
420
 16777215
370
     9
100
AcDbVertex
100
AcDb2dVertex
 10
196.594373865782
 20
-182.2200574631256
 30
0.0
  0
VERTEX
  5
3C6
330
3C4
100
AcDbEntity
  8
Capa 1
 62
     7
420
 16777215
370
     9
100
AcDbVertex
100
AcDb2dVertex
 10
193.8603460886877
 20
-183.0041611955684
 30
0.0
  0
SEQEND
  5
3C7
330
3C4
100
AcDbEntity
  8
Capa 1
370
     9
  0
SPLINE
  5
3C8
330
1F
100
AcDbEntity
  8
Capa 1
 62
     7
420
 16777215
370
     9
100
AcDbSpline
210
0.0
220
0.0
230
1.0
 70
     8
 71
     3
 72
     8
 73
     4
 74
     0
 42
0.0000000001
 43
0.0000000001
 40
0.0
 40
0.0
 40
0.0
 40
0.0
 40
1.0
 40
1.0
 40
1.0
 40
1.0
 10
12.37512749256594
 20
-181.8466091125245
 30
0.0
 10
13.58159993150043
 20
-181.8466091125245
 30
0.0
 10
14.71934271550419
 20
-181.2795463956523
 30
0.0
 10
15.44332953172945
 20
-180.3162976979765
 30
0.0
  0
SPLINE
  5
3C9
330
1F
100
AcDbEntity
  8
Capa 1
 62
     7
420
 16777215
370
     9
100
AcDbSpline
210
0.0
220
0.0
230
1.0
 70
     8
 71
     3
 72
     8
 73
     4
 74
     0
 42
0.0000000001
 43
0.0000000001
 40
0.0
 40
0.0
 40
0.0
 40
0.0
 40
1.0
 40
1.0
 40
1.0
 40
1.0
 10
-2.562634276703092
 20
-180.3162976979765
 30
0.0
 10
-1.838647460477838
 20
-181.2795463956523
 30
0.0
 10
-0.7009046764740794
 20
-181.8466091125245
 30
0.0
 10
0.5055677624604137
 20
-181.8466091125245
 30
0.0
  0
SPLINE
  5
3CA
330
1F
100
AcDbEntity
  8
Capa 1
 62
     7
420
 16777215
370
     9
100
AcDbSpline
210
0.0
220
0.0
230
1.0
 70
     8
 71
     3
 72
     8
 73
     4
 74
     0
 42
0.0000000001
 43
0.0000000001
 40
0.0
 40
0.0
 40
0.0
 40
0.0
 40
1.0
 40
1.0
 40
1.0
 40
1.0
 10
70.19571531448233
 20
-181.8466091125245
 30
0.0
 10
71.4018432438683
 20
-181.8466091125245
 30
0.0
 10
72.53545191328975
 20
-181.2795463956523
 30
0.0
 10
73.26391735364582
 20
-180.3162976979765
 30
0.0
  0
SPLINE
  5
3CB
330
1F
100
AcDbEntity
  8
Capa 1
 62
     7
420
 16777215
370
     9
100
AcDbSpline
210
0.0
220
0.0
230
1.0
 70
     8
 71
     3
 72
     8
 73
     4
 74
     0
 42
0.0000000001
 43
0.0000000001
 40
0.0
 40
0.0
 40
0.0
 40
0.0
 40
1.0
 40
1.0
 40
1.0
 40
1.0
 10
55.25295815675968
 20
-180.3162976979765
 30
0.0
 10
55.98142359711576
 20
-181.2795463956523
 30
0.0
 10
57.11503226653722
 20
-181.8466091125245
 30
0.0
 10
58.32167696024597
 20
-181.8466091125245
 30
0.0
  0
SPLINE
  5
3CC
330
1F
100
AcDbEntity
  8
Capa 1
 62
     7
420
 16777215
370
     9
100
AcDbSpline
210
0.0
220
0.0
230
1.0
 70
     8
 71
     3
 72
     8
 73
     4
 74
     0
 42
0.0000000001
 43
0.0000000001
 40
0.0
 40
0.0
 40
0.0
 40
0.0
 40
1.0
 40
1.0
 40
1.0
 40
1.0
 10
173.3985459635948
 20
-158.9381021738072
 30
0.0
 10
173.3833875434597
 20
-158.8216579464057
 30
0.0
 10
173.3647840278394
 20
-158.7052137190043
 30
0.0
 10
173.3475585504131
 20
-158.5887694916028
 30
0.0
  0
SPLINE
  5
3CD
330
1F
100
AcDbEntity
  8
Capa 1
 62
     7
420
 16777215
370
     9
100
AcDbSpline
210
0.0
220
0.0
230
1.0
 70
     8
 71
     3
 72
     8
 73
     4
 74
     0
 42
0.0000000001
 43
0.0000000001
 40
0.0
 40
0.0
 40
0.0
 40
0.0
 40
1.0
 40
1.0
 40
1.0
 40
1.0
 10
173.5067219618317
 20
-160.5159559060516
 30
0.0
 10
173.5067219618317
 20
-159.9902343350024
 30
0.0
 10
173.4722710069792
 20
-159.459689630274
 30
0.0
 10
173.3985459635948
 20
-158.9381021738072
 30
0.0
  0
SPLINE
  5
3CE
330
1F
100
AcDbEntity
  8
Capa 1
 62
     7
420
 16777215
370
     9
100
AcDbSpline
210
0.0
220
0.0
230
1.0
 70
     8
 71
     3
 72
     8
 73
     4
 74
     0
 42
0.0000000001
 43
0.0000000001
 40
0.0
 40
0.0
 40
0.0
 40
0.0
 40
1.0
 40
1.0
 40
1.0
 40
1.0
 10
145.560107385485
 20
-169.1741698795815
 30
0.0
 10
145.560107385485
 20
-167.967697440647
 30
0.0
 10
144.9930446686129
 20
-166.8335720069027
 30
0.0
 10
144.029795970937
 20
-166.1052788213209
 30
0.0
  0
SPLINE
  5
3CF
330
1F
100
AcDbEntity
  8
Capa 1
 62
     7
420
 16777215
370
     9
100
AcDbSpline
210
0.0
220
0.0
230
1.0
 70
     8
 71
     3
 72
     8
 73
     4
 74
     0
 42
0.0000000001
 43
0.0000000001
 40
0.0
 40
0.0
 40
0.0
 40
0.0
 40
1.0
 40
1.0
 40
1.0
 40
1.0
 10
144.029795970937
 20
-184.11554899911
 30
0.0
 10
144.9930446686129
 20
-183.3872558135282
 30
0.0
 10
145.560107385485
 20
-182.2545084179781
 30
0.0
 10
145.560107385485
 20
-181.0473469599465
 30
0.0
  0
SPLINE
  5
3D0
330
1F
100
AcDbEntity
  8
Capa 1
 62
     7
420
 16777215
370
     9
100
AcDbSpline
210
0.0
220
0.0
230
1.0
 70
     8
 71
     3
 72
     8
 73
     4
 74
     0
 42
0.0000000001
 43
0.0000000001
 40
0.0
 40
0.0
 40
0.0
 40
0.0
 40
1.0
 40
1.0
 40
1.0
 40
1.0
 10
155.9828992665598
 20
-156.0159721832182
 30
0.0
 10
155.3800075566411
 20
-157.4387966186264
 30
0.0
 10
155.0671928865804
 20
-158.9684190140773
 30
0.0
 10
155.0671928865804
 20
-160.5159559060516
 30
0.0
  0
SPLINE
  5
3D1
330
1F
100
AcDbEntity
  8
Capa 1
 62
     7
420
 16777215
370
     9
100
AcDbSpline
210
0.0
220
0.0
230
1.0
 70
     8
 71
     3
 72
     8
 73
     4
 74
     0
 42
0.0000000001
 43
0.0000000001
 40
0.0
 40
0.0
 40
0.0
 40
0.0
 40
1.0
 40
1.0
 40
1.0
 40
1.0
 10
41.30221624401472
 20
-211.9030001640382
 30
0.0
 10
41.60831297787917
 20
-210.5580348865966
 30
0.0
 10
42.0651326392233
 20
-209.2337401820666
 30
0.0
 10
42.66440699888251
 20
-207.970768177174
 30
0.0
  0
SPLINE
  5
3D2
330
1F
100
AcDbEntity
  8
Capa 1
 62
     7
420
 16777215
370
     9
100
AcDbSpline
210
0.0
220
0.0
230
1.0
 70
     8
 71
     3
 72
    11
 73
     7
 74
     0
 42
0.0000000001
 43
0.0000000001
 40
0.0
 40
0.0
 40
0.0
 40
0.0
 40
1.0
 40
1.0
 40
1.0
 40
2.0
 40
2.0
 40
2.0
 40
2.0
 10
67.9284979756394
 20
-185.880815925752
 30
0.0
 10
68.35017766303399
 20
-186.2322156652475
 30
0.0
 10
68.78994410172614
 20
-186.4554578526917
 30
0.0
 10
69.24710827261877
 20
-186.4554578526917
 30
0.0
 10
69.7044446982857
 20
-186.4554578526917
 30
0.0
 10
70.14731172291457
 20
-186.2322156652475
 30
0.0
 10
70.57054170327751
 20
-185.880815925752
 30
0.0
  0
SPLINE
  5
3D3
330
1F
100
AcDbEntity
  8
Capa 1
 62
     7
420
 16777215
370
     9
100
AcDbSpline
210
0.0
220
0.0
230
1.0
 70
     8
 71
     3
 72
    11
 73
     7
 74
     0
 42
0.0000000001
 43
0.0000000001
 40
0.0
 40
0.0
 40
0.0
 40
0.0
 40
1.0
 40
1.0
 40
1.0
 40
2.0
 40
2.0
 40
2.0
 40
2.0
 10
61.61880559440433
 20
-185.880815925752
 30
0.0
 10
62.44183890583052
 20
-186.2229139074373
 30
0.0
 10
63.34273137522334
 20
-186.4554578526917
 30
0.0
 10
64.2563706979116
 20
-186.4554578526917
 30
0.0
 10
65.16553139646904
 20
-186.4554578526917
 30
0.0
 10
66.06211749650531
 20
-186.2273925315682
 30
0.0
 10
66.8984144255497
 20
-185.880815925752
 30
0.0
  0
SPLINE
  5
3D4
330
1F
100
AcDbEntity
  8
Capa 1
 62
     7
420
 16777215
370
     9
100
AcDbSpline
210
0.0
220
0.0
230
1.0
 70
     8
 71
     3
 72
    11
 73
     7
 74
     0
 42
0.0000000001
 43
0.0000000001
 40
0.0
 40
0.0
 40
0.0
 40
0.0
 40
1.0
 40
1.0
 40
1.0
 40
2.0
 40
2.0
 40
2.0
 40
2.0
 10
57.94667831667653
 20
-185.880815925752
 30
0.0
 10
58.36921927794242
 20
-186.2322156652475
 30
0.0
 10
58.81277532166833
 20
-186.4554578526917
 30
0.0
 10
59.26546086843017
 20
-186.4554578526917
 30
0.0
 10
59.7222805297743
 20
-186.4554578526917
 30
0.0
 10
60.166353337823
 20
-186.2322156652475
 30
0.0
 10
60.58872204431463
 20
-185.880815925752
 30
0.0
  0
SPLINE
  5
3D5
330
1F
100
AcDbEntity
  8
Capa 1
 62
     7
420
 16777215
370
     9
100
AcDbSpline
210
0.0
220
0.0
230
1.0
 70
     8
 71
     3
 72
    11
 73
     7
 74
     0
 42
0.0000000001
 43
0.0000000001
 40
0.0
 40
0.0
 40
0.0
 40
0.0
 40
1.0
 40
1.0
 40
1.0
 40
2.0
 40
2.0
 40
2.0
 40
2.0
 10
66.8984144255497
 20
-182.9989935523406
 30
0.0
 10
66.06211749650531
 20
-182.6506943987818
 30
0.0
 10
65.16553139646904
 20
-182.4215955490127
 30
0.0
 10
64.2563706979116
 20
-182.4215955490127
 30
0.0
 10
63.34273137522334
 20
-182.4215955490127
 30
0.0
 10
62.44183890583052
 20
-182.654139494267
 30
0.0
 10
61.61880559440433
 20
-182.9989935523406
 30
0.0
  0
SPLINE
  5
3D6
330
1F
100
AcDbEntity
  8
Capa 1
 62
     7
420
 16777215
370
     9
100
AcDbSpline
210
0.0
220
0.0
230
1.0
 70
     8
 71
     3
 72
    11
 73
     7
 74
     0
 42
0.0000000001
 43
0.0000000001
 40
0.0
 40
0.0
 40
0.0
 40
0.0
 40
1.0
 40
1.0
 40
1.0
 40
2.0
 40
2.0
 40
2.0
 40
2.0
 10
70.57054170327751
 20
-182.9989935523406
 30
0.0
 10
70.14731172291457
 20
-182.6458712651024
 30
0.0
 10
69.7044446982857
 20
-182.4215955490127
 30
0.0
 10
69.25089787765256
 20
-182.4215955490127
 30
0.0
 10
68.79442272585695
 20
-182.4215955490127
 30
0.0
 10
68.35017766303399
 20
-182.6458712651024
 30
0.0
 10
67.9284979756394
 20
-182.9989935523406
 30
0.0
  0
SPLINE
  5
3D7
330
1F
100
AcDbEntity
  8
Capa 1
 62
     7
420
 16777215
370
     9
100
AcDbSpline
210
0.0
220
0.0
230
1.0
 70
     8
 71
     3
 72
    11
 73
     7
 74
     0
 42
0.0000000001
 43
0.0000000001
 40
0.0
 40
0.0
 40
0.0
 40
0.0
 40
1.0
 40
1.0
 40
1.0
 40
2.0
 40
2.0
 40
2.0
 40
2.0
 10
60.58872204431463
 20
-182.9989935523406
 30
0.0
 10
60.166353337823
 20
-182.6458712651024
 30
0.0
 10
59.72658689913086
 20
-182.4215955490127
 30
0.0
 10
59.27011174733525
 20
-182.4215955490127
 30
0.0
 10
58.81277532166833
 20
-182.4215955490127
 30
0.0
 10
58.36921927794242
 20
-182.6458712651024
 30
0.0
 10
57.94667831667653
 20
-182.9989935523406
 30
0.0
  0
SPLINE
  5
3D8
330
1F
100
AcDbEntity
  8
Capa 1
 62
     7
420
 16777215
370
     9
100
AcDbSpline
210
0.0
220
0.0
230
1.0
 70
     8
 71
     3
 72
    11
 73
     7
 74
     0
 42
0.0000000001
 43
0.0000000001
 40
0.0
 40
0.0
 40
0.0
 40
0.0
 40
1.0
 40
1.0
 40
1.0
 40
2.0
 40
2.0
 40
2.0
 40
2.0
 10
9.082305227764147
 20
-182.9989935523406
 30
0.0
 10
8.24618055349401
 20
-182.6506943987818
 30
0.0
 10
7.349766708232004
 20
-182.4215955490127
 30
0.0
 10
6.436127385543746
 20
-182.4215955490127
 30
0.0
 10
5.526622177437789
 20
-182.4215955490127
 30
0.0
 10
4.625729708044957
 20
-182.654139494267
 30
0.0
 10
3.798217772487946
 20
-182.9989935523406
 30
0.0
  0
SPLINE
  5
3D9
330
1F
100
AcDbEntity
  8
Capa 1
 62
     7
420
 16777215
370
     9
100
AcDbSpline
210
0.0
220
0.0
230
1.0
 70
     8
 71
     3
 72
    11
 73
     7
 74
     0
 42
0.0000000001
 43
0.0000000001
 40
0.0
 40
0.0
 40
0.0
 40
0.0
 40
1.0
 40
1.0
 40
1.0
 40
2.0
 40
2.0
 40
2.0
 40
2.0
 10
3.798217772487946
 20
-185.880815925752
 30
0.0
 10
4.625729708044957
 20
-186.2229139074373
 30
0.0
 10
5.526622177437789
 20
-186.4554578526917
 30
0.0
 10
6.436127385543746
 20
-186.4554578526917
 30
0.0
 10
7.349766708232004
 20
-186.4554578526917
 30
0.0
 10
8.24618055349401
 20
-186.2273925315682
 30
0.0
 10
9.082305227764147
 20
-185.880815925752
 30
0.0
  0
SPLINE
  5
3DA
330
1F
100
AcDbEntity
  8
Capa 1
 62
     7
420
 16777215
370
     9
100
AcDbSpline
210
0.0
220
0.0
230
1.0
 70
     8
 71
     3
 72
    11
 73
     7
 74
     0
 42
0.0000000001
 43
0.0000000001
 40
0.0
 40
0.0
 40
0.0
 40
0.0
 40
1.0
 40
1.0
 40
1.0
 40
2.0
 40
2.0
 40
2.0
 40
2.0
 10
10.11238877785385
 20
-185.880815925752
 30
0.0
 10
10.53027886021465
 20
-186.2322156652475
 30
0.0
 10
10.97435166826336
 20
-186.4554578526917
 30
0.0
 10
11.43117132960749
 20
-186.4554578526917
 30
0.0
 10
11.88799099095161
 20
-186.4554578526917
 30
0.0
 10
12.32741292009523
 20
-186.2322156652475
 30
0.0
 10
12.74995388136112
 20
-185.880815925752
 30
0.0
  0
SPLINE
  5
3DB
330
1F
100
AcDbEntity
  8
Capa 1
 62
     7
420
 16777215
370
     9
100
AcDbSpline
210
0.0
220
0.0
230
1.0
 70
     8
 71
     3
 72
    11
 73
     7
 74
     0
 42
0.0000000001
 43
0.0000000001
 40
0.0
 40
0.0
 40
0.0
 40
0.0
 40
1.0
 40
1.0
 40
1.0
 40
2.0
 40
2.0
 40
2.0
 40
2.0
 10
0.1307413736652313
 20
-185.880815925752
 30
0.0
 10
0.5531100801568614
 20
-186.2322156652475
 30
0.0
 10
0.9927042640747407
 20
-186.4554578526917
 30
0.0
 10
1.449523925418869
 20
-186.4554578526917
 30
0.0
 10
1.906343586762997
 20
-186.4554578526917
 30
0.0
 10
2.350244140037439
 20
-186.2322156652475
 30
0.0
 10
2.772785101303332
 20
-185.880815925752
 30
0.0
  0
SPLINE
  5
3DC
330
1F
100
AcDbEntity
  8
Capa 1
 62
     7
420
 16777215
370
     9
100
AcDbSpline
210
0.0
220
0.0
230
1.0
 70
     8
 71
     3
 72
    11
 73
     7
 74
     0
 42
0.0000000001
 43
0.0000000001
 40
0.0
 40
0.0
 40
0.0
 40
0.0
 40
1.0
 40
1.0
 40
1.0
 40
2.0
 40
2.0
 40
2.0
 40
2.0
 10
12.74995388136112
 20
-182.9989935523406
 30
0.0
 10
12.33206379900032
 20
-182.6458712651024
 30
0.0
 10
11.88799099095161
 20
-182.4215955490127
 30
0.0
 10
11.43117132960749
 20
-182.4215955490127
 30
0.0
 10
10.97435166826336
 20
-182.4215955490127
 30
0.0
 10
10.53441297479695
 20
-182.6458712651024
 30
0.0
 10
10.11238877785385
 20
-182.9989935523406
 30
0.0
  0
SPLINE
  5
3DD
330
1F
100
AcDbEntity
  8
Capa 1
 62
     7
420
 16777215
370
     9
100
AcDbSpline
210
0.0
220
0.0
230
1.0
 70
     8
 71
     3
 72
    11
 73
     7
 74
     0
 42
0.0000000001
 43
0.0000000001
 40
0.0
 40
0.0
 40
0.0
 40
0.0
 40
1.0
 40
1.0
 40
1.0
 40
2.0
 40
2.0
 40
2.0
 40
2.0
 10
2.772785101303332
 20
-182.9989935523406
 30
0.0
 10
2.350244140037439
 20
-182.6458712651024
 30
0.0
 10
1.906343586762997
 20
-182.4215955490127
 30
0.0
 10
1.449523925418869
 20
-182.4215955490127
 30
0.0
 10
0.9927042640747407
 20
-182.4215955490127
 30
0.0
 10
0.5531100801568614
 20
-182.6458712651024
 30
0.0
 10
0.1307413736652313
 20
-182.9989935523406
 30
0.0
  0
SPLINE
  5
3DE
330
1F
100
AcDbEntity
  8
Capa 1
 62
     7
420
 16777215
370
     9
100
AcDbSpline
210
0.0
220
0.0
230
1.0
 70
     8
 71
     3
 72
    11
 73
     7
 74
     0
 42
0.0000000001
 43
0.0000000001
 40
0.0
 40
0.0
 40
0.0
 40
0.0
 40
1.0
 40
1.0
 40
1.0
 40
2.0
 40
2.0
 40
2.0
 40
2.0
 10
10.11238877785385
 20
-185.880815925752
 30
0.0
 10
10.53027886021465
 20
-186.2322156652475
 30
0.0
 10
10.97435166826336
 20
-186.4554578526917
 30
0.0
 10
11.43117132960749
 20
-186.4554578526917
 30
0.0
 10
11.88799099095161
 20
-186.4554578526917
 30
0.0
 10
12.32741292009523
 20
-186.2322156652475
 30
0.0
 10
12.74995388136112
 20
-185.880815925752
 30
0.0
  0
SPLINE
  5
3DF
330
1F
100
AcDbEntity
  8
Capa 1
 62
     7
420
 16777215
370
     9
100
AcDbSpline
210
0.0
220
0.0
230
1.0
 70
     8
 71
     3
 72
    11
 73
     7
 74
     0
 42
0.0000000001
 43
0.0000000001
 40
0.0
 40
0.0
 40
0.0
 40
0.0
 40
1.0
 40
1.0
 40
1.0
 40
2.0
 40
2.0
 40
2.0
 40
2.0
 10
3.798217772487946
 20
-185.880815925752
 30
0.0
 10
4.625729708044957
 20
-186.2229139074373
 30
0.0
 10
5.526622177437789
 20
-186.4554578526917
 30
0.0
 10
6.436127385543746
 20
-186.4554578526917
 30
0.0
 10
7.349766708232004
 20
-186.4554578526917
 30
0.0
 10
8.24618055349401
 20
-186.2273925315682
 30
0.0
 10
9.082305227764147
 20
-185.880815925752
 30
0.0
  0
SPLINE
  5
3E0
330
1F
100
AcDbEntity
  8
Capa 1
 62
     7
420
 16777215
370
     9
100
AcDbSpline
210
0.0
220
0.0
230
1.0
 70
     8
 71
     3
 72
    11
 73
     7
 74
     0
 42
0.0000000001
 43
0.0000000001
 40
0.0
 40
0.0
 40
0.0
 40
0.0
 40
1.0
 40
1.0
 40
1.0
 40
2.0
 40
2.0
 40
2.0
 40
2.0
 10
0.1307413736652313
 20
-185.880815925752
 30
0.0
 10
0.5531100801568614
 20
-186.2322156652475
 30
0.0
 10
0.9927042640747407
 20
-186.4554578526917
 30
0.0
 10
1.449523925418869
 20
-186.4554578526917
 30
0.0
 10
1.906343586762997
 20
-186.4554578526917
 30
0.0
 10
2.350244140037439
 20
-186.2322156652475
 30
0.0
 10
2.772785101303332
 20
-185.880815925752
 30
0.0
  0
SPLINE
  5
3E1
330
1F
100
AcDbEntity
  8
Capa 1
 62
     7
420
 16777215
370
     9
100
AcDbSpline
210
0.0
220
0.0
230
1.0
 70
     8
 71
     3
 72
    11
 73
     7
 74
     0
 42
0.0000000001
 43
0.0000000001
 40
0.0
 40
0.0
 40
0.0
 40
0.0
 40
1.0
 40
1.0
 40
1.0
 40
2.0
 40
2.0
 40
2.0
 40
2.0
 10
9.082305227764147
 20
-182.9989935523406
 30
0.0
 10
8.24618055349401
 20
-182.6506943987818
 30
0.0
 10
7.349766708232004
 20
-182.4215955490127
 30
0.0
 10
6.436127385543746
 20
-182.4215955490127
 30
0.0
 10
5.526622177437789
 20
-182.4215955490127
 30
0.0
 10
4.625729708044957
 20
-182.654139494267
 30
0.0
 10
3.798217772487946
 20
-182.9989935523406
 30
0.0
  0
SPLINE
  5
3E2
330
1F
100
AcDbEntity
  8
Capa 1
 62
     7
420
 16777215
370
     9
100
AcDbSpline
210
0.0
220
0.0
230
1.0
 70
     8
 71
     3
 72
    11
 73
     7
 74
     0
 42
0.0000000001
 43
0.0000000001
 40
0.0
 40
0.0
 40
0.0
 40
0.0
 40
1.0
 40
1.0
 40
1.0
 40
2.0
 40
2.0
 40
2.0
 40
2.0
 10
12.74995388136112
 20
-182.9989935523406
 30
0.0
 10
12.33206379900032
 20
-182.6458712651024
 30
0.0
 10
11.88799099095161
 20
-182.4215955490127
 30
0.0
 10
11.43117132960749
 20
-182.4215955490127
 30
0.0
 10
10.97435166826336
 20
-182.4215955490127
 30
0.0
 10
10.53441297479695
 20
-182.6458712651024
 30
0.0
 10
10.11238877785385
 20
-182.9989935523406
 30
0.0
  0
SPLINE
  5
3E3
330
1F
100
AcDbEntity
  8
Capa 1
 62
     7
420
 16777215
370
     9
100
AcDbSpline
210
0.0
220
0.0
230
1.0
 70
     8
 71
     3
 72
    11
 73
     7
 74
     0
 42
0.0000000001
 43
0.0000000001
 40
0.0
 40
0.0
 40
0.0
 40
0.0
 40
1.0
 40
1.0
 40
1.0
 40
2.0
 40
2.0
 40
2.0
 40
2.0
 10
2.772785101303332
 20
-182.9989935523406
 30
0.0
 10
2.350244140037439
 20
-182.6458712651024
 30
0.0
 10
1.906343586762997
 20
-182.4215955490127
 30
0.0
 10
1.449523925418869
 20
-182.4215955490127
 30
0.0
 10
0.9927042640747407
 20
-182.4215955490127
 30
0.0
 10
0.5531100801568614
 20
-182.6458712651024
 30
0.0
 10
0.1307413736652313
 20
-182.9989935523406
 30
0.0
  0
SPLINE
  5
3E4
330
1F
100
AcDbEntity
  8
Capa 1
 62
     7
420
 16777215
370
     9
100
AcDbSpline
210
0.0
220
0.0
230
1.0
 70
    24
 71
     3
 72
    11
 73
     7
 74
     0
 42
0.0000000001
 43
0.0000000001
 40
0.0
 40
0.0
 40
0.0
 40
0.0
 40
1.0
 40
1.0
 40
1.0
 40
2.0
 40
2.0
 40
2.0
 40
2.0
 10
29.87707383150643
 20
-217.803070692077
 30
0.0
 10
29.87707383150643
 20
-219.6413736430063
 30
0.0
 10
29.87707383150643
 20
-221.4789875748386
 30
0.0
 10
29.87707383150643
 20
-223.3172905257679
 30
0.0
 10
29.87707383150643
 20
-225.7006075824638
 30
0.0
 10
29.87707383150643
 20
-228.0846136582566
 30
0.0
 10
29.87707383150643
 20
-230.4672416958554
 30
0.0
  0
SPLINE
  5
3E5
330
1F
100
AcDbEntity
  8
Capa 1
 62
     7
420
 16777215
370
     9
100
AcDbSpline
210
0.0
220
0.0
230
1.0
 70
     8
 71
     3
 72
    11
 73
     7
 74
     0
 42
0.0000000001
 43
0.0000000001
 40
0.0
 40
0.0
 40
0.0
 40
0.0
 40
1.0
 40
1.0
 40
1.0
 40
2.0
 40
2.0
 40
2.0
 40
2.0
 10
57.94667831667653
 20
-185.880815925752
 30
0.0
 10
58.36921927794242
 20
-186.2322156652475
 30
0.0
 10
58.81277532166833
 20
-186.4554578526917
 30
0.0
 10
59.26546086843017
 20
-186.4554578526917
 30
0.0
 10
59.7222805297743
 20
-186.4554578526917
 30
0.0
 10
60.166353337823
 20
-186.2322156652475
 30
0.0
 10
60.58872204431463
 20
-185.880815925752
 30
0.0
  0
SPLINE
  5
3E6
330
1F
100
AcDbEntity
  8
Capa 1
 62
     7
420
 16777215
370
     9
100
AcDbSpline
210
0.0
220
0.0
230
1.0
 70
    24
 71
     3
 72
    11
 73
     7
 74
     0
 42
0.0000000001
 43
0.0000000001
 40
0.0
 40
0.0
 40
0.0
 40
0.0
 40
1.0
 40
1.0
 40
1.0
 40
2.0
 40
2.0
 40
2.0
 40
2.0
 10
40.82386473588779
 20
-230.4672416958554
 30
0.0
 10
40.82386473588779
 20
-228.0846136582566
 30
0.0
 10
40.82386473588779
 20
-225.7006075824638
 30
0.0
 10
40.82386473588779
 20
-223.3172905257679
 30
0.0
 10
40.82386473588779
 20
-221.4789875748386
 30
0.0
 10
40.82386473588779
 20
-219.6413736430063
 30
0.0
 10
40.82386473588779
 20
-217.803070692077
 30
0.0
  0
SPLINE
  5
3E7
330
1F
100
AcDbEntity
  8
Capa 1
 62
     7
420
 16777215
370
     9
100
AcDbSpline
210
0.0
220
0.0
230
1.0
 70
     8
 71
     3
 72
     8
 73
     4
 74
     0
 42
0.0000000001
 43
0.0000000001
 40
0.0
 40
0.0
 40
0.0
 40
0.0
 40
1.0
 40
1.0
 40
1.0
 40
1.0
 10
28.03687607806023
 20
-207.970768177174
 30
0.0
 10
28.63580592817091
 20
-209.239252334843
 30
0.0
 10
29.08849147493274
 20
-210.5518337147232
 30
0.0
 10
29.39458820879719
 20
-211.9030001640382
 30
0.0
  0
SPLINE
  5
3E8
330
1F
100
AcDbEntity
  8
Capa 1
 62
     7
420
 16777215
370
     9
100
AcDbSpline
210
0.0
220
0.0
230
1.0
 70
     8
 71
     3
 72
     8
 73
     4
 74
     0
 42
0.0000000001
 43
0.0000000001
 40
0.0
 40
0.0
 40
0.0
 40
0.0
 40
1.0
 40
1.0
 40
1.0
 40
1.0
 10
5.944512259798595
 20
-193.926836431553
 30
0.0
 10
6.345521374281676
 20
-194.126996479246
 30
0.0
 10
6.763411456642481
 20
-194.3085530113187
 30
0.0
 10
7.190431042039198
 20
-194.4632377986064
 30
0.0
  0
SPLINE
  5
3E9
330
1F
100
AcDbEntity
  8
Capa 1
 62
     7
420
 16777215
370
     9
100
AcDbSpline
210
0.0
220
0.0
230
1.0
 70
     8
 71
     3
 72
     8
 73
     4
 74
     0
 42
0.0000000001
 43
0.0000000001
 40
0.0
 40
0.0
 40
0.0
 40
0.0
 40
1.0
 40
1.0
 40
1.0
 40
1.0
 10
7.190431042039198
 20
-194.4632377986064
 30
0.0
 10
10.53906385370204
 20
-195.6831461099334
 30
0.0
 10
13.88769666536488
 20
-196.9006428544207
 30
0.0
 10
17.23632947702772
 20
-198.1205511657477
 30
0.0
  0
SPLINE
  5
3EA
330
1F
100
AcDbEntity
  8
Capa 1
 62
     7
420
 16777215
370
     9
100
AcDbSpline
210
0.0
220
0.0
230
1.0
 70
     8
 71
     3
 72
    17
 73
    13
 74
     0
 42
0.0000000001
 43
0.0000000001
 40
0.0
 40
0.0
 40
0.0
 40
0.0
 40
1.0
 40
1.0
 40
1.0
 40
2.0
 40
2.0
 40
2.0
 40
3.0
 40
3.0
 40
3.0
 40
4.0
 40
4.0
 40
4.0
 40
4.0
 10
42.66440699888251
 20
-207.970768177174
 30
0.0
 10
43.19874130864476
 20
-206.8276854951681
 30
0.0
 10
43.84073485232107
 20
-205.7590168756436
 30
0.0
 10
44.57781303139027
 20
-204.7592501658241
 30
0.0
 10
45.31885307026751
 20
-203.7594834560046
 30
0.0
 10
46.16376273802504
 20
-202.8203504267255
 30
0.0
 10
47.09032116878298
 20
-201.9776800710334
 30
0.0
 10
48.01274548495862
 20
-201.1350097153413
 30
0.0
 10
49.00837808019583
 20
-200.3915581096244
 30
0.0
 10
50.07274033036376
 20
-199.7452581965915
 30
0.0
 10
51.13727483530596
 20
-199.1003363217527
 30
0.0
 10
52.27949624344055
 20
-198.5491210441127
 30
0.0
 10
53.46443683559222
 20
-198.1205511657477
 30
0.0
  0
SPLINE
  5
3EB
330
1F
100
AcDbEntity
  8
Capa 1
 62
     7
420
 16777215
370
     9
100
AcDbSpline
210
0.0
220
0.0
230
1.0
 70
     8
 71
     3
 72
     8
 73
     4
 74
     0
 42
0.0000000001
 43
0.0000000001
 40
0.0
 40
0.0
 40
0.0
 40
0.0
 40
1.0
 40
1.0
 40
1.0
 40
1.0
 10
53.46443683559222
 20
-198.1205511657477
 30
0.0
 10
56.81324190202933
 20
-196.9006428544207
 30
0.0
 10
60.16187471369217
 20
-195.6831461099334
 30
0.0
 10
63.51085203490354
 20
-194.4632377986064
 30
0.0
  0
SPLINE
  5
3EC
330
1F
100
AcDbEntity
  8
Capa 1
 62
     7
420
 16777215
370
     9
100
AcDbSpline
210
0.0
220
0.0
230
1.0
 70
     8
 71
     3
 72
     8
 73
     4
 74
     0
 42
0.0000000001
 43
0.0000000001
 40
0.0
 40
0.0
 40
0.0
 40
0.0
 40
1.0
 40
1.0
 40
1.0
 40
1.0
 10
63.51085203490354
 20
-194.4632377986064
 30
0.0
 10
63.93735485597747
 20
-194.3085530113187
 30
0.0
 10
64.35541719311254
 20
-194.126996479246
 30
0.0
 10
64.75625405282136
 20
-193.926836431553
 30
0.0
  0
SPLINE
  5
3ED
330
1F
100
AcDbEntity
  8
Capa 1
 62
     7
420
 16777215
370
     9
100
AcDbSpline
210
0.0
220
0.0
230
1.0
 70
    24
 71
     3
 72
     8
 73
     4
 74
     0
 42
0.0000000001
 43
0.0000000001
 40
0.0
 40
0.0
 40
0.0
 40
0.0
 40
1.0
 40
1.0
 40
1.0
 40
1.0
 10
59.7741292168273
 20
-187.0328558560196
 30
0.0
 10
61.43328720252362
 20
-187.0328558560196
 30
0.0
 10
63.09709606712504
 20
-187.0328558560196
 30
0.0
 10
64.75625405282136
 20
-187.0328558560196
 30
0.0
  0
SPLINE
  5
3EE
330
1F
100
AcDbEntity
  8
Capa 1
 62
     7
420
 16777215
370
     9
100
AcDbSpline
210
0.0
220
0.0
230
1.0
 70
    24
 71
     3
 72
     8
 73
     4
 74
     0
 42
0.0000000001
 43
0.0000000001
 40
0.0
 40
0.0
 40
0.0
 40
0.0
 40
1.0
 40
1.0
 40
1.0
 40
1.0
 10
59.7741292168273
 20
-186.839585999297
 30
0.0
 10
58.96401501347081
 20
-186.839585999297
 30
0.0
 10
58.15338404579152
 20
-186.839585999297
 30
0.0
 10
57.34326984243502
 20
-186.839585999297
 30
0.0
  0
SPLINE
  5
3EF
330
1F
100
AcDbEntity
  8
Capa 1
 62
     7
420
 16777215
370
     9
100
AcDbSpline
210
0.0
220
0.0
230
1.0
 70
     8
 71
     3
 72
    23
 73
    19
 74
     0
 42
0.0000000001
 43
0.0000000001
 40
0.0
 40
0.0
 40
0.0
 40
0.0
 40
1.0
 40
1.0
 40
1.0
 40
2.0
 40
2.0
 40
2.0
 40
3.0
 40
3.0
 40
3.0
 40
4.0
 40
4.0
 40
4.0
 40
5.0
 40
5.0
 40
5.0
 40
6.0
 40
6.0
 40
6.0
 40
6.0
 10
57.34326984243502
 20
-186.839585999297
 30
0.0
 10
53.80946314844
 20
-188.0464029477801
 30
0.0
 10
50.18057181905208
 20
-188.9600422704683
 30
0.0
 10
46.50000405738542
 20
-189.5715467191002
 30
0.0
 10
44.65946179439069
 20
-189.8778157077389
 30
0.0
 10
42.80186630874398
 20
-190.1058810288624
 30
0.0
 10
40.94013670851497
 20
-190.2615993447957
 30
0.0
 10
39.08254122286826
 20
-190.4118055079526
 30
0.0
 10
37.21219888392612
 20
-190.4896646659193
 30
0.0
 10
35.34633516911481
 20
-190.4896646659193
 30
0.0
 10
33.47995468998071
 20
-190.4896646659193
 30
0.0
 10
31.61374646562087
 20
-190.4118055079526
 30
0.0
 10
29.75201686539186
 20
-190.2595322875046
 30
0.0
 10
27.89028726516285
 20
-190.1058810288624
 30
0.0
 10
26.03269177951613
 20
-189.8754041408992
 30
0.0
 10
24.19249402606993
 20
-189.5691351522605
 30
0.0
 10
20.51158175485475
 20
-188.9579752131772
 30
0.0
 10
16.88716904959765
 20
-188.0464029477801
 30
0.0
 10
13.35749647018493
 20
-186.839585999297
 30
0.0
  0
SPLINE
  5
3F0
330
1F
100
AcDbEntity
  8
Capa 1
 62
     7
420
 16777215
370
     9
100
AcDbSpline
210
0.0
220
0.0
230
1.0
 70
    24
 71
     3
 72
    11
 73
     7
 74
     0
 42
0.0000000001
 43
0.0000000001
 40
0.0
 40
0.0
 40
0.0
 40
0.0
 40
1.0
 40
1.0
 40
1.0
 40
2.0
 40
2.0
 40
2.0
 40
2.0
 10
13.35749647018493
 20
-186.839585999297
 30
0.0
 10
12.69397107972581
 20
-186.839585999297
 30
0.0
 10
12.034579803849
 20
-186.839585999297
 30
0.0
 10
11.37484401842365
 20
-186.839585999297
 30
0.0
 10
11.22412109094397
 20
-186.839585999297
 30
0.0
 10
11.07339816346429
 20
-186.839585999297
 30
0.0
 10
10.92250298121035
 20
-186.839585999297
 30
0.0
  0
SPLINE
  5
3F1
330
1F
100
AcDbEntity
  8
Capa 1
 62
     7
420
 16777215
370
     9
100
AcDbSpline
210
0.0
220
0.0
230
1.0
 70
    24
 71
     3
 72
     8
 73
     4
 74
     0
 42
0.0000000001
 43
0.0000000001
 40
0.0
 40
0.0
 40
0.0
 40
0.0
 40
1.0
 40
1.0
 40
1.0
 40
1.0
 10
5.944512259798595
 20
-187.0328558560196
 30
0.0
 10
7.604187009817704
 20
-187.0328558560196
 30
0.0
 10
9.263344995514025
 20
-187.0328558560196
 30
0.0
 10
10.92250298121035
 20
-187.0328558560196
 30
0.0
  0
SPLINE
  5
3F2
330
1F
100
AcDbEntity
  8
Capa 1
 62
     7
420
 16777215
370
     9
100
AcDbSpline
210
0.0
220
0.0
230
1.0
 70
     8
 71
     3
 72
    11
 73
     7
 74
     0
 42
0.0000000001
 43
0.0000000001
 40
0.0
 40
0.0
 40
0.0
 40
0.0
 40
1.0
 40
1.0
 40
1.0
 40
2.0
 40
2.0
 40
2.0
 40
2.0
 10
17.23632947702772
 20
-198.1205511657477
 30
0.0
 10
19.59380831758419
 20
-198.980446998866
 30
0.0
 10
21.73596869031254
 20
-200.2727023153832
 30
0.0
 10
23.58891329705416
 20
-201.9580430267675
 30
0.0
 10
25.44237466811857
 20
-203.6430392286031
 30
0.0
 10
26.9637288344049
 20
-205.696316137812
 30
0.0
 10
28.03687607806023
 20
-207.970768177174
 30
0.0
  0
SPLINE
  5
3F3
330
1F
100
AcDbEntity
  8
Capa 1
 62
     7
420
 16777215
370
     9
100
AcDbSpline
210
0.0
220
0.0
230
1.0
 70
     8
 71
     3
 72
    11
 73
     7
 74
     0
 42
0.0000000001
 43
0.0000000001
 40
0.0
 40
0.0
 40
0.0
 40
0.0
 40
1.0
 40
1.0
 40
1.0
 40
2.0
 40
2.0
 40
2.0
 40
2.0
 10
61.61880559440433
 20
-185.880815925752
 30
0.0
 10
62.44183890583052
 20
-186.2229139074373
 30
0.0
 10
63.34273137522334
 20
-186.4554578526917
 30
0.0
 10
64.2563706979116
 20
-186.4554578526917
 30
0.0
 10
65.16553139646904
 20
-186.4554578526917
 30
0.0
 10
66.06211749650531
 20
-186.2273925315682
 30
0.0
 10
66.8984144255497
 20
-185.880815925752
 30
0.0
  0
SPLINE
  5
3F4
330
1F
100
AcDbEntity
  8
Capa 1
 62
     7
420
 16777215
370
     9
100
AcDbSpline
210
0.0
220
0.0
230
1.0
 70
    24
 71
     3
 72
    11
 73
     7
 74
     0
 42
0.0000000001
 43
0.0000000001
 40
0.0
 40
0.0
 40
0.0
 40
0.0
 40
1.0
 40
1.0
 40
1.0
 40
2.0
 40
2.0
 40
2.0
 40
2.0
 10
29.87707383150643
 20
-230.4672416958554
 30
0.0
 10
29.87707383150643
 20
-231.9775715565889
 30
0.0
 10
29.87707383150643
 20
-233.4327798895585
 30
0.0
 10
29.87707383150643
 20
-234.6027343163493
 30
0.0
 10
29.87707383150643
 20
-235.7733777622372
 30
0.0
 10
29.87707383150643
 20
-236.5939995068237
 30
0.0
 10
29.87707383150643
 20
-236.9199055397284
 30
0.0
  0
SPLINE
  5
3F5
330
1F
100
AcDbEntity
  8
Capa 1
 62
     7
420
 16777215
370
     9
100
AcDbSpline
210
0.0
220
0.0
230
1.0
 70
     8
 71
     3
 72
    17
 73
    13
 74
     0
 42
0.0000000001
 43
0.0000000001
 40
0.0
 40
0.0
 40
0.0
 40
0.0
 40
1.0
 40
1.0
 40
1.0
 40
2.0
 40
2.0
 40
2.0
 40
3.0
 40
3.0
 40
3.0
 40
4.0
 40
4.0
 40
4.0
 40
4.0
 10
29.87707383150643
 20
-236.9199055397284
 30
0.0
 10
30.14010687180525
 20
-237.0225693851888
 30
0.0
 10
30.41140814126868
 20
-237.122477154261
 30
0.0
 10
30.68718803486293
 20
-237.2106715986835
 30
0.0
 10
30.85530869454312
 20
-237.2644150882533
 30
0.0
 10
31.02756346880561
 20
-237.315402501435
 30
0.0
 10
31.19585638326006
 20
-237.3629448191315
 30
0.0
 10
31.28198377039131
 20
-237.3891275448194
 30
0.0
 10
31.36811115752256
 20
-237.411176155925
 30
0.0
 10
31.45871716878463
 20
-237.4346028052247
 30
0.0
 10
31.46302353814119
 20
-237.4366698625159
 30
0.0
 10
31.46750216227202
 20
-237.4366698625159
 30
0.0
 10
31.47163627685432
 20
-237.4366698625159
 30
0.0
  0
SPLINE
  5
3F6
330
1F
100
AcDbEntity
  8
Capa 1
 62
     7
420
 16777215
370
     9
100
AcDbSpline
210
0.0
220
0.0
230
1.0
 70
     8
 71
     3
 72
    17
 73
    13
 74
     0
 42
0.0000000001
 43
0.0000000001
 40
0.0
 40
0.0
 40
0.0
 40
0.0
 40
1.0
 40
1.0
 40
1.0
 40
2.0
 40
2.0
 40
2.0
 40
3.0
 40
3.0
 40
3.0
 40
4.0
 40
4.0
 40
4.0
 40
4.0
 10
39.22499592118334
 20
-237.4366698625159
 30
0.0
 10
39.23378091467072
 20
-237.4366698625159
 30
0.0
 10
39.23791502925302
 20
-237.4366698625159
 30
0.0
 10
39.24204914383532
 20
-237.4346028052247
 30
0.0
 10
39.33265515509739
 20
-237.411176155925
 30
0.0
 10
39.41464842764634
 20
-237.3891275448194
 30
0.0
 10
39.50094806955185
 20
-237.3629448191315
 30
0.0
 10
39.66906872923204
 20
-237.315402501435
 30
0.0
 10
39.84132350349453
 20
-237.2644150882533
 30
0.0
 10
40.00944416317473
 20
-237.2106715986835
 30
0.0
 10
40.28953042612554
 20
-237.122477154261
 30
0.0
 10
40.56117620513749
 20
-237.0225693851888
 30
0.0
 10
40.82386473588779
 20
-236.9199055397284
 30
0.0
  0
SPLINE
  5
3F7
330
1F
100
AcDbEntity
  8
Capa 1
 62
     7
420
 16777215
370
     9
100
AcDbSpline
210
0.0
220
0.0
230
1.0
 70
    24
 71
     3
 72
    11
 73
     7
 74
     0
 42
0.0000000001
 43
0.0000000001
 40
0.0
 40
0.0
 40
0.0
 40
0.0
 40
1.0
 40
1.0
 40
1.0
 40
2.0
 40
2.0
 40
2.0
 40
2.0
 10
40.82386473588779
 20
-236.9199055397284
 30
0.0
 10
40.82386473588779
 20
-236.5939995068237
 30
0.0
 10
40.82386473588779
 20
-235.7595973802962
 30
0.0
 10
40.82386473588779
 20
-234.598600201767
 30
0.0
 10
40.82386473588779
 20
-233.4348469468496
 30
0.0
 10
40.82386473588779
 20
-231.9803276329772
 30
0.0
 10
40.82386473588779
 20
-230.4672416958554
 30
0.0
  0
SPLINE
  5
3F8
330
1F
100
AcDbEntity
  8
Capa 1
 62
     7
420
 16777215
370
     9
100
AcDbSpline
210
0.0
220
0.0
230
1.0
 70
     8
 71
     3
 72
    14
 73
    10
 74
     0
 42
0.0000000001
 43
0.0000000001
 40
0.0
 40
0.0
 40
0.0
 40
0.0
 40
1.0
 40
1.0
 40
1.0
 40
2.0
 40
2.0
 40
2.0
 40
3.0
 40
3.0
 40
3.0
 40
3.0
 10
64.75625405282136
 20
-193.926836431553
 30
0.0
 10
66.00165607073917
 20
-193.3063747346595
 30
0.0
 10
67.0624009706476
 20
-192.4940212192376
 30
0.0
 10
67.86338567096819
 20
-191.6920029902714
 30
0.0
 10
68.26405027590275
 20
-191.2937499521766
 30
0.0
 10
68.59650199022936
 20
-190.9037651432463
 30
0.0
 10
68.84592690336144
 20
-190.5840602822151
 30
0.0
 10
69.09604083559057
 20
-190.2636664020869
 30
0.0
 10
69.25089787765256
 20
-190.0287108899928
 30
0.0
 10
69.25089787765256
 20
-190.0287108899928
 30
0.0
  0
SPLINE
  5
3F9
330
1F
100
AcDbEntity
  8
Capa 1
 62
     7
420
 16777215
370
     9
100
AcDbSpline
210
0.0
220
0.0
230
1.0
 70
     8
 71
     3
 72
    14
 73
    10
 74
     0
 42
0.0000000001
 43
0.0000000001
 40
0.0
 40
0.0
 40
0.0
 40
0.0
 40
1.0
 40
1.0
 40
1.0
 40
2.0
 40
2.0
 40
2.0
 40
3.0
 40
3.0
 40
3.0
 40
3.0
 10
1.445389810836569
 20
-190.0287108899928
 30
0.0
 10
1.445389810836569
 20
-190.0287108899928
 30
0.0
 10
1.604725477029374
 20
-190.2636664020869
 30
0.0
 10
1.854494899709987
 20
-190.5840602822151
 30
0.0
 10
2.104781086713388
 20
-190.9037651432463
 30
0.0
 10
2.436543781942948
 20
-191.2937499521766
 30
0.0
 10
2.837380641651766
 20
-191.6920029902714
 30
0.0
 10
3.634747991712841
 20
-192.4919541619465
 30
0.0
 10
4.699110241880779
 20
-193.3063747346595
 30
0.0
 10
5.944512259798595
 20
-193.926836431553
 30
0.0
  0
SPLINE
  5
3FA
330
1F
100
AcDbEntity
  8
Capa 1
 62
     7
420
 16777215
370
     9
100
AcDbSpline
210
0.0
220
0.0
230
1.0
 70
     8
 71
     3
 72
    11
 73
     7
 74
     0
 42
0.0000000001
 43
0.0000000001
 40
0.0
 40
0.0
 40
0.0
 40
0.0
 40
1.0
 40
1.0
 40
1.0
 40
2.0
 40
2.0
 40
2.0
 40
2.0
 10
40.82386473588779
 20
-237.604101503099
 30
0.0
 10
39.96190184547827
 20
-237.9789278918942
 30
0.0
 10
39.06979436957283
 20
-238.2510904352289
 30
0.0
 10
38.15184867752802
 20
-238.4233452094914
 30
0.0
 10
37.72534585645408
 20
-238.5053384820403
 30
0.0
 10
37.29005804189276
 20
-238.5680392198719
 30
0.0
 10
35.35046928369711
 20
-238.6135144802772
 30
0.0
  0
SPLINE
  5
3FB
330
1F
100
AcDbEntity
  8
Capa 1
 62
     7
420
 16777215
370
     9
100
AcDbSpline
210
0.0
220
0.0
230
1.0
 70
     8
 71
     3
 72
     8
 73
     4
 74
     0
 42
0.0000000001
 43
0.0000000001
 40
0.0
 40
0.0
 40
0.0
 40
0.0
 40
1.0
 40
1.0
 40
1.0
 40
1.0
 10
35.35046928369711
 20
-238.6086913465979
 30
0.0
 10
32.44125840117788
 20
-238.4708875271878
 30
0.0
 10
31.11386311071112
 20
-238.1456705133803
 30
0.0
 10
29.87707383150643
 20
-237.604101503099
 30
0.0
  0
SPLINE
  5
3FC
330
1F
100
AcDbEntity
  8
Capa 1
 62
     7
420
 16777215
370
     9
100
AcDbSpline
210
0.0
220
0.0
230
1.0
 70
    24
 71
     3
 72
     8
 73
     4
 74
     0
 42
0.0000000001
 43
0.0000000001
 40
0.0
 40
0.0
 40
0.0
 40
0.0
 40
1.0
 40
1.0
 40
1.0
 40
1.0
 10
29.87707383150643
 20
-236.9199055397284
 30
0.0
 10
29.87707383150643
 20
-237.1479708608519
 30
0.0
 10
29.87707383150643
 20
-237.3760361819755
 30
0.0
 10
29.87707383150643
 20
-237.604101503099
 30
0.0
  0
SPLINE
  5
3FD
330
1F
100
AcDbEntity
  8
Capa 1
 62
     7
420
 16777215
370
     9
100
AcDbSpline
210
0.0
220
0.0
230
1.0
 70
    24
 71
     3
 72
    11
 73
     7
 74
     0
 42
0.0000000001
 43
0.0000000001
 40
0.0
 40
0.0
 40
0.0
 40
0.0
 40
1.0
 40
1.0
 40
1.0
 40
2.0
 40
2.0
 40
2.0
 40
2.0
 10
40.82386473588779
 20
-237.604101503099
 30
0.0
 10
40.82386473588779
 20
-237.5586262426937
 30
0.0
 10
40.82386473588779
 20
-237.5145290204825
 30
0.0
 10
40.82386473588779
 20
-237.466986702786
 30
0.0
 10
40.82386473588779
 20
-237.2850856611649
 30
0.0
 10
40.82386473588779
 20
-237.1024956004466
 30
0.0
 10
40.82386473588779
 20
-236.9199055397284
 30
0.0
  0
SPLINE
  5
3FE
330
1F
100
AcDbEntity
  8
Capa 1
 62
     7
420
 16777215
370
     9
100
AcDbSpline
210
0.0
220
0.0
230
1.0
 70
     8
 71
     3
 72
    11
 73
     7
 74
     0
 42
0.0000000001
 43
0.0000000001
 40
0.0
 40
0.0
 40
0.0
 40
0.0
 40
1.0
 40
1.0
 40
1.0
 40
2.0
 40
2.0
 40
2.0
 40
2.0
 10
10.11238877785385
 20
-185.880815925752
 30
0.0
 10
10.53027886021465
 20
-186.2322156652475
 30
0.0
 10
10.97435166826336
 20
-186.4554578526917
 30
0.0
 10
11.43117132960749
 20
-186.4554578526917
 30
0.0
 10
11.88799099095161
 20
-186.4554578526917
 30
0.0
 10
12.32741292009523
 20
-186.2322156652475
 30
0.0
 10
12.74995388136112
 20
-185.880815925752
 30
0.0
  0
SPLINE
  5
3FF
330
1F
100
AcDbEntity
  8
Capa 1
 62
     7
420
 16777215
370
     9
100
AcDbSpline
210
0.0
220
0.0
230
1.0
 70
     8
 71
     3
 72
    11
 73
     7
 74
     0
 42
0.0000000001
 43
0.0000000001
 40
0.0
 40
0.0
 40
0.0
 40
0.0
 40
1.0
 40
1.0
 40
1.0
 40
2.0
 40
2.0
 40
2.0
 40
2.0
 10
3.798217772487946
 20
-185.880815925752
 30
0.0
 10
4.625729708044957
 20
-186.2229139074373
 30
0.0
 10
5.526622177437789
 20
-186.4554578526917
 30
0.0
 10
6.436127385543746
 20
-186.4554578526917
 30
0.0
 10
7.349766708232004
 20
-186.4554578526917
 30
0.0
 10
8.24618055349401
 20
-186.2273925315682
 30
0.0
 10
9.082305227764147
 20
-185.880815925752
 30
0.0
  0
SPLINE
  5
400
330
1F
100
AcDbEntity
  8
Capa 1
 62
     7
420
 16777215
370
     9
100
AcDbSpline
210
0.0
220
0.0
230
1.0
 70
     8
 71
     3
 72
    11
 73
     7
 74
     0
 42
0.0000000001
 43
0.0000000001
 40
0.0
 40
0.0
 40
0.0
 40
0.0
 40
1.0
 40
1.0
 40
1.0
 40
2.0
 40
2.0
 40
2.0
 40
2.0
 10
0.1307413736652313
 20
-185.880815925752
 30
0.0
 10
0.5531100801568614
 20
-186.2322156652475
 30
0.0
 10
0.9927042640747407
 20
-186.4554578526917
 30
0.0
 10
1.449523925418869
 20
-186.4554578526917
 30
0.0
 10
1.906343586762997
 20
-186.4554578526917
 30
0.0
 10
2.350244140037439
 20
-186.2322156652475
 30
0.0
 10
2.772785101303332
 20
-185.880815925752
 30
0.0
  0
SPLINE
  5
401
330
1F
100
AcDbEntity
  8
Capa 1
 62
     7
420
 16777215
370
     9
100
AcDbSpline
210
0.0
220
0.0
230
1.0
 70
     8
 71
     3
 72
    11
 73
     7
 74
     0
 42
0.0000000001
 43
0.0000000001
 40
0.0
 40
0.0
 40
0.0
 40
0.0
 40
1.0
 40
1.0
 40
1.0
 40
2.0
 40
2.0
 40
2.0
 40
2.0
 10
9.082305227764147
 20
-182.9989935523406
 30
0.0
 10
8.24618055349401
 20
-182.6506943987818
 30
0.0
 10
7.349766708232004
 20
-182.4215955490127
 30
0.0
 10
6.436127385543746
 20
-182.4215955490127
 30
0.0
 10
5.526622177437789
 20
-182.4215955490127
 30
0.0
 10
4.625729708044957
 20
-182.654139494267
 30
0.0
 10
3.798217772487946
 20
-182.9989935523406
 30
0.0
  0
SPLINE
  5
402
330
1F
100
AcDbEntity
  8
Capa 1
 62
     7
420
 16777215
370
     9
100
AcDbSpline
210
0.0
220
0.0
230
1.0
 70
     8
 71
     3
 72
    11
 73
     7
 74
     0
 42
0.0000000001
 43
0.0000000001
 40
0.0
 40
0.0
 40
0.0
 40
0.0
 40
1.0
 40
1.0
 40
1.0
 40
2.0
 40
2.0
 40
2.0
 40
2.0
 10
12.74995388136112
 20
-182.9989935523406
 30
0.0
 10
12.33206379900032
 20
-182.6458712651024
 30
0.0
 10
11.88799099095161
 20
-182.4215955490127
 30
0.0
 10
11.43117132960749
 20
-182.4215955490127
 30
0.0
 10
10.97435166826336
 20
-182.4215955490127
 30
0.0
 10
10.53441297479695
 20
-182.6458712651024
 30
0.0
 10
10.11238877785385
 20
-182.9989935523406
 30
0.0
  0
SPLINE
  5
403
330
1F
100
AcDbEntity
  8
Capa 1
 62
     7
420
 16777215
370
     9
100
AcDbSpline
210
0.0
220
0.0
230
1.0
 70
     8
 71
     3
 72
    11
 73
     7
 74
     0
 42
0.0000000001
 43
0.0000000001
 40
0.0
 40
0.0
 40
0.0
 40
0.0
 40
1.0
 40
1.0
 40
1.0
 40
2.0
 40
2.0
 40
2.0
 40
2.0
 10
2.772785101303332
 20
-182.9989935523406
 30
0.0
 10
2.350244140037439
 20
-182.6458712651024
 30
0.0
 10
1.906343586762997
 20
-182.4215955490127
 30
0.0
 10
1.449523925418869
 20
-182.4215955490127
 30
0.0
 10
0.9927042640747407
 20
-182.4215955490127
 30
0.0
 10
0.5531100801568614
 20
-182.6458712651024
 30
0.0
 10
0.1307413736652313
 20
-182.9989935523406
 30
0.0
  0
SPLINE
  5
404
330
1F
100
AcDbEntity
  8
Capa 1
 62
     7
420
 16777215
370
     9
100
AcDbSpline
210
0.0
220
0.0
230
1.0
 70
     8
 71
     3
 72
    11
 73
     7
 74
     0
 42
0.0000000001
 43
0.0000000001
 40
0.0
 40
0.0
 40
0.0
 40
0.0
 40
1.0
 40
1.0
 40
1.0
 40
2.0
 40
2.0
 40
2.0
 40
2.0
 10
70.57054170327751
 20
-182.9989935523406
 30
0.0
 10
70.14731172291457
 20
-182.6458712651024
 30
0.0
 10
69.7044446982857
 20
-182.4215955490127
 30
0.0
 10
69.25089787765256
 20
-182.4215955490127
 30
0.0
 10
68.79442272585695
 20
-182.4215955490127
 30
0.0
 10
68.35017766303399
 20
-182.6458712651024
 30
0.0
 10
67.9284979756394
 20
-182.9989935523406
 30
0.0
  0
SPLINE
  5
405
330
1F
100
AcDbEntity
  8
Capa 1
 62
     7
420
 16777215
370
     9
100
AcDbSpline
210
0.0
220
0.0
230
1.0
 70
     8
 71
     3
 72
    11
 73
     7
 74
     0
 42
0.0000000001
 43
0.0000000001
 40
0.0
 40
0.0
 40
0.0
 40
0.0
 40
1.0
 40
1.0
 40
1.0
 40
2.0
 40
2.0
 40
2.0
 40
2.0
 10
60.58872204431463
 20
-182.9989935523406
 30
0.0
 10
60.166353337823
 20
-182.6458712651024
 30
0.0
 10
59.72658689913086
 20
-182.4215955490127
 30
0.0
 10
59.27011174733525
 20
-182.4215955490127
 30
0.0
 10
58.81277532166833
 20
-182.4215955490127
 30
0.0
 10
58.36921927794242
 20
-182.6458712651024
 30
0.0
 10
57.94667831667653
 20
-182.9989935523406
 30
0.0
  0
SPLINE
  5
406
330
1F
100
AcDbEntity
  8
Capa 1
 62
     7
420
 16777215
370
     9
100
AcDbSpline
210
0.0
220
0.0
230
1.0
 70
     8
 71
     3
 72
    11
 73
     7
 74
     0
 42
0.0000000001
 43
0.0000000001
 40
0.0
 40
0.0
 40
0.0
 40
0.0
 40
1.0
 40
1.0
 40
1.0
 40
2.0
 40
2.0
 40
2.0
 40
2.0
 10
67.9284979756394
 20
-185.880815925752
 30
0.0
 10
68.35017766303399
 20
-186.2322156652475
 30
0.0
 10
68.78994410172614
 20
-186.4554578526917
 30
0.0
 10
69.24710827261877
 20
-186.4554578526917
 30
0.0
 10
69.7044446982857
 20
-186.4554578526917
 30
0.0
 10
70.14731172291457
 20
-186.2322156652475
 30
0.0
 10
70.57054170327751
 20
-185.880815925752
 30
0.0
  0
SPLINE
  5
407
330
1F
100
AcDbEntity
  8
Capa 1
 62
     7
420
 16777215
370
     9
100
AcDbSpline
210
0.0
220
0.0
230
1.0
 70
     8
 71
     3
 72
    11
 73
     7
 74
     0
 42
0.0000000001
 43
0.0000000001
 40
0.0
 40
0.0
 40
0.0
 40
0.0
 40
1.0
 40
1.0
 40
1.0
 40
2.0
 40
2.0
 40
2.0
 40
2.0
 10
57.94667831667653
 20
-185.880815925752
 30
0.0
 10
58.36921927794242
 20
-186.2322156652475
 30
0.0
 10
58.81277532166833
 20
-186.4554578526917
 30
0.0
 10
59.26546086843017
 20
-186.4554578526917
 30
0.0
 10
59.7222805297743
 20
-186.4554578526917
 30
0.0
 10
60.166353337823
 20
-186.2322156652475
 30
0.0
 10
60.58872204431463
 20
-185.880815925752
 30
0.0
  0
SPLINE
  5
408
330
1F
100
AcDbEntity
  8
Capa 1
 62
     7
420
 16777215
370
     9
100
AcDbSpline
210
0.0
220
0.0
230
1.0
 70
     8
 71
     3
 72
    11
 73
     7
 74
     0
 42
0.0000000001
 43
0.0000000001
 40
0.0
 40
0.0
 40
0.0
 40
0.0
 40
1.0
 40
1.0
 40
1.0
 40
2.0
 40
2.0
 40
2.0
 40
2.0
 10
66.8984144255497
 20
-182.9989935523406
 30
0.0
 10
66.06211749650531
 20
-182.6506943987818
 30
0.0
 10
65.16553139646904
 20
-182.4215955490127
 30
0.0
 10
64.2563706979116
 20
-182.4215955490127
 30
0.0
 10
63.34273137522334
 20
-182.4215955490127
 30
0.0
 10
62.44183890583052
 20
-182.654139494267
 30
0.0
 10
61.61880559440433
 20
-182.9989935523406
 30
0.0
  0
SPLINE
  5
409
330
1F
100
AcDbEntity
  8
Capa 1
 62
     7
420
 16777215
370
     9
100
AcDbSpline
210
0.0
220
0.0
230
1.0
 70
     8
 71
     3
 72
    11
 73
     7
 74
     0
 42
0.0000000001
 43
0.0000000001
 40
0.0
 40
0.0
 40
0.0
 40
0.0
 40
1.0
 40
1.0
 40
1.0
 40
2.0
 40
2.0
 40
2.0
 40
2.0
 10
61.61880559440433
 20
-185.880815925752
 30
0.0
 10
62.44183890583052
 20
-186.2229139074373
 30
0.0
 10
63.34273137522334
 20
-186.4554578526917
 30
0.0
 10
64.2563706979116
 20
-186.4554578526917
 30
0.0
 10
65.16553139646904
 20
-186.4554578526917
 30
0.0
 10
66.06211749650531
 20
-186.2273925315682
 30
0.0
 10
66.8984144255497
 20
-185.880815925752
 30
0.0
  0
SPLINE
  5
40A
330
1F
100
AcDbEntity
  8
Capa 1
 62
     7
420
 16777215
370
     9
100
AcDbSpline
210
0.0
220
0.0
230
1.0
 70
     8
 71
     3
 72
    11
 73
     7
 74
     0
 42
0.0000000001
 43
0.0000000001
 40
0.0
 40
0.0
 40
0.0
 40
0.0
 40
1.0
 40
1.0
 40
1.0
 40
2.0
 40
2.0
 40
2.0
 40
2.0
 10
67.9284979756394
 20
-185.880815925752
 30
0.0
 10
68.35017766303399
 20
-186.2322156652475
 30
0.0
 10
68.78994410172614
 20
-186.4554578526917
 30
0.0
 10
69.24710827261877
 20
-186.4554578526917
 30
0.0
 10
69.7044446982857
 20
-186.4554578526917
 30
0.0
 10
70.14731172291457
 20
-186.2322156652475
 30
0.0
 10
70.57054170327751
 20
-185.880815925752
 30
0.0
  0
SPLINE
  5
40B
330
1F
100
AcDbEntity
  8
Capa 1
 62
     7
420
 16777215
370
     9
100
AcDbSpline
210
0.0
220
0.0
230
1.0
 70
     8
 71
     3
 72
    11
 73
     7
 74
     0
 42
0.0000000001
 43
0.0000000001
 40
0.0
 40
0.0
 40
0.0
 40
0.0
 40
1.0
 40
1.0
 40
1.0
 40
2.0
 40
2.0
 40
2.0
 40
2.0
 10
66.8984144255497
 20
-182.9989935523406
 30
0.0
 10
66.06211749650531
 20
-182.6506943987818
 30
0.0
 10
65.16553139646904
 20
-182.4215955490127
 30
0.0
 10
64.2563706979116
 20
-182.4215955490127
 30
0.0
 10
63.34273137522334
 20
-182.4215955490127
 30
0.0
 10
62.44183890583052
 20
-182.654139494267
 30
0.0
 10
61.61880559440433
 20
-182.9989935523406
 30
0.0
  0
SPLINE
  5
40C
330
1F
100
AcDbEntity
  8
Capa 1
 62
     7
420
 16777215
370
     9
100
AcDbSpline
210
0.0
220
0.0
230
1.0
 70
     8
 71
     3
 72
    11
 73
     7
 74
     0
 42
0.0000000001
 43
0.0000000001
 40
0.0
 40
0.0
 40
0.0
 40
0.0
 40
1.0
 40
1.0
 40
1.0
 40
2.0
 40
2.0
 40
2.0
 40
2.0
 10
70.57054170327751
 20
-182.9989935523406
 30
0.0
 10
70.14731172291457
 20
-182.6458712651024
 30
0.0
 10
69.7044446982857
 20
-182.4215955490127
 30
0.0
 10
69.25089787765256
 20
-182.4215955490127
 30
0.0
 10
68.79442272585695
 20
-182.4215955490127
 30
0.0
 10
68.35017766303399
 20
-182.6458712651024
 30
0.0
 10
67.9284979756394
 20
-182.9989935523406
 30
0.0
  0
SPLINE
  5
40D
330
1F
100
AcDbEntity
  8
Capa 1
 62
     7
420
 16777215
370
     9
100
AcDbSpline
210
0.0
220
0.0
230
1.0
 70
     8
 71
     3
 72
    11
 73
     7
 74
     0
 42
0.0000000001
 43
0.0000000001
 40
0.0
 40
0.0
 40
0.0
 40
0.0
 40
1.0
 40
1.0
 40
1.0
 40
2.0
 40
2.0
 40
2.0
 40
2.0
 10
60.58872204431463
 20
-182.9989935523406
 30
0.0
 10
60.166353337823
 20
-182.6458712651024
 30
0.0
 10
59.72658689913086
 20
-182.4215955490127
 30
0.0
 10
59.27011174733525
 20
-182.4215955490127
 30
0.0
 10
58.81277532166833
 20
-182.4215955490127
 30
0.0
 10
58.36921927794242
 20
-182.6458712651024
 30
0.0
 10
57.94667831667653
 20
-182.9989935523406
 30
0.0
  0
SPLINE
  5
40E
330
1F
100
AcDbEntity
  8
Capa 1
 62
     7
420
 16777215
370
     9
100
AcDbSpline
210
0.0
220
0.0
230
1.0
 70
     8
 71
     3
 72
     8
 73
     4
 74
     0
 42
0.0000000001
 43
0.0000000001
 40
0.0
 40
0.0
 40
0.0
 40
0.0
 40
1.0
 40
1.0
 40
1.0
 40
1.0
 10
162.2819118517907
 20
-182.8959851973316
 30
0.0
 10
159.5840575772915
 20
-182.8959851973316
 30
0.0
 10
156.8862033027924
 20
-182.8925401018463
 30
0.0
 10
154.1904160855844
 20
-182.8959851973316
 30
0.0
  0
POLYLINE
  5
40F
330
1F
100
AcDbEntity
  8
Capa 1
 62
     7
420
 16777215
370
     9
100
AcDb2dPolyline
 66
     1
 10
0.0
 20
0.0
 30
0.0
  0
VERTEX
  5
410
330
40F
100
AcDbEntity
  8
Capa 1
 62
     7
420
 16777215
370
     9
100
AcDbVertex
100
AcDb2dVertex
 10
154.0674261767609
 20
-168.9674641504665
 30
0.0
  0
VERTEX
  5
411
330
40F
100
AcDbEntity
  8
Capa 1
 62
     7
420
 16777215
370
     9
100
AcDbVertex
100
AcDb2dVertex
 10
155.8933267839433
 20
-168.9674641504665
 30
0.0
  0
SEQEND
  5
412
330
40F
100
AcDbEntity
  8
Capa 1
370
     9
  0
SPLINE
  5
413
330
1F
100
AcDbEntity
  8
Capa 1
 62
     7
420
 16777215
370
     9
100
AcDbSpline
210
0.0
220
0.0
230
1.0
 70
     8
 71
     3
 72
    59
 73
    55
 74
     0
 42
0.0000000001
 43
0.0000000001
 40
0.0
 40
0.0
 40
0.0
 40
0.0
 40
1.0
 40
1.0
 40
1.0
 40
2.0
 40
2.0
 40
2.0
 40
3.0
 40
3.0
 40
3.0
 40
4.0
 40
4.0
 40
4.0
 40
5.0
 40
5.0
 40
5.0
 40
6.0
 40
6.0
 40
6.0
 40
7.0
 40
7.0
 40
7.0
 40
8.0
 40
8.0
 40
8.0
 40
9.0
 40
9.0
 40
9.0
 40
10.0
 40
10.0
 40
10.0
 40
11.0
 40
11.0
 40
11.0
 40
12.0
 40
12.0
 40
12.0
 40
13.0
 40
13.0
 40
13.0
 40
14.0
 40
14.0
 40
14.0
 40
15.0
 40
15.0
 40
15.0
 40
16.0
 40
16.0
 40
16.0
 40
17.0
 40
17.0
 40
17.0
 40
18.0
 40
18.0
 40
18.0
 40
18.0
 10
171.884081988279
 20
-181.6764213955531
 30
0.0
 10
171.8689235681439
 20
-181.6812445292325
 30
0.0
 10
171.8544541671058
 20
-181.6853786438148
 30
0.0
 10
171.8344726132914
 20
-181.6902017774941
 30
0.0
 10
171.8089789067005
 20
-181.6984700066587
 30
0.0
 10
171.773838932751
 20
-181.7067382358233
 30
0.0
 10
171.7400769969956
 20
-181.715695484085
 30
0.0
 10
171.7028699657548
 20
-181.7246527323466
 30
0.0
 10
171.6670409727082
 20
-181.7329209615112
 30
0.0
 10
171.6284559032734
 20
-181.7411891906758
 30
0.0
 10
171.5850477001593
 20
-181.7549695726168
 30
0.0
 10
171.5375053824629
 20
-181.7625487826844
 30
0.0
 10
171.4899630647664
 20
-181.7763291646254
 30
0.0
 10
171.4341525179053
 20
-181.7887315083723
 30
0.0
 10
171.3783419710443
 20
-181.8066460048956
 30
0.0
 10
171.3177082905039
 20
-181.8190483486425
 30
0.0
 10
171.2439832471196
 20
-181.8362738260687
 30
0.0
 10
171.1661240891529
 20
-181.853499303495
 30
0.0
 10
171.0896429693804
 20
-181.8748588955035
 30
0.0
 10
170.9814669711435
 20
-181.8969075066091
 30
0.0
 10
170.8739799920037
 20
-181.9224012132
 30
0.0
 10
170.7658039937669
 20
-181.9485839388879
 30
0.0
 10
170.6135307733188
 20
-181.9830348937404
 30
0.0
 10
170.4578124573856
 20
-182.0174858485929
 30
0.0
 10
170.3027831605493
 20
-182.047113669766
 30
0.0
 10
170.0891872404638
 20
-182.0953450065595
 30
0.0
 10
169.8742132821842
 20
-182.1380641905766
 30
0.0
 10
169.6578612857105
 20
-182.1814723936907
 30
0.0
 10
169.416704601743
 20
-182.2283256922902
 30
0.0
 10
169.1714138031933
 20
-182.2717338954043
 30
0.0
 10
168.9302571192258
 20
-182.3144530794214
 30
0.0
 10
168.671185938735
 20
-182.3626844162149
 30
0.0
 10
168.4128037773413
 20
-182.404714581135
 30
0.0
 10
168.1537325968505
 20
-182.4439886696668
 30
0.0
 10
167.8739908434482
 20
-182.4873968727809
 30
0.0
 10
167.5942490900459
 20
-182.5259819422157
 30
0.0
 10
167.3158853748377
 20
-182.5652560307476
 30
0.0
 10
167.016851086718
 20
-182.6038411001824
 30
0.0
 10
166.7191948367924
 20
-182.6376030359378
 30
0.0
 10
166.4174044722845
 20
-182.6727430098874
 30
0.0
 10
166.106656859515
 20
-182.7071939647399
 30
0.0
 10
165.7924641512602
 20
-182.7375108050101
 30
0.0
 10
165.4817165384907
 20
-182.7630045116009
 30
0.0
 10
165.1592556010713
 20
-182.7884982181918
 30
0.0
 10
164.838172701846
 20
-182.8098578102003
 30
0.0
 10
164.5143337262325
 20
-182.8319064213059
 30
0.0
 10
164.1870496551338
 20
-182.8491318987322
 30
0.0
 10
163.8570095076469
 20
-182.8622232615761
 30
0.0
 10
163.5297254365481
 20
-182.874625605323
 30
0.0
 10
163.1979627413186
 20
-182.887716968167
 30
0.0
 10
162.8641329887979
 20
-182.8959851973316
 30
0.0
 10
162.5320257840198
 20
-182.8925401018463
 30
0.0
 10
162.452099568762
 20
-182.8925401018463
 30
0.0
 10
162.3728623726012
 20
-182.8925401018463
 30
0.0
 10
162.2925916477949
 20
-182.8925401018463
 30
0.0
  0
SPLINE
  5
414
330
1F
100
AcDbEntity
  8
Capa 1
 62
     7
420
 16777215
370
     9
100
AcDbSpline
210
0.0
220
0.0
230
1.0
 70
     8
 71
     3
 72
     8
 73
     4
 74
     0
 42
0.0000000001
 43
0.0000000001
 40
0.0
 40
0.0
 40
0.0
 40
0.0
 40
1.0
 40
1.0
 40
1.0
 40
1.0
 10
172.1149033857907
 20
-181.6164767341098
 30
0.0
 10
172.0714951826766
 20
-181.6295680969537
 30
0.0
 10
172.0439344187946
 20
-181.6385253452154
 30
0.0
 10
172.0287759986595
 20
-181.6385253452154
 30
0.0
  0
SPLINE
  5
415
330
1F
100
AcDbEntity
  8
Capa 1
 62
     7
420
 16777215
370
     9
100
AcDbSpline
210
0.0
220
0.0
230
1.0
 70
     8
 71
     3
 72
     8
 73
     4
 74
     0
 42
0.0000000001
 43
0.0000000001
 40
0.0
 40
0.0
 40
0.0
 40
0.0
 40
1.0
 40
1.0
 40
1.0
 40
1.0
 10
172.1231716149553
 20
-181.6164767341098
 30
0.0
 10
172.1197265194701
 20
-181.6164767341098
 30
0.0
 10
172.1128363284996
 20
-181.6206108486921
 30
0.0
 10
172.1066351566261
 20
-181.6206108486921
 30
0.0
  0
SPLINE
  5
416
330
1F
100
AcDbEntity
  8
Capa 1
 62
     7
420
 16777215
370
     9
100
AcDbSpline
210
0.0
220
0.0
230
1.0
 70
    24
 71
     3
 72
    23
 73
    19
 74
     0
 42
0.0000000001
 43
0.0000000001
 40
0.0
 40
0.0
 40
0.0
 40
0.0
 40
1.0
 40
1.0
 40
1.0
 40
2.0
 40
2.0
 40
2.0
 40
3.0
 40
3.0
 40
3.0
 40
4.0
 40
4.0
 40
4.0
 40
5.0
 40
5.0
 40
5.0
 40
6.0
 40
6.0
 40
6.0
 40
6.0
 10
184.3801323323772
 20
-168.9674641504665
 30
0.0
 10
184.5055338080403
 20
-168.9674641504665
 30
0.0
 10
184.6302462646063
 20
-168.9674641504665
 30
0.0
 10
184.7549587211724
 20
-168.9674641504665
 30
0.0
 10
185.3178873234622
 20
-168.9674641504665
 30
0.0
 10
185.8780598493638
 20
-168.9674641504665
 30
0.0
 10
186.4402994325566
 20
-168.9674641504665
 30
0.0
 10
187.0266546841461
 20
-168.9674641504665
 30
0.0
 10
187.6171440503179
 20
-168.9674641504665
 30
0.0
 10
188.2048773401016
 20
-168.9674641504665
 30
0.0
 10
188.8325737375141
 20
-168.9674641504665
 30
0.0
 10
189.4575140585384
 20
-168.9674641504665
 30
0.0
 10
190.0845214368539
 20
-168.9674641504665
 30
0.0
 10
190.748046827313
 20
-168.9674641504665
 30
0.0
 10
191.4115722177721
 20
-168.9674641504665
 30
0.0
 10
192.0757866273283
 20
-168.9674641504665
 30
0.0
 10
192.7758300299311
 20
-168.9674641504665
 30
0.0
 10
193.478629508922
 20
-168.9674641504665
 30
0.0
 10
194.1807399688159
 20
-168.9674641504665
 30
0.0
  0
SPLINE
  5
417
330
1F
100
AcDbEntity
  8
Capa 1
 62
     7
420
 16777215
370
     9
100
AcDbSpline
210
0.0
220
0.0
230
1.0
 70
    24
 71
     3
 72
    23
 73
    19
 74
     0
 42
0.0000000001
 43
0.0000000001
 40
0.0
 40
0.0
 40
0.0
 40
0.0
 40
1.0
 40
1.0
 40
1.0
 40
2.0
 40
2.0
 40
2.0
 40
3.0
 40
3.0
 40
3.0
 40
4.0
 40
4.0
 40
4.0
 40
5.0
 40
5.0
 40
5.0
 40
6.0
 40
6.0
 40
6.0
 40
6.0
 10
173.6968912326174
 20
-168.9674641504665
 30
0.0
 10
174.3087401907978
 20
-168.9674641504665
 30
0.0
 10
174.9247232635605
 20
-168.9674641504665
 30
0.0
 10
175.5393282981291
 20
-168.9674641504665
 30
0.0
 10
175.78668615397
 20
-168.9674641504665
 30
0.0
 10
176.0368000861992
 20
-168.9674641504665
 30
0.0
 10
176.282779903846
 20
-168.9674641504665
 30
0.0
 10
176.5694118482188
 20
-168.9674641504665
 30
0.0
 10
176.8553547734945
 20
-168.9674641504665
 30
0.0
 10
177.1399196605761
 20
-168.9674641504665
 30
0.0
 10
177.4630696170926
 20
-168.9674641504665
 30
0.0
 10
177.7869085927061
 20
-168.9674641504665
 30
0.0
 10
178.1100585492225
 20
-168.9674641504665
 30
0.0
 10
178.4697265178826
 20
-168.9674641504665
 30
0.0
 10
178.8293944865427
 20
-168.9674641504665
 30
0.0
 10
179.1918185315909
 20
-168.9674641504665
 30
0.0
 10
179.4474446165965
 20
-168.9674641504665
 30
0.0
 10
179.7044487397961
 20
-168.9674641504665
 30
0.0
 10
179.9628309011898
 20
-168.9674641504665
 30
0.0
  0
SPLINE
  5
418
330
1F
100
AcDbEntity
  8
Capa 1
 62
     7
420
 16777215
370
     9
100
AcDbSpline
210
0.0
220
0.0
230
1.0
 70
     8
 71
     3
 72
    41
 73
    37
 74
     0
 42
0.0000000001
 43
0.0000000001
 40
0.0
 40
0.0
 40
0.0
 40
0.0
 40
1.0
 40
1.0
 40
1.0
 40
2.0
 40
2.0
 40
2.0
 40
3.0
 40
3.0
 40
3.0
 40
4.0
 40
4.0
 40
4.0
 40
5.0
 40
5.0
 40
5.0
 40
6.0
 40
6.0
 40
6.0
 40
7.0
 40
7.0
 40
7.0
 40
8.0
 40
8.0
 40
8.0
 40
9.0
 40
9.0
 40
9.0
 40
10.0
 40
10.0
 40
10.0
 40
11.0
 40
11.0
 40
11.0
 40
12.0
 40
12.0
 40
12.0
 40
12.0
 10
194.1807399688159
 20
-168.9674641504665
 30
0.0
 10
194.4763291614504
 20
-168.9674641504665
 30
0.0
 10
194.7691622776966
 20
-168.9846896278927
 30
0.0
 10
195.0626844130399
 20
-169.0191405827452
 30
0.0
 10
195.3575845865773
 20
-169.0535915375977
 30
0.0
 10
195.6552408365029
 20
-169.1052679698765
 30
0.0
 10
195.9439398381668
 20
-169.1741698795815
 30
0.0
 10
196.236772954413
 20
-169.2430717892865
 30
0.0
 10
196.525471956077
 20
-169.3291991764177
 30
0.0
 10
196.8100368431586
 20
-169.4325520409752
 30
0.0
 10
197.090467615658
 20
-169.5365939246298
 30
0.0
 10
197.3660752544779
 20
-169.6523491329341
 30
0.0
 10
197.6347927023274
 20
-169.7901529523441
 30
0.0
 10
197.9000650546917
 20
-169.9238226571718
 30
0.0
 10
198.1591362351824
 20
-170.0705837248435
 30
0.0
 10
198.4064940910234
 20
-170.2345702699414
 30
0.0
 10
198.6504068513791
 20
-170.3978677959422
 30
0.0
 10
198.8874294207642
 20
-170.5701225702047
 30
0.0
 10
199.1113606273055
 20
-170.7602918409905
 30
0.0
 10
199.3311577192644
 20
-170.9449489589999
 30
0.0
 10
199.5378634483794
 20
-171.139941363465
 30
0.0
 10
199.7363009483298
 20
-171.345958073483
 30
0.0
 10
199.9306043336979
 20
-171.5485296880157
 30
0.0
 10
200.1090602798339
 20
-171.7593695317129
 30
0.0
 10
200.2792479968052
 20
-171.980544661866
 30
0.0
 10
200.441167484612
 20
-172.1913845055633
 30
0.0
 10
200.594129724157
 20
-172.4111815975222
 30
0.0
 10
200.731933543567
 20
-172.6392469186457
 30
0.0
 10
200.8676703056859
 20
-172.8583549915076
 30
0.0
 10
200.9903157049608
 20
-173.0877983508253
 30
0.0
 10
201.1026258177799
 20
-173.3158636719488
 30
0.0
 10
201.2080457396285
 20
-173.5404838975871
 30
0.0
 10
201.3051974323126
 20
-173.7637260850313
 30
0.0
 10
201.3885687430557
 20
-173.9966145398342
 30
0.0
 10
201.4691839774105
 20
-174.2164116317931
 30
0.0
 10
201.5401529444066
 20
-174.4362087237521
 30
0.0
 10
201.6028536822382
 20
-174.6649630639727
 30
0.0
  0
SPLINE
  5
419
330
1F
100
AcDbEntity
  8
Capa 1
 62
     7
420
 16777215
370
     9
100
AcDbSpline
210
0.0
220
0.0
230
1.0
 70
     8
 71
     3
 72
     8
 73
     4
 74
     0
 42
0.0000000001
 43
0.0000000001
 40
0.0
 40
0.0
 40
0.0
 40
0.0
 40
1.0
 40
1.0
 40
1.0
 40
1.0
 10
201.6028536822382
 20
-174.6649630639727
 30
0.0
 10
201.8695040727965
 20
-175.6605956592099
 30
0.0
 10
202.1368434824519
 20
-176.6596733499323
 30
0.0
 10
202.4034938730102
 20
-177.6559949642666
 30
0.0
  0
SPLINE
  5
41A
330
1F
100
AcDbEntity
  8
Capa 1
 62
     7
420
 16777215
370
     9
100
AcDbSpline
210
0.0
220
0.0
230
1.0
 70
     8
 71
     3
 72
     8
 73
     4
 74
     0
 42
0.0000000001
 43
0.0000000001
 40
0.0
 40
0.0
 40
0.0
 40
0.0
 40
1.0
 40
1.0
 40
1.0
 40
1.0
 10
173.7010253471998
 20
-168.9674641504665
 30
0.0
 10
173.7010253471998
 20
-168.9674641504665
 30
0.0
 10
172.9851345053648
 20
-168.9936468761544
 30
0.0
 10
171.6842664501345
 20
-168.9757323796311
 30
0.0
  0
SPLINE
  5
41B
330
1F
100
AcDbEntity
  8
Capa 1
 62
     7
420
 16777215
370
     9
100
AcDbSpline
210
0.0
220
0.0
230
1.0
 70
    24
 71
     3
 72
     8
 73
     4
 74
     0
 42
0.0000000001
 43
0.0000000001
 40
0.0
 40
0.0
 40
0.0
 40
0.0
 40
1.0
 40
1.0
 40
1.0
 40
1.0
 10
146.1350938219732
 20
-169.346424653844
 30
0.0
 10
146.1350938219732
 20
-169.346424653844
 30
0.0
 10
146.3676377672275
 20
-169.346424653844
 30
0.0
 10
146.712491825301
 20
-169.346424653844
 30
0.0
  0
SPLINE
  5
41C
330
1F
100
AcDbEntity
  8
Capa 1
 62
     7
420
 16777215
370
     9
100
AcDbSpline
210
0.0
220
0.0
230
1.0
 70
    24
 71
     3
 72
     8
 73
     4
 74
     0
 42
0.0000000001
 43
0.0000000001
 40
0.0
 40
0.0
 40
0.0
 40
0.0
 40
1.0
 40
1.0
 40
1.0
 40
1.0
 10
149.5943141987125
 20
-169.346424653844
 30
0.0
 10
149.9364121803978
 20
-169.346424653844
 30
0.0
 10
150.1689561256522
 20
-169.346424653844
 30
0.0
 10
150.1689561256522
 20
-169.346424653844
 30
0.0
  0
SPLINE
  5
41D
330
1F
100
AcDbEntity
  8
Capa 1
 62
     7
420
 16777215
370
     9
100
AcDbSpline
210
0.0
220
0.0
230
1.0
 70
     8
 71
     3
 72
    11
 73
     7
 74
     0
 42
0.0000000001
 43
0.0000000001
 40
0.0
 40
0.0
 40
0.0
 40
0.0
 40
1.0
 40
1.0
 40
1.0
 40
2.0
 40
2.0
 40
2.0
 40
2.0
 10
149.5943141987125
 20
-174.518201996301
 30
0.0
 10
149.945713938208
 20
-173.7857746961369
 30
0.0
 10
150.1689561256522
 20
-173.0230305557026
 30
0.0
 10
150.1689561256522
 20
-172.2299695749981
 30
0.0
 10
150.1689561256522
 20
-171.4410427088759
 30
0.0
 10
149.945713938208
 20
-170.6741644538592
 30
0.0
 10
149.5943141987125
 20
-169.9410481345981
 30
0.0
  0
SPLINE
  5
41E
330
1F
100
AcDbEntity
  8
Capa 1
 62
     7
420
 16777215
370
     9
100
AcDbSpline
210
0.0
220
0.0
230
1.0
 70
     8
 71
     3
 72
    11
 73
     7
 74
     0
 42
0.0000000001
 43
0.0000000001
 40
0.0
 40
0.0
 40
0.0
 40
0.0
 40
1.0
 40
1.0
 40
1.0
 40
2.0
 40
2.0
 40
2.0
 40
2.0
 10
146.712491825301
 20
-169.9410481345981
 30
0.0
 10
146.3593695380629
 20
-170.6741644538592
 30
0.0
 10
146.1350938219732
 20
-171.4369085942936
 30
0.0
 10
146.1350938219732
 20
-172.2299695749981
 30
0.0
 10
146.1350938219732
 20
-173.0188964411203
 30
0.0
 10
146.3593695380629
 20
-173.7857746961369
 30
0.0
 10
146.712491825301
 20
-174.518201996301
 30
0.0
  0
SPLINE
  5
41F
330
1F
100
AcDbEntity
  8
Capa 1
 62
     7
420
 16777215
370
     9
100
AcDbSpline
210
0.0
220
0.0
230
1.0
 70
    24
 71
     3
 72
     8
 73
     4
 74
     0
 42
0.0000000001
 43
0.0000000001
 40
0.0
 40
0.0
 40
0.0
 40
0.0
 40
1.0
 40
1.0
 40
1.0
 40
1.0
 10
149.5943141987125
 20
-169.346424653844
 30
0.0
 10
149.9364121803978
 20
-169.346424653844
 30
0.0
 10
150.1689561256522
 20
-169.346424653844
 30
0.0
 10
150.1689561256522
 20
-169.346424653844
 30
0.0
  0
SPLINE
  5
420
330
1F
100
AcDbEntity
  8
Capa 1
 62
     7
420
 16777215
370
     9
100
AcDbSpline
210
0.0
220
0.0
230
1.0
 70
     8
 71
     3
 72
    11
 73
     7
 74
     0
 42
0.0000000001
 43
0.0000000001
 40
0.0
 40
0.0
 40
0.0
 40
0.0
 40
1.0
 40
1.0
 40
1.0
 40
2.0
 40
2.0
 40
2.0
 40
2.0
 10
149.5943141987125
 20
-174.518201996301
 30
0.0
 10
149.945713938208
 20
-173.7857746961369
 30
0.0
 10
150.1689561256522
 20
-173.0230305557026
 30
0.0
 10
150.1689561256522
 20
-172.2299695749981
 30
0.0
 10
150.1689561256522
 20
-171.4410427088759
 30
0.0
 10
149.945713938208
 20
-170.6741644538592
 30
0.0
 10
149.5943141987125
 20
-169.9410481345981
 30
0.0
  0
SPLINE
  5
421
330
1F
100
AcDbEntity
  8
Capa 1
 62
     7
420
 16777215
370
     9
100
AcDbSpline
210
0.0
220
0.0
230
1.0
 70
    24
 71
     3
 72
     8
 73
     4
 74
     0
 42
0.0000000001
 43
0.0000000001
 40
0.0
 40
0.0
 40
0.0
 40
0.0
 40
1.0
 40
1.0
 40
1.0
 40
1.0
 10
146.1350938219732
 20
-169.346424653844
 30
0.0
 10
146.1350938219732
 20
-169.346424653844
 30
0.0
 10
146.3676377672275
 20
-169.346424653844
 30
0.0
 10
146.712491825301
 20
-169.346424653844
 30
0.0
  0
SPLINE
  5
422
330
1F
100
AcDbEntity
  8
Capa 1
 62
     7
420
 16777215
370
     9
100
AcDbSpline
210
0.0
220
0.0
230
1.0
 70
     8
 71
     3
 72
    11
 73
     7
 74
     0
 42
0.0000000001
 43
0.0000000001
 40
0.0
 40
0.0
 40
0.0
 40
0.0
 40
1.0
 40
1.0
 40
1.0
 40
2.0
 40
2.0
 40
2.0
 40
2.0
 10
146.712491825301
 20
-169.9410481345981
 30
0.0
 10
146.3593695380629
 20
-170.6741644538592
 30
0.0
 10
146.1350938219732
 20
-171.4369085942936
 30
0.0
 10
146.1350938219732
 20
-172.2299695749981
 30
0.0
 10
146.1350938219732
 20
-173.0188964411203
 30
0.0
 10
146.3593695380629
 20
-173.7857746961369
 30
0.0
 10
146.712491825301
 20
-174.518201996301
 30
0.0
  0
SPLINE
  5
423
330
1F
100
AcDbEntity
  8
Capa 1
 62
     7
420
 16777215
370
     9
100
AcDbSpline
210
0.0
220
0.0
230
1.0
 70
    24
 71
     3
 72
     8
 73
     4
 74
     0
 42
0.0000000001
 43
0.0000000001
 40
0.0
 40
0.0
 40
0.0
 40
0.0
 40
1.0
 40
1.0
 40
1.0
 40
1.0
 10
171.6842664501345
 20
-168.9977809907367
 30
0.0
 10
171.6842664501345
 20
-168.988823742475
 30
0.0
 10
171.6842664501345
 20
-168.9846896278927
 30
0.0
 10
171.6842664501345
 20
-168.9798664942134
 30
0.0
  0
SPLINE
  5
424
330
1F
100
AcDbEntity
  8
Capa 1
 62
     7
420
 16777215
370
     9
100
AcDbSpline
210
0.0
220
0.0
230
1.0
 70
     8
 71
     3
 72
    11
 73
     7
 74
     0
 42
0.0000000001
 43
0.0000000001
 40
0.0
 40
0.0
 40
0.0
 40
0.0
 40
1.0
 40
1.0
 40
1.0
 40
2.0
 40
2.0
 40
2.0
 40
2.0
 10
179.8829046859321
 20
-169.1700357649992
 30
0.0
 10
182.2669107617249
 20
-169.2299804264425
 30
0.0
 10
184.6481607611296
 20
-169.2988823361475
 30
0.0
 10
187.0307887987284
 20
-169.3726073795318
 30
0.0
 10
189.4141058554243
 20
-169.4408202701398
 30
0.0
 10
191.7981119312171
 20
-169.5186794281065
 30
0.0
 10
194.1807399688159
 20
-169.5965385860731
 30
0.0
  0
SPLINE
  5
425
330
1F
100
AcDbEntity
  8
Capa 1
 62
     7
420
 16777215
370
     9
100
AcDbSpline
210
0.0
220
0.0
230
1.0
 70
     8
 71
     3
 72
    11
 73
     7
 74
     0
 42
0.0000000001
 43
0.0000000001
 40
0.0
 40
0.0
 40
0.0
 40
0.0
 40
1.0
 40
1.0
 40
1.0
 40
2.0
 40
2.0
 40
2.0
 40
2.0
 10
171.6842664501345
 20
-168.9977809907367
 30
0.0
 10
172.9679090279386
 20
-169.0453233084331
 30
0.0
 10
174.2997829425362
 20
-169.0659938813446
 30
0.0
 10
175.6702419265686
 20
-169.0873534733532
 30
0.0
 10
177.0386338533098
 20
-169.1094020844588
 30
0.0
 10
178.4607692696209
 20
-169.1314506955644
 30
0.0
 10
179.8829046859321
 20
-169.1700357649992
 30
0.0
  0
SPLINE
  5
426
330
1F
100
AcDbEntity
  8
Capa 1
 62
     7
420
 16777215
370
     9
100
AcDbSpline
210
0.0
220
0.0
230
1.0
 70
     8
 71
     3
 72
     8
 73
     4
 74
     0
 42
0.0000000001
 43
0.0000000001
 40
0.0
 40
0.0
 40
0.0
 40
0.0
 40
1.0
 40
1.0
 40
1.0
 40
1.0
 10
157.6403347045135
 20
-170.1043456605989
 30
0.0
 10
157.8404947522066
 20
-170.0878092022697
 30
0.0
 10
158.0220512842792
 20
-170.0623154956789
 30
0.0
 10
158.1767360715669
 20
-170.0402668845733
 30
0.0
  0
SPLINE
  5
427
330
1F
100
AcDbEntity
  8
Capa 1
 62
     7
420
 16777215
370
     9
100
AcDbSpline
210
0.0
220
0.0
230
1.0
 70
     8
 71
     3
 72
     8
 73
     4
 74
     0
 42
0.0000000001
 43
0.0000000001
 40
0.0
 40
0.0
 40
0.0
 40
0.0
 40
1.0
 40
1.0
 40
1.0
 40
1.0
 10
158.1767360715669
 20
-170.0402668845733
 30
0.0
 10
159.3966443828939
 20
-169.8680121103108
 30
0.0
 10
160.6141411273812
 20
-169.6909342023689
 30
0.0
 10
161.8340494387081
 20
-169.5152343326212
 30
0.0
  0
SPLINE
  5
428
330
1F
100
AcDbEntity
  8
Capa 1
 62
     7
420
 16777215
370
     9
100
AcDbSpline
210
0.0
220
0.0
230
1.0
 70
     8
 71
     3
 72
    20
 73
    16
 74
     0
 42
0.0000000001
 43
0.0000000001
 40
0.0
 40
0.0
 40
0.0
 40
0.0
 40
1.0
 40
1.0
 40
1.0
 40
2.0
 40
2.0
 40
2.0
 40
3.0
 40
3.0
 40
3.0
 40
4.0
 40
4.0
 40
4.0
 40
5.0
 40
5.0
 40
5.0
 40
5.0
 10
171.6842664501345
 20
-168.9757323796311
 30
0.0
 10
170.4702148011324
 20
-168.988823742475
 30
0.0
 10
168.7834960515541
 20
-169.0274088119098
 30
0.0
 10
166.9169433176458
 20
-169.0494574230154
 30
0.0
 10
165.0510796028344
 20
-169.070817015024
 30
0.0
 10
163.0232964002164
 20
-169.070817015024
 30
0.0
 10
161.198084812131
 20
-169.0453233084331
 30
0.0
 10
160.2844454894428
 20
-169.0315429264921
 30
0.0
 10
159.4049126120585
 20
-169.0150064681629
 30
0.0
 10
158.6252875037464
 20
-169.0012260862219
 30
0.0
 10
157.847384943177
 20
-168.988823742475
 30
0.0
 10
157.1700791707769
 20
-168.9757323796311
 30
0.0
 10
156.605772530293
 20
-168.9715982650488
 30
0.0
 10
156.3322319487642
 20
-168.9674641504665
 30
0.0
 10
156.0910752647967
 20
-168.9674641504665
 30
0.0
 10
155.8795464020023
 20
-168.9674641504665
 30
0.0
  0
SPLINE
  5
429
330
1F
100
AcDbEntity
  8
Capa 1
 62
     7
420
 16777215
370
     9
100
AcDbSpline
210
0.0
220
0.0
230
1.0
 70
    24
 71
     3
 72
     8
 73
     4
 74
     0
 42
0.0000000001
 43
0.0000000001
 40
0.0
 40
0.0
 40
0.0
 40
0.0
 40
1.0
 40
1.0
 40
1.0
 40
1.0
 10
154.8756455776006
 20
-168.9674641504665
 30
0.0
 10
154.8756455776006
 20
-168.9674641504665
 30
0.0
 10
154.9424804300144
 20
-168.9674641504665
 30
0.0
 10
155.0692599438716
 20
-168.9674641504665
 30
0.0
  0
SPLINE
  5
42A
330
1F
100
AcDbEntity
  8
Capa 1
 62
     7
420
 16777215
370
     9
100
AcDbSpline
210
0.0
220
0.0
230
1.0
 70
     8
 71
     3
 72
     8
 73
     4
 74
     0
 42
0.0000000001
 43
0.0000000001
 40
0.0
 40
0.0
 40
0.0
 40
0.0
 40
1.0
 40
1.0
 40
1.0
 40
1.0
 10
154.1342610291748
 20
-168.9633300358842
 30
0.0
 10
154.1797362895801
 20
-168.9633300358842
 30
0.0
 10
154.2031629388798
 20
-168.9674641504665
 30
0.0
 10
154.2031629388798
 20
-168.9674641504665
 30
0.0
  0
SPLINE
  5
42B
330
1F
100
AcDbEntity
  8
Capa 1
 62
     7
420
 16777215
370
     9
100
AcDbSpline
210
0.0
220
0.0
230
1.0
 70
     8
 71
     3
 72
    14
 73
    10
 74
     0
 42
0.0000000001
 43
0.0000000001
 40
0.0
 40
0.0
 40
0.0
 40
0.0
 40
1.0
 40
1.0
 40
1.0
 40
2.0
 40
2.0
 40
2.0
 40
3.0
 40
3.0
 40
3.0
 40
3.0
 10
154.0694932340521
 20
-168.9674641504665
 30
0.0
 10
154.0439995274612
 20
-168.9674641504665
 30
0.0
 10
154.0088595535117
 20
-168.9674641504665
 30
0.0
 10
153.9730305604651
 20
-168.9715982650488
 30
0.0
 10
153.8193793018229
 20
-168.988823742475
 30
0.0
 10
153.5889024138597
 20
-169.0535915375977
 30
0.0
 10
153.282633425221
 20
-169.1479871538936
 30
0.0
 10
152.6714734861377
 20
-169.3422905392617
 30
0.0
 10
151.7599012207406
 20
-169.5317707909504
 30
0.0
 10
150.5530842722576
 20
-169.7178059471539
 30
0.0
  0
SPLINE
  5
42C
330
1F
100
AcDbEntity
  8
Capa 1
 62
     7
420
 16777215
370
     9
100
AcDbSpline
210
0.0
220
0.0
230
1.0
 70
    24
 71
     3
 72
     8
 73
     4
 74
     0
 42
0.0000000001
 43
0.0000000001
 40
0.0
 40
0.0
 40
0.0
 40
0.0
 40
1.0
 40
1.0
 40
1.0
 40
1.0
 10
150.5530842722576
 20
-169.7178059471539
 30
0.0
 10
150.5530842722576
 20
-169.7212510426392
 30
0.0
 10
150.5530842722576
 20
-169.7253851572214
 30
0.0
 10
150.5530842722576
 20
-169.7343424054831
 30
0.0
  0
SPLINE
  5
42D
330
1F
100
AcDbEntity
  8
Capa 1
 62
     7
420
 16777215
370
     9
100
AcDbSpline
210
0.0
220
0.0
230
1.0
 70
    24
 71
     3
 72
     8
 73
     4
 74
     0
 42
0.0000000001
 43
0.0000000001
 40
0.0
 40
0.0
 40
0.0
 40
0.0
 40
1.0
 40
1.0
 40
1.0
 40
1.0
 10
150.7463541289801
 20
-169.9065971797456
 30
0.0
 10
150.7463541289801
 20
-169.885237587737
 30
0.0
 10
150.7463541289801
 20
-169.8680121103108
 30
0.0
 10
150.7463541289801
 20
-169.8459634992052
 30
0.0
  0
SPLINE
  5
42E
330
1F
100
AcDbEntity
  8
Capa 1
 62
     7
420
 16777215
370
     9
100
AcDbSpline
210
0.0
220
0.0
230
1.0
 70
     8
 71
     3
 72
    11
 73
     7
 74
     0
 42
0.0000000001
 43
0.0000000001
 40
0.0
 40
0.0
 40
0.0
 40
0.0
 40
1.0
 40
1.0
 40
1.0
 40
2.0
 40
2.0
 40
2.0
 40
2.0
 10
161.8340494387081
 20
-169.5152343326212
 30
0.0
 10
162.6939452718265
 20
-169.3898328569581
 30
0.0
 10
163.9862005883437
 20
-169.277522744139
 30
0.0
 10
165.6715412997279
 20
-169.1824381087461
 30
0.0
 10
167.3565375015637
 20
-169.0839083778679
 30
0.0
 10
169.4098144107726
 20
-169.0191405827452
 30
0.0
 10
171.6842664501345
 20
-168.9977809907367
 30
0.0
  0
SPLINE
  5
42F
330
1F
100
AcDbEntity
  8
Capa 1
 62
     7
420
 16777215
370
     9
100
AcDbSpline
210
0.0
220
0.0
230
1.0
 70
     8
 71
     3
 72
    11
 73
     7
 74
     0
 42
0.0000000001
 43
0.0000000001
 40
0.0
 40
0.0
 40
0.0
 40
0.0
 40
1.0
 40
1.0
 40
1.0
 40
2.0
 40
2.0
 40
2.0
 40
2.0
 10
194.1807399688159
 20
-169.5965385860731
 30
0.0
 10
195.6910698295495
 20
-169.6523491329341
 30
0.0
 10
197.146278162519
 20
-170.2001193150889
 30
0.0
 10
198.3162325893098
 20
-171.1564778217942
 30
0.0
 10
199.4868760351977
 20
-172.1176594621789
 30
0.0
 10
200.3074977797843
 20
-173.4405761285149
 30
0.0
 10
200.6334038126889
 20
-174.9233452253664
 30
0.0
  0
SPLINE
  5
430
330
1F
100
AcDbEntity
  8
Capa 1
 62
     7
420
 16777215
370
     9
100
AcDbSpline
210
0.0
220
0.0
230
1.0
 70
     8
 71
     3
 72
    14
 73
    10
 74
     0
 42
0.0000000001
 43
0.0000000001
 40
0.0
 40
0.0
 40
0.0
 40
0.0
 40
1.0
 40
1.0
 40
1.0
 40
2.0
 40
2.0
 40
2.0
 40
3.0
 40
3.0
 40
3.0
 40
3.0
 10
153.7422091629533
 20
-174.8461750864968
 30
0.0
 10
153.7422091629533
 20
-174.1433756075058
 30
0.0
 10
153.9771646750474
 20
-173.483984331629
 30
0.0
 10
154.2975585551756
 20
-172.918988672048
 30
0.0
 10
154.6172634162068
 20
-172.3588161461464
 30
0.0
 10
155.0072482251371
 20
-171.8895941410554
 30
0.0
 10
155.405501263232
 20
-171.4885850265723
 30
0.0
 10
156.205452434907
 20
-170.6913899312855
 30
0.0
 10
157.01987300762
 20
-170.173936589401
 30
0.0
 10
157.6403347045135
 20
-170.1043456605989
 30
0.0
  0
SPLINE
  5
431
330
1F
100
AcDbEntity
  8
Capa 1
 62
     7
420
 16777215
370
     9
100
AcDbSpline
210
0.0
220
0.0
230
1.0
 70
     8
 71
     3
 72
     8
 73
     4
 74
     0
 42
0.0000000001
 43
0.0000000001
 40
0.0
 40
0.0
 40
0.0
 40
0.0
 40
1.0
 40
1.0
 40
1.0
 40
1.0
 10
202.4034938730102
 20
-177.6559949642666
 30
0.0
 10
202.4034938730102
 20
-177.6559949642666
 30
0.0
 10
202.0679415727469
 20
-177.7510795996594
 30
0.0
 10
201.3175997760595
 20
-177.9660535579391
 30
0.0
  0
SPLINE
  5
432
330
1F
100
AcDbEntity
  8
Capa 1
 62
     7
420
 16777215
370
     9
100
AcDbSpline
210
0.0
220
0.0
230
1.0
 70
     8
 71
     3
 72
     8
 73
     4
 74
     0
 42
0.0000000001
 43
0.0000000001
 40
0.0
 40
0.0
 40
0.0
 40
0.0
 40
1.0
 40
1.0
 40
1.0
 40
1.0
 10
200.6334038126889
 20
-174.9233452253664
 30
0.0
 10
200.8614691338124
 20
-175.9355142789328
 30
0.0
 10
201.089534454936
 20
-176.9483723515962
 30
0.0
 10
201.3175997760595
 20
-177.9619194433567
 30
0.0
  0
SPLINE
  5
433
330
1F
100
AcDbEntity
  8
Capa 1
 62
     7
420
 16777215
370
     9
100
AcDbSpline
210
0.0
220
0.0
230
1.0
 70
    24
 71
     3
 72
     8
 73
     4
 74
     0
 42
0.0000000001
 43
0.0000000001
 40
0.0
 40
0.0
 40
0.0
 40
0.0
 40
1.0
 40
1.0
 40
1.0
 40
1.0
 10
149.5943141987125
 20
-169.346424653844
 30
0.0
 10
149.9364121803978
 20
-169.346424653844
 30
0.0
 10
150.1689561256522
 20
-169.346424653844
 30
0.0
 10
150.1689561256522
 20
-169.346424653844
 30
0.0
  0
SPLINE
  5
434
330
1F
100
AcDbEntity
  8
Capa 1
 62
     7
420
 16777215
370
     9
100
AcDbSpline
210
0.0
220
0.0
230
1.0
 70
     8
 71
     3
 72
    11
 73
     7
 74
     0
 42
0.0000000001
 43
0.0000000001
 40
0.0
 40
0.0
 40
0.0
 40
0.0
 40
1.0
 40
1.0
 40
1.0
 40
2.0
 40
2.0
 40
2.0
 40
2.0
 10
149.5943141987125
 20
-174.518201996301
 30
0.0
 10
149.945713938208
 20
-173.7857746961369
 30
0.0
 10
150.1689561256522
 20
-173.0230305557026
 30
0.0
 10
150.1689561256522
 20
-172.2299695749981
 30
0.0
 10
150.1689561256522
 20
-171.4410427088759
 30
0.0
 10
149.945713938208
 20
-170.6741644538592
 30
0.0
 10
149.5943141987125
 20
-169.9410481345981
 30
0.0
  0
SPLINE
  5
435
330
1F
100
AcDbEntity
  8
Capa 1
 62
     7
420
 16777215
370
     9
100
AcDbSpline
210
0.0
220
0.0
230
1.0
 70
    24
 71
     3
 72
     8
 73
     4
 74
     0
 42
0.0000000001
 43
0.0000000001
 40
0.0
 40
0.0
 40
0.0
 40
0.0
 40
1.0
 40
1.0
 40
1.0
 40
1.0
 10
146.1350938219732
 20
-169.346424653844
 30
0.0
 10
146.1350938219732
 20
-169.346424653844
 30
0.0
 10
146.3676377672275
 20
-169.346424653844
 30
0.0
 10
146.712491825301
 20
-169.346424653844
 30
0.0
  0
SPLINE
  5
436
330
1F
100
AcDbEntity
  8
Capa 1
 62
     7
420
 16777215
370
     9
100
AcDbSpline
210
0.0
220
0.0
230
1.0
 70
     8
 71
     3
 72
    11
 73
     7
 74
     0
 42
0.0000000001
 43
0.0000000001
 40
0.0
 40
0.0
 40
0.0
 40
0.0
 40
1.0
 40
1.0
 40
1.0
 40
2.0
 40
2.0
 40
2.0
 40
2.0
 10
146.712491825301
 20
-169.9410481345981
 30
0.0
 10
146.3593695380629
 20
-170.6741644538592
 30
0.0
 10
146.1350938219732
 20
-171.4369085942936
 30
0.0
 10
146.1350938219732
 20
-172.2299695749981
 30
0.0
 10
146.1350938219732
 20
-173.0188964411203
 30
0.0
 10
146.3593695380629
 20
-173.7857746961369
 30
0.0
 10
146.712491825301
 20
-174.518201996301
 30
0.0
  0
SPLINE
  5
437
330
1F
100
AcDbEntity
  8
Capa 1
 62
     7
420
 16777215
370
     9
100
AcDbSpline
210
0.0
220
0.0
230
1.0
 70
     8
 71
     3
 72
    11
 73
     7
 74
     0
 42
0.0000000001
 43
0.0000000001
 40
0.0
 40
0.0
 40
0.0
 40
0.0
 40
1.0
 40
1.0
 40
1.0
 40
2.0
 40
2.0
 40
2.0
 40
2.0
 10
149.5943141987125
 20
-180.2804687049299
 30
0.0
 10
149.945713938208
 20
-179.5480414047658
 30
0.0
 10
150.1689561256522
 20
-178.7846082452344
 30
0.0
 10
150.1689561256522
 20
-177.9922362836269
 30
0.0
 10
150.1689561256522
 20
-177.2033094175047
 30
0.0
 10
149.945713938208
 20
-176.4364311624881
 30
0.0
 10
149.5943141987125
 20
-175.703314843227
 30
0.0
  0
SPLINE
  5
438
330
1F
100
AcDbEntity
  8
Capa 1
 62
     7
420
 16777215
370
     9
100
AcDbSpline
210
0.0
220
0.0
230
1.0
 70
    24
 71
     3
 72
     8
 73
     4
 74
     0
 42
0.0000000001
 43
0.0000000001
 40
0.0
 40
0.0
 40
0.0
 40
0.0
 40
1.0
 40
1.0
 40
1.0
 40
1.0
 10
150.1689561256522
 20
-180.875092185684
 30
0.0
 10
150.1689561256522
 20
-180.875092185684
 30
0.0
 10
149.9364121803978
 20
-180.875092185684
 30
0.0
 10
149.5943141987125
 20
-180.875092185684
 30
0.0
  0
SPLINE
  5
439
330
1F
100
AcDbEntity
  8
Capa 1
 62
     7
420
 16777215
370
     9
100
AcDbSpline
210
0.0
220
0.0
230
1.0
 70
    24
 71
     3
 72
     8
 73
     4
 74
     0
 42
0.0000000001
 43
0.0000000001
 40
0.0
 40
0.0
 40
0.0
 40
0.0
 40
1.0
 40
1.0
 40
1.0
 40
1.0
 10
146.712491825301
 20
-180.875092185684
 30
0.0
 10
146.3676377672275
 20
-180.875092185684
 30
0.0
 10
146.1350938219732
 20
-180.875092185684
 30
0.0
 10
146.1350938219732
 20
-180.875092185684
 30
0.0
  0
SPLINE
  5
43A
330
1F
100
AcDbEntity
  8
Capa 1
 62
     7
420
 16777215
370
     9
100
AcDbSpline
210
0.0
220
0.0
230
1.0
 70
     8
 71
     3
 72
    11
 73
     7
 74
     0
 42
0.0000000001
 43
0.0000000001
 40
0.0
 40
0.0
 40
0.0
 40
0.0
 40
1.0
 40
1.0
 40
1.0
 40
2.0
 40
2.0
 40
2.0
 40
2.0
 10
146.712491825301
 20
-175.703314843227
 30
0.0
 10
146.3593695380629
 20
-176.4364311624881
 30
0.0
 10
146.1350938219732
 20
-177.1991753029224
 30
0.0
 10
146.1350938219732
 20
-177.9922362836269
 30
0.0
 10
146.1350938219732
 20
-178.7804741306521
 30
0.0
 10
146.3593695380629
 20
-179.5480414047658
 30
0.0
 10
146.712491825301
 20
-180.2804687049299
 30
0.0
  0
SPLINE
  5
43B
330
1F
100
AcDbEntity
  8
Capa 1
 62
     7
420
 16777215
370
     9
100
AcDbSpline
210
0.0
220
0.0
230
1.0
 70
     8
 71
     3
 72
    11
 73
     7
 74
     0
 42
0.0000000001
 43
0.0000000001
 40
0.0
 40
0.0
 40
0.0
 40
0.0
 40
1.0
 40
1.0
 40
1.0
 40
2.0
 40
2.0
 40
2.0
 40
2.0
 10
149.5943141987125
 20
-180.2804687049299
 30
0.0
 10
149.945713938208
 20
-179.5480414047658
 30
0.0
 10
150.1689561256522
 20
-178.7846082452344
 30
0.0
 10
150.1689561256522
 20
-177.9922362836269
 30
0.0
 10
150.1689561256522
 20
-177.2033094175047
 30
0.0
 10
149.945713938208
 20
-176.4364311624881
 30
0.0
 10
149.5943141987125
 20
-175.703314843227
 30
0.0
  0
SPLINE
  5
43C
330
1F
100
AcDbEntity
  8
Capa 1
 62
     7
420
 16777215
370
     9
100
AcDbSpline
210
0.0
220
0.0
230
1.0
 70
    24
 71
     3
 72
     8
 73
     4
 74
     0
 42
0.0000000001
 43
0.0000000001
 40
0.0
 40
0.0
 40
0.0
 40
0.0
 40
1.0
 40
1.0
 40
1.0
 40
1.0
 10
150.1689561256522
 20
-180.875092185684
 30
0.0
 10
150.1689561256522
 20
-180.875092185684
 30
0.0
 10
149.9364121803978
 20
-180.875092185684
 30
0.0
 10
149.5943141987125
 20
-180.875092185684
 30
0.0
  0
SPLINE
  5
43D
330
1F
100
AcDbEntity
  8
Capa 1
 62
     7
420
 16777215
370
     9
100
AcDbSpline
210
0.0
220
0.0
230
1.0
 70
    24
 71
     3
 72
     8
 73
     4
 74
     0
 42
0.0000000001
 43
0.0000000001
 40
0.0
 40
0.0
 40
0.0
 40
0.0
 40
1.0
 40
1.0
 40
1.0
 40
1.0
 10
146.712491825301
 20
-180.875092185684
 30
0.0
 10
146.3676377672275
 20
-180.875092185684
 30
0.0
 10
146.1350938219732
 20
-180.875092185684
 30
0.0
 10
146.1350938219732
 20
-180.875092185684
 30
0.0
  0
SPLINE
  5
43E
330
1F
100
AcDbEntity
  8
Capa 1
 62
     7
420
 16777215
370
     9
100
AcDbSpline
210
0.0
220
0.0
230
1.0
 70
     8
 71
     3
 72
    11
 73
     7
 74
     0
 42
0.0000000001
 43
0.0000000001
 40
0.0
 40
0.0
 40
0.0
 40
0.0
 40
1.0
 40
1.0
 40
1.0
 40
2.0
 40
2.0
 40
2.0
 40
2.0
 10
146.712491825301
 20
-175.703314843227
 30
0.0
 10
146.3593695380629
 20
-176.4364311624881
 30
0.0
 10
146.1350938219732
 20
-177.1991753029224
 30
0.0
 10
146.1350938219732
 20
-177.9922362836269
 30
0.0
 10
146.1350938219732
 20
-178.7804741306521
 30
0.0
 10
146.3593695380629
 20
-179.5480414047658
 30
0.0
 10
146.712491825301
 20
-180.2804687049299
 30
0.0
  0
SPLINE
  5
43F
330
1F
100
AcDbEntity
  8
Capa 1
 62
     7
420
 16777215
370
     9
100
AcDbSpline
210
0.0
220
0.0
230
1.0
 70
     8
 71
     3
 72
    17
 73
    13
 74
     0
 42
0.0000000001
 43
0.0000000001
 40
0.0
 40
0.0
 40
0.0
 40
0.0
 40
1.0
 40
1.0
 40
1.0
 40
2.0
 40
2.0
 40
2.0
 40
3.0
 40
3.0
 40
3.0
 40
4.0
 40
4.0
 40
4.0
 40
4.0
 10
184.3801323323772
 20
-168.9674641504665
 30
0.0
 10
184.3801323323772
 20
-168.9674641504665
 30
0.0
 10
184.1417317247979
 20
-168.9798664942134
 30
0.0
 10
183.7345214384414
 20
-168.988823742475
 30
0.0
 10
183.329378209376
 20
-169.0012260862219
 30
0.0
 10
182.7554253015334
 20
-169.0101833344836
 30
0.0
 10
182.1738931836232
 20
-169.0060492199013
 30
0.0
 10
181.591672046616
 20
-169.0012260862219
 30
0.0
 10
181.0190971769674
 20
-168.9936468761544
 30
0.0
 10
180.6091308142227
 20
-168.9846896278927
 30
0.0
 10
180.2019205278662
 20
-168.9757323796311
 30
0.0
 10
179.9628309011898
 20
-168.9674641504665
 30
0.0
 10
179.9628309011898
 20
-168.9674641504665
 30
0.0
  0
SPLINE
  5
440
330
1F
100
AcDbEntity
  8
Capa 1
 62
     7
420
 16777215
370
     9
100
AcDbSpline
210
0.0
220
0.0
230
1.0
 70
    24
 71
     3
 72
     8
 73
     4
 74
     0
 42
0.0000000001
 43
0.0000000001
 40
0.0
 40
0.0
 40
0.0
 40
0.0
 40
1.0
 40
1.0
 40
1.0
 40
1.0
 10
150.5530842722576
 20
-180.9012749113719
 30
0.0
 10
150.6175075578317
 20
-180.9012749113719
 30
0.0
 10
150.6822753529544
 20
-180.9012749113719
 30
0.0
 10
150.7463541289801
 20
-180.9012749113719
 30
0.0
  0
SPLINE
  5
441
330
1F
100
AcDbEntity
  8
Capa 1
 62
     7
420
 16777215
370
     9
100
AcDbSpline
210
0.0
220
0.0
230
1.0
 70
     8
 71
     3
 72
    14
 73
    10
 74
     0
 42
0.0000000001
 43
0.0000000001
 40
0.0
 40
0.0
 40
0.0
 40
0.0
 40
1.0
 40
1.0
 40
1.0
 40
2.0
 40
2.0
 40
2.0
 40
3.0
 40
3.0
 40
3.0
 40
3.0
 10
157.2934135891489
 20
-180.0351779063801
 30
0.0
 10
156.6664062108334
 20
-179.8277831581681
 30
0.0
 10
155.9119302995637
 20
-179.289659243372
 30
0.0
 10
155.198795534117
 20
-178.517268835579
 30
0.0
 10
154.8432616800392
 20
-178.1300401030369
 30
0.0
 10
154.4918619405437
 20
-177.6773545562751
 30
0.0
 10
154.2162543017237
 20
-177.1509439661289
 30
0.0
 10
153.9403021533552
 20
-176.6293565096621
 30
0.0
 10
153.7422091629533
 20
-176.0133734368994
 30
0.0
 10
153.7422091629533
 20
-175.3760307721282
 30
0.0
  0
SPLINE
  5
442
330
1F
100
AcDbEntity
  8
Capa 1
 62
     7
420
 16777215
370
     9
100
AcDbSpline
210
0.0
220
0.0
230
1.0
 70
    24
 71
     3
 72
    11
 73
     7
 74
     0
 42
0.0000000001
 43
0.0000000001
 40
0.0
 40
0.0
 40
0.0
 40
0.0
 40
1.0
 40
1.0
 40
1.0
 40
2.0
 40
2.0
 40
2.0
 40
2.0
 10
150.7463541289801
 20
-180.0351779063801
 30
0.0
 10
150.7463541289801
 20
-179.8277831581681
 30
0.0
 10
150.7463541289801
 20
-179.2462510402579
 30
0.0
 10
150.7463541289801
 20
-178.3973795126923
 30
0.0
 10
150.7463541289801
 20
-177.5485079851268
 30
0.0
 10
150.7463541289801
 20
-176.4791503465052
 30
0.0
 10
150.7463541289801
 20
-175.3760307721282
 30
0.0
  0
SPLINE
  5
443
330
1F
100
AcDbEntity
  8
Capa 1
 62
     7
420
 16777215
370
     9
100
AcDbSpline
210
0.0
220
0.0
230
1.0
 70
    24
 71
     3
 72
     8
 73
     4
 74
     0
 42
0.0000000001
 43
0.0000000001
 40
0.0
 40
0.0
 40
0.0
 40
0.0
 40
1.0
 40
1.0
 40
1.0
 40
1.0
 10
150.5530842722576
 20
-180.9012749113719
 30
0.0
 10
150.5530842722576
 20
-181.068706551955
 30
0.0
 10
150.5530842722576
 20
-181.2244248678884
 30
0.0
 10
150.5530842722576
 20
-181.37118593556
 30
0.0
  0
SPLINE
  5
444
330
1F
100
AcDbEntity
  8
Capa 1
 62
     7
420
 16777215
370
     9
100
AcDbSpline
210
0.0
220
0.0
230
1.0
 70
     8
 71
     3
 72
     8
 73
     4
 74
     0
 42
0.0000000001
 43
0.0000000001
 40
0.0
 40
0.0
 40
0.0
 40
0.0
 40
1.0
 40
1.0
 40
1.0
 40
1.0
 10
158.1767360715669
 20
-180.3886447031667
 30
0.0
 10
157.9355793875994
 20
-180.267377342086
 30
0.0
 10
157.6403347045135
 20
-180.1516221337816
 30
0.0
 10
157.2934135891489
 20
-180.0351779063801
 30
0.0
  0
SPLINE
  5
445
330
1F
100
AcDbEntity
  8
Capa 1
 62
     7
420
 16777215
370
     9
100
AcDbSpline
210
0.0
220
0.0
230
1.0
 70
    24
 71
     3
 72
     8
 73
     4
 74
     0
 42
0.0000000001
 43
0.0000000001
 40
0.0
 40
0.0
 40
0.0
 40
0.0
 40
1.0
 40
1.0
 40
1.0
 40
1.0
 10
150.7463541289801
 20
-180.9012749113719
 30
0.0
 10
150.7463541289801
 20
-180.7241970034301
 30
0.0
 10
150.7463541289801
 20
-180.5354057708384
 30
0.0
 10
150.7463541289801
 20
-180.3362792517909
 30
0.0
  0
SPLINE
  5
446
330
1F
100
AcDbEntity
  8
Capa 1
 62
     7
420
 16777215
370
     9
100
AcDbSpline
210
0.0
220
0.0
230
1.0
 70
     8
 71
     3
 72
     8
 73
     4
 74
     0
 42
0.0000000001
 43
0.0000000001
 40
0.0
 40
0.0
 40
0.0
 40
0.0
 40
1.0
 40
1.0
 40
1.0
 40
1.0
 10
161.8340494387081
 20
-181.8624565517566
 30
0.0
 10
160.6096625032504
 20
-181.4786729146998
 30
0.0
 10
159.3900987014719
 20
-180.9874022985032
 30
0.0
 10
158.1767360715669
 20
-180.3886447031667
 30
0.0
  0
SPLINE
  5
447
330
1F
100
AcDbEntity
  8
Capa 1
 62
     7
420
 16777215
370
     9
100
AcDbSpline
210
0.0
220
0.0
230
1.0
 70
     8
 71
     3
 72
    11
 73
     7
 74
     0
 42
0.0000000001
 43
0.0000000001
 40
0.0
 40
0.0
 40
0.0
 40
0.0
 40
1.0
 40
1.0
 40
1.0
 40
2.0
 40
2.0
 40
2.0
 40
2.0
 10
150.5530842722576
 20
-181.37118593556
 30
0.0
 10
151.7640353353229
 20
-181.8665906663389
 30
0.0
 10
152.6735405434289
 20
-182.2462401888135
 30
0.0
 10
153.2812553870269
 20
-182.5046223502072
 30
0.0
 10
153.8924153261102
 20
-182.7588703970186
 30
0.0
 10
154.2055745057195
 20
-182.8959851973316
 30
0.0
 10
154.2031629388798
 20
-182.8959851973316
 30
0.0
  0
SPLINE
  5
448
330
1F
100
AcDbEntity
  8
Capa 1
 62
     7
420
 16777215
370
     9
100
AcDbSpline
210
0.0
220
0.0
230
1.0
 70
     8
 71
     3
 72
     8
 73
     4
 74
     0
 42
0.0000000001
 43
0.0000000001
 40
0.0
 40
0.0
 40
0.0
 40
0.0
 40
1.0
 40
1.0
 40
1.0
 40
1.0
 10
164.141918904277
 20
-182.3068738693538
 30
0.0
 10
163.1828043211835
 20
-182.1904296419524
 30
0.0
 10
162.4045572510655
 20
-182.0436685742808
 30
0.0
 10
161.8340494387081
 20
-181.8624565517566
 30
0.0
  0
SPLINE
  5
449
330
1F
100
AcDbEntity
  8
Capa 1
 62
     7
420
 16777215
370
     9
100
AcDbSpline
210
0.0
220
0.0
230
1.0
 70
     8
 71
     3
 72
    11
 73
     7
 74
     0
 42
0.0000000001
 43
0.0000000001
 40
0.0
 40
0.0
 40
0.0
 40
0.0
 40
1.0
 40
1.0
 40
1.0
 40
2.0
 40
2.0
 40
2.0
 40
2.0
 10
172.1576225698078
 20
-181.6082085049452
 30
0.0
 10
170.5715006083988
 20
-181.991303122905
 30
0.0
 10
169.0721950532181
 20
-182.2324598068724
 30
0.0
 10
167.7079372410591
 20
-182.3406358051093
 30
0.0
 10
166.3440239384487
 20
-182.4522568988314
 30
0.0
 10
165.154432467392
 20
-182.4308973068228
 30
0.0
 10
164.141918904277
 20
-182.3068738693538
 30
0.0
  0
SPLINE
  5
44A
330
1F
100
AcDbEntity
  8
Capa 1
 62
     7
420
 16777215
370
     9
100
AcDbSpline
210
0.0
220
0.0
230
1.0
 70
     8
 71
     3
 72
     8
 73
     4
 74
     0
 42
0.0000000001
 43
0.0000000001
 40
0.0
 40
0.0
 40
0.0
 40
0.0
 40
1.0
 40
1.0
 40
1.0
 40
1.0
 10
171.8737467018233
 20
-181.6764213955531
 30
0.0
 10
171.8868380646672
 20
-181.6722872809708
 30
0.0
 10
171.9488497834017
 20
-181.6598849372239
 30
0.0
 10
172.0611598962208
 20
-181.6343912306331
 30
0.0
  0
SPLINE
  5
44B
330
1F
100
AcDbEntity
  8
Capa 1
 62
     7
420
 16777215
370
     9
100
AcDbSpline
210
0.0
220
0.0
230
1.0
 70
     8
 71
     3
 72
     8
 73
     4
 74
     0
 42
0.0000000001
 43
0.0000000001
 40
0.0
 40
0.0
 40
0.0
 40
0.0
 40
1.0
 40
1.0
 40
1.0
 40
1.0
 10
176.6748317700674
 20
-181.068706551955
 30
0.0
 10
175.0887098086584
 20
-181.068706551955
 30
0.0
 10
173.5859591579924
 20
-181.2630099373231
 30
0.0
 10
172.1576225698078
 20
-181.6082085049452
 30
0.0
  0
SPLINE
  5
44C
330
1F
100
AcDbEntity
  8
Capa 1
 62
     7
420
 16777215
370
     9
100
AcDbSpline
210
0.0
220
0.0
230
1.0
 70
     8
 71
     3
 72
    11
 73
     7
 74
     0
 42
0.0000000001
 43
0.0000000001
 40
0.0
 40
0.0
 40
0.0
 40
0.0
 40
1.0
 40
1.0
 40
1.0
 40
2.0
 40
2.0
 40
2.0
 40
2.0
 10
149.5943141987125
 20
-180.2804687049299
 30
0.0
 10
149.945713938208
 20
-179.5480414047658
 30
0.0
 10
150.1689561256522
 20
-178.7846082452344
 30
0.0
 10
150.1689561256522
 20
-177.9922362836269
 30
0.0
 10
150.1689561256522
 20
-177.2033094175047
 30
0.0
 10
149.945713938208
 20
-176.4364311624881
 30
0.0
 10
149.5943141987125
 20
-175.703314843227
 30
0.0
  0
SPLINE
  5
44D
330
1F
100
AcDbEntity
  8
Capa 1
 62
     7
420
 16777215
370
     9
100
AcDbSpline
210
0.0
220
0.0
230
1.0
 70
    24
 71
     3
 72
     8
 73
     4
 74
     0
 42
0.0000000001
 43
0.0000000001
 40
0.0
 40
0.0
 40
0.0
 40
0.0
 40
1.0
 40
1.0
 40
1.0
 40
1.0
 10
150.1689561256522
 20
-180.875092185684
 30
0.0
 10
150.1689561256522
 20
-180.875092185684
 30
0.0
 10
149.9364121803978
 20
-180.875092185684
 30
0.0
 10
149.5943141987125
 20
-180.875092185684
 30
0.0
  0
SPLINE
  5
44E
330
1F
100
AcDbEntity
  8
Capa 1
 62
     7
420
 16777215
370
     9
100
AcDbSpline
210
0.0
220
0.0
230
1.0
 70
    24
 71
     3
 72
     8
 73
     4
 74
     0
 42
0.0000000001
 43
0.0000000001
 40
0.0
 40
0.0
 40
0.0
 40
0.0
 40
1.0
 40
1.0
 40
1.0
 40
1.0
 10
146.712491825301
 20
-180.875092185684
 30
0.0
 10
146.3676377672275
 20
-180.875092185684
 30
0.0
 10
146.1350938219732
 20
-180.875092185684
 30
0.0
 10
146.1350938219732
 20
-180.875092185684
 30
0.0
  0
SPLINE
  5
44F
330
1F
100
AcDbEntity
  8
Capa 1
 62
     7
420
 16777215
370
     9
100
AcDbSpline
210
0.0
220
0.0
230
1.0
 70
     8
 71
     3
 72
    11
 73
     7
 74
     0
 42
0.0000000001
 43
0.0000000001
 40
0.0
 40
0.0
 40
0.0
 40
0.0
 40
1.0
 40
1.0
 40
1.0
 40
2.0
 40
2.0
 40
2.0
 40
2.0
 10
146.712491825301
 20
-175.703314843227
 30
0.0
 10
146.3593695380629
 20
-176.4364311624881
 30
0.0
 10
146.1350938219732
 20
-177.1991753029224
 30
0.0
 10
146.1350938219732
 20
-177.9922362836269
 30
0.0
 10
146.1350938219732
 20
-178.7804741306521
 30
0.0
 10
146.3593695380629
 20
-179.5480414047658
 30
0.0
 10
146.712491825301
 20
-180.2804687049299
 30
0.0
  0
POLYLINE
  5
450
330
1F
100
AcDbEntity
  8
Capa 1
 62
     7
420
 16777215
370
     9
100
AcDb2dPolyline
 66
     1
 10
0.0
 20
0.0
 30
0.0
  0
VERTEX
  5
451
330
450
100
AcDbEntity
  8
Capa 1
 62
     7
420
 16777215
370
     9
100
AcDbVertex
100
AcDb2dVertex
 10
68.2904052563649
 20
-174.931613454531
 30
0.0
  0
VERTEX
  5
452
330
450
100
AcDbEntity
  8
Capa 1
 62
     7
420
 16777215
370
     9
100
AcDbVertex
100
AcDb2dVertex
 10
60.22681476358913
 20
-174.931613454531
 30
0.0
  0
SEQEND
  5
453
330
450
100
AcDbEntity
  8
Capa 1
370
     9
  0
POLYLINE
  5
454
330
1F
100
AcDbEntity
  8
Capa 1
 62
     7
420
 16777215
370
     9
100
AcDb2dPolyline
 66
     1
 10
0.0
 20
0.0
 30
0.0
  0
VERTEX
  5
455
330
454
100
AcDbEntity
  8
Capa 1
 62
     7
420
 16777215
370
     9
100
AcDbVertex
100
AcDb2dVertex
 10
10.47446831335361
 20
-174.931613454531
 30
0.0
  0
VERTEX
  5
456
330
454
100
AcDbEntity
  8
Capa 1
 62
     7
420
 16777215
370
     9
100
AcDbVertex
100
AcDb2dVertex
 10
2.406226941672749
 20
-174.931613454531
 30
0.0
  0
SEQEND
  5
457
330
454
100
AcDbEntity
  8
Capa 1
370
     9
  0
POLYLINE
  5
458
330
1F
100
AcDbEntity
  8
Capa 1
  6
AI-Linetype-1
 62
     7
420
 16777215
370
     9
100
AcDb2dPolyline
 66
     1
 10
0.0
 20
0.0
 30
0.0
  0
VERTEX
  5
459
330
458
100
AcDbEntity
  8
Capa 1
  6
AI-Linetype-1
 62
     7
420
 16777215
370
     9
100
AcDbVertex
100
AcDb2dVertex
 10
177.4913194000716
 20
-181.068706551955
 30
0.0
  0
VERTEX
  5
45A
330
458
100
AcDbEntity
  8
Capa 1
  6
AI-Linetype-1
 62
     7
420
 16777215
370
     9
100
AcDbVertex
100
AcDb2dVertex
 10
177.4913194000716
 20
-181.2630099373231
 30
0.0
  0
SEQEND
  5
45B
330
458
100
AcDbEntity
  8
Capa 1
  6
AI-Linetype-1
370
     9
  0
POLYLINE
  5
45D
330
1F
100
AcDbEntity
  8
Capa 1
  6
AI-Linetype-2
 62
     7
420
 16777215
370
     9
100
AcDb2dPolyline
 66
     1
 10
0.0
 20
0.0
 30
0.0
  0
VERTEX
  5
45E
330
45D
100
AcDbEntity
  8
Capa 1
  6
AI-Linetype-2
 62
     7
420
 16777215
370
     9
100
AcDbVertex
100
AcDb2dVertex
 10
186.8502657953013
 20
-181.068706551955
 30
0.0
  0
VERTEX
  5
45F
330
45D
100
AcDbEntity
  8
Capa 1
  6
AI-Linetype-2
 62
     7
420
 16777215
370
     9
100
AcDbVertex
100
AcDb2dVertex
 10
186.8502657953013
 20
-181.2630099373231
 30
0.0
  0
SEQEND
  5
460
330
45D
100
AcDbEntity
  8
Capa 1
  6
AI-Linetype-2
370
     9
  0
POLYLINE
  5
462
330
1F
100
AcDbEntity
  8
Capa 1
  6
AI-Linetype-3
 62
     7
420
 16777215
370
     9
100
AcDb2dPolyline
 66
     1
 10
0.0
 20
0.0
 30
0.0
  0
VERTEX
  5
463
330
462
100
AcDbEntity
  8
Capa 1
  6
AI-Linetype-3
 62
     7
420
 16777215
370
     9
100
AcDbVertex
100
AcDb2dVertex
 10
177.4913194000716
 20
-181.068706551955
 30
0.0
  0
VERTEX
  5
464
330
462
100
AcDbEntity
  8
Capa 1
  6
AI-Linetype-3
 62
     7
420
 16777215
370
     9
100
AcDbVertex
100
AcDb2dVertex
 10
177.4913194000716
 20
-181.2630099373231
 30
0.0
  0
SEQEND
  5
465
330
462
100
AcDbEntity
  8
Capa 1
  6
AI-Linetype-3
370
     9
  0
POLYLINE
  5
467
330
1F
100
AcDbEntity
  8
Capa 1
  6
AI-Linetype-4
 62
     7
420
 16777215
370
     9
100
AcDb2dPolyline
 66
     1
 10
0.0
 20
0.0
 30
0.0
  0
VERTEX
  5
468
330
467
100
AcDbEntity
  8
Capa 1
  6
AI-Linetype-4
 62
     7
420
 16777215
370
     9
100
AcDbVertex
100
AcDb2dVertex
 10
186.8502657953013
 20
-181.068706551955
 30
0.0
  0
VERTEX
  5
469
330
467
100
AcDbEntity
  8
Capa 1
  6
AI-Linetype-4
 62
     7
420
 16777215
370
     9
100
AcDbVertex
100
AcDb2dVertex
 10
186.8502657953013
 20
-181.2630099373231
 30
0.0
  0
SEQEND
  5
46A
330
467
100
AcDbEntity
  8
Capa 1
  6
AI-Linetype-4
370
     9
  0
POLYLINE
  5
46C
330
1F
100
AcDbEntity
  8
Capa 1
 62
     7
420
 16777215
370
     9
100
AcDb2dPolyline
 66
     1
 10
0.0
 20
0.0
 30
0.0
  0
VERTEX
  5
46D
330
46C
100
AcDbEntity
  8
Capa 1
 62
     7
420
 16777215
370
     9
100
AcDbVertex
100
AcDb2dVertex
 10
186.3996473058307
 20
-181.9051757357737
 30
0.0
  0
VERTEX
  5
46E
330
46C
100
AcDbEntity
  8
Capa 1
 62
     7
420
 16777215
370
     9
100
AcDbVertex
100
AcDb2dVertex
 10
186.7207302050559
 20
-181.7205186177643
 30
0.0
  0
SEQEND
  5
46F
330
46C
100
AcDbEntity
  8
Capa 1
370
     9
  0
POLYLINE
  5
470
330
1F
100
AcDbEntity
  8
Capa 1
 62
     7
420
 16777215
370
     9
100
AcDb2dPolyline
 66
     1
 10
0.0
 20
0.0
 30
0.0
  0
VERTEX
  5
471
330
470
100
AcDbEntity
  8
Capa 1
 62
     7
420
 16777215
370
     9
100
AcDbVertex
100
AcDb2dVertex
 10
186.2039658822684
 20
-182.1904296419524
 30
0.0
  0
VERTEX
  5
472
330
470
100
AcDbEntity
  8
Capa 1
 62
     7
420
 16777215
370
     9
100
AcDbVertex
100
AcDb2dVertex
 10
186.2039658822684
 20
-182.3185871940037
 30
0.0
  0
SEQEND
  5
473
330
470
100
AcDbEntity
  8
Capa 1
370
     9
  0
POLYLINE
  5
474
330
1F
100
AcDbEntity
  8
Capa 1
 62
     7
420
 16777215
370
     9
100
AcDb2dPolyline
 66
     1
 10
0.0
 20
0.0
 30
0.0
  0
VERTEX
  5
475
330
474
100
AcDbEntity
  8
Capa 1
 62
     7
420
 16777215
370
     9
100
AcDbVertex
100
AcDb2dVertex
 10
186.4961099794176
 20
-182.612109329347
 30
0.0
  0
VERTEX
  5
476
330
474
100
AcDbEntity
  8
Capa 1
 62
     7
420
 16777215
370
     9
100
AcDbVertex
100
AcDb2dVertex
 10
186.8909179220273
 20
-182.612109329347
 30
0.0
  0
SEQEND
  5
477
330
474
100
AcDbEntity
  8
Capa 1
370
     9
  0
POLYLINE
  5
478
330
1F
100
AcDbEntity
  8
Capa 1
 62
     7
420
 16777215
370
     9
100
AcDb2dPolyline
 66
     1
 10
0.0
 20
0.0
 30
0.0
  0
VERTEX
  5
479
330
478
100
AcDbEntity
  8
Capa 1
 62
     7
420
 16777215
370
     9
100
AcDbVertex
100
AcDb2dVertex
 10
186.8909179220273
 20
-186.073052253829
 30
0.0
  0
VERTEX
  5
47A
330
478
100
AcDbEntity
  8
Capa 1
 62
     7
420
 16777215
370
     9
100
AcDbVertex
100
AcDb2dVertex
 10
186.8909179220273
 20
-182.612109329347
 30
0.0
  0
SEQEND
  5
47B
330
478
100
AcDbEntity
  8
Capa 1
370
     9
  0
POLYLINE
  5
47C
330
1F
100
AcDbEntity
  8
Capa 1
 62
     7
420
 16777215
370
     9
100
AcDb2dPolyline
 66
     1
 10
0.0
 20
0.0
 30
0.0
  0
VERTEX
  5
47D
330
47C
100
AcDbEntity
  8
Capa 1
 62
     7
420
 16777215
370
     9
100
AcDbVertex
100
AcDb2dVertex
 10
186.0654730437614
 20
-186.073052253829
 30
0.0
  0
VERTEX
  5
47E
330
47C
100
AcDbEntity
  8
Capa 1
 62
     7
420
 16777215
370
     9
100
AcDbVertex
100
AcDb2dVertex
 10
186.8909179220273
 20
-186.073052253829
 30
0.0
  0
SEQEND
  5
47F
330
47C
100
AcDbEntity
  8
Capa 1
370
     9
  0
POLYLINE
  5
480
330
1F
100
AcDbEntity
  8
Capa 1
 62
     7
420
 16777215
370
     9
100
AcDb2dPolyline
 66
     1
 10
0.0
 20
0.0
 30
0.0
  0
VERTEX
  5
481
330
480
100
AcDbEntity
  8
Capa 1
 62
     7
420
 16777215
370
     9
100
AcDbVertex
100
AcDb2dVertex
 10
185.769883851127
 20
-186.3700194846575
 30
0.0
  0
VERTEX
  5
482
330
480
100
AcDbEntity
  8
Capa 1
 62
     7
420
 16777215
370
     9
100
AcDbVertex
100
AcDb2dVertex
 10
185.769883851127
 20
-186.611176168625
 30
0.0
  0
SEQEND
  5
483
330
480
100
AcDbEntity
  8
Capa 1
370
     9
  0
POLYLINE
  5
484
330
1F
100
AcDbEntity
  8
Capa 1
 62
     7
420
 16777215
370
     9
100
AcDb2dPolyline
 66
     1
 10
0.0
 20
0.0
 30
0.0
  0
VERTEX
  5
485
330
484
100
AcDbEntity
  8
Capa 1
 62
     7
420
 16777215
370
     9
100
AcDbVertex
100
AcDb2dVertex
 10
185.9166449187986
 20
-186.8661132345335
 30
0.0
  0
VERTEX
  5
486
330
484
100
AcDbEntity
  8
Capa 1
 62
     7
420
 16777215
370
     9
100
AcDbVertex
100
AcDb2dVertex
 10
186.0434244326558
 20
-186.9391492588208
 30
0.0
  0
SEQEND
  5
487
330
484
100
AcDbEntity
  8
Capa 1
370
     9
  0
POLYLINE
  5
488
330
1F
100
AcDbEntity
  8
Capa 1
 62
     7
420
 16777215
370
     9
100
AcDb2dPolyline
 66
     1
 10
0.0
 20
0.0
 30
0.0
  0
VERTEX
  5
489
330
488
100
AcDbEntity
  8
Capa 1
 62
     7
420
 16777215
370
     9
100
AcDbVertex
100
AcDb2dVertex
 10
186.2611544673236
 20
-187.3794324618357
 30
0.0
  0
VERTEX
  5
48A
330
488
100
AcDbEntity
  8
Capa 1
 62
     7
420
 16777215
370
     9
100
AcDbVertex
100
AcDb2dVertex
 10
186.2611544673236
 20
-187.521370395828
 30
0.0
  0
SEQEND
  5
48B
330
488
100
AcDbEntity
  8
Capa 1
370
     9
  0
POLYLINE
  5
48C
330
1F
100
AcDbEntity
  8
Capa 1
 62
     7
420
 16777215
370
     9
100
AcDb2dPolyline
 66
     1
 10
0.0
 20
0.0
 30
0.0
  0
VERTEX
  5
48D
330
48C
100
AcDbEntity
  8
Capa 1
 62
     7
420
 16777215
370
     9
100
AcDbVertex
100
AcDb2dVertex
 10
178.0797417089523
 20
-187.0638617153868
 30
0.0
  0
VERTEX
  5
48E
330
48C
100
AcDbEntity
  8
Capa 1
 62
     7
420
 16777215
370
     9
100
AcDbVertex
100
AcDb2dVertex
 10
178.0797417089523
 20
-187.1672145799443
 30
0.0
  0
SEQEND
  5
48F
330
48C
100
AcDbEntity
  8
Capa 1
370
     9
  0
POLYLINE
  5
490
330
1F
100
AcDbEntity
  8
Capa 1
 62
     7
420
 16777215
370
     9
100
AcDb2dPolyline
 66
     1
 10
0.0
 20
0.0
 30
0.0
  0
VERTEX
  5
491
330
490
100
AcDbEntity
  8
Capa 1
 62
     7
420
 16777215
370
     9
100
AcDbVertex
100
AcDb2dVertex
 10
178.4242512574773
 20
-186.8661132345335
 30
0.0
  0
VERTEX
  5
492
330
490
100
AcDbEntity
  8
Capa 1
 62
     7
420
 16777215
370
     9
100
AcDbVertex
100
AcDb2dVertex
 10
178.0797417089523
 20
-187.0638617153868
 30
0.0
  0
SEQEND
  5
493
330
490
100
AcDbEntity
  8
Capa 1
370
     9
  0
POLYLINE
  5
494
330
1F
100
AcDbEntity
  8
Capa 1
 62
     7
420
 16777215
370
     9
100
AcDb2dPolyline
 66
     1
 10
0.0
 20
0.0
 30
0.0
  0
VERTEX
  5
495
330
494
100
AcDbEntity
  8
Capa 1
 62
     7
420
 16777215
370
     9
100
AcDbVertex
100
AcDb2dVertex
 10
178.5730793824401
 20
-186.3700194846575
 30
0.0
  0
VERTEX
  5
496
330
494
100
AcDbEntity
  8
Capa 1
 62
     7
420
 16777215
370
     9
100
AcDbVertex
100
AcDb2dVertex
 10
178.5730793824401
 20
-186.611176168625
 30
0.0
  0
SEQEND
  5
497
330
494
100
AcDbEntity
  8
Capa 1
370
     9
  0
POLYLINE
  5
498
330
1F
100
AcDbEntity
  8
Capa 1
 62
     7
420
 16777215
370
     9
100
AcDb2dPolyline
 66
     1
 10
0.0
 20
0.0
 30
0.0
  0
VERTEX
  5
499
330
498
100
AcDbEntity
  8
Capa 1
 62
     7
420
 16777215
370
     9
100
AcDbVertex
100
AcDb2dVertex
 10
177.4499782542486
 20
-186.073052253829
 30
0.0
  0
VERTEX
  5
49A
330
498
100
AcDbEntity
  8
Capa 1
 62
     7
420
 16777215
370
     9
100
AcDbVertex
100
AcDb2dVertex
 10
178.2781792089027
 20
-186.073052253829
 30
0.0
  0
SEQEND
  5
49B
330
498
100
AcDbEntity
  8
Capa 1
370
     9
  0
POLYLINE
  5
49C
330
1F
100
AcDbEntity
  8
Capa 1
 62
     7
420
 16777215
370
     9
100
AcDb2dPolyline
 66
     1
 10
0.0
 20
0.0
 30
0.0
  0
VERTEX
  5
49D
330
49C
100
AcDbEntity
  8
Capa 1
 62
     7
420
 16777215
370
     9
100
AcDbVertex
100
AcDb2dVertex
 10
177.4499782542486
 20
-186.073052253829
 30
0.0
  0
VERTEX
  5
49E
330
49C
100
AcDbEntity
  8
Capa 1
 62
     7
420
 16777215
370
     9
100
AcDbVertex
100
AcDb2dVertex
 10
177.4499782542486
 20
-182.612109329347
 30
0.0
  0
SEQEND
  5
49F
330
49C
100
AcDbEntity
  8
Capa 1
370
     9
  0
POLYLINE
  5
4A0
330
1F
100
AcDbEntity
  8
Capa 1
 62
     7
420
 16777215
370
     9
100
AcDb2dPolyline
 66
     1
 10
0.0
 20
0.0
 30
0.0
  0
VERTEX
  5
4A1
330
4A0
100
AcDbEntity
  8
Capa 1
 62
     7
420
 16777215
370
     9
100
AcDbVertex
100
AcDb2dVertex
 10
177.4499782542486
 20
-182.612109329347
 30
0.0
  0
VERTEX
  5
4A2
330
4A0
100
AcDbEntity
  8
Capa 1
 62
     7
420
 16777215
370
     9
100
AcDbVertex
100
AcDb2dVertex
 10
177.8447861968583
 20
-182.612109329347
 30
0.0
  0
SEQEND
  5
4A3
330
4A0
100
AcDbEntity
  8
Capa 1
370
     9
  0
POLYLINE
  5
4A4
330
1F
100
AcDbEntity
  8
Capa 1
 62
     7
420
 16777215
370
     9
100
AcDb2dPolyline
 66
     1
 10
0.0
 20
0.0
 30
0.0
  0
VERTEX
  5
4A5
330
4A4
100
AcDbEntity
  8
Capa 1
 62
     7
420
 16777215
370
     9
100
AcDbVertex
100
AcDb2dVertex
 10
178.1403753894927
 20
-182.1904296419524
 30
0.0
  0
VERTEX
  5
4A6
330
4A4
100
AcDbEntity
  8
Capa 1
 62
     7
420
 16777215
370
     9
100
AcDbVertex
100
AcDb2dVertex
 10
178.1403753894927
 20
-182.3185871940037
 30
0.0
  0
SEQEND
  5
4A7
330
4A4
100
AcDbEntity
  8
Capa 1
370
     9
  0
POLYLINE
  5
4A8
330
1F
100
AcDbEntity
  8
Capa 1
 62
     7
420
 16777215
370
     9
100
AcDb2dPolyline
 66
     1
 10
0.0
 20
0.0
 30
0.0
  0
VERTEX
  5
4A9
330
4A8
100
AcDbEntity
  8
Capa 1
 62
     7
420
 16777215
370
     9
100
AcDbVertex
100
AcDb2dVertex
 10
177.9440049468334
 20
-181.9051757357737
 30
0.0
  0
VERTEX
  5
4AA
330
4A8
100
AcDbEntity
  8
Capa 1
 62
     7
420
 16777215
370
     9
100
AcDbVertex
100
AcDb2dVertex
 10
177.4913194000716
 20
-181.6426594597977
 30
0.0
  0
SEQEND
  5
4AB
330
4A8
100
AcDbEntity
  8
Capa 1
370
     9
  0
POLYLINE
  5
4AC
330
1F
100
AcDbEntity
  8
Capa 1
 62
     7
420
 16777215
370
     9
100
AcDb2dPolyline
 66
     1
 10
0.0
 20
0.0
 30
0.0
  0
VERTEX
  5
4AD
330
4AC
100
AcDbEntity
  8
Capa 1
 62
     7
420
 16777215
370
     9
100
AcDbVertex
100
AcDb2dVertex
 10
178.0797417089523
 20
-187.7322102395253
 30
0.0
  0
VERTEX
  5
4AE
330
4AC
100
AcDbEntity
  8
Capa 1
 62
     7
420
 16777215
370
     9
100
AcDbVertex
100
AcDb2dVertex
 10
178.0797417089523
 20
-187.8748371926146
 30
0.0
  0
SEQEND
  5
4AF
330
4AC
100
AcDbEntity
  8
Capa 1
370
     9
  0
POLYLINE
  5
4B0
330
1F
100
AcDbEntity
  8
Capa 1
 62
     7
420
 16777215
370
     9
100
AcDb2dPolyline
 66
     1
 10
0.0
 20
0.0
 30
0.0
  0
VERTEX
  5
4B1
330
4B0
100
AcDbEntity
  8
Capa 1
 62
     7
420
 16777215
370
     9
100
AcDbVertex
100
AcDb2dVertex
 10
178.0797417089523
 20
-188.4384548140015
 30
0.0
  0
VERTEX
  5
4B2
330
4B0
100
AcDbEntity
  8
Capa 1
 62
     7
420
 16777215
370
     9
100
AcDbVertex
100
AcDb2dVertex
 10
178.0797417089523
 20
-188.5803927479938
 30
0.0
  0
SEQEND
  5
4B3
330
4B0
100
AcDbEntity
  8
Capa 1
370
     9
  0
POLYLINE
  5
4B4
330
1F
100
AcDbEntity
  8
Capa 1
 62
     7
420
 16777215
370
     9
100
AcDb2dPolyline
 66
     1
 10
0.0
 20
0.0
 30
0.0
  0
VERTEX
  5
4B5
330
4B4
100
AcDbEntity
  8
Capa 1
 62
     7
420
 16777215
370
     9
100
AcDbVertex
100
AcDb2dVertex
 10
178.0797417089523
 20
-189.1502115412541
 30
0.0
  0
VERTEX
  5
4B6
330
4B4
100
AcDbEntity
  8
Capa 1
 62
     7
420
 16777215
370
     9
100
AcDbVertex
100
AcDb2dVertex
 10
178.0797417089523
 20
-189.2928384943435
 30
0.0
  0
SEQEND
  5
4B7
330
4B4
100
AcDbEntity
  8
Capa 1
370
     9
  0
POLYLINE
  5
4B8
330
1F
100
AcDbEntity
  8
Capa 1
 62
     7
420
 16777215
370
     9
100
AcDb2dPolyline
 66
     1
 10
0.0
 20
0.0
 30
0.0
  0
VERTEX
  5
4B9
330
4B8
100
AcDbEntity
  8
Capa 1
 62
     7
420
 16777215
370
     9
100
AcDbVertex
100
AcDb2dVertex
 10
177.4913194000716
 20
-181.5000325067083
 30
0.0
  0
VERTEX
  5
4BA
330
4B8
100
AcDbEntity
  8
Capa 1
 62
     7
420
 16777215
370
     9
100
AcDbVertex
100
AcDb2dVertex
 10
177.4913194000716
 20
-181.6426594597977
 30
0.0
  0
SEQEND
  5
4BB
330
4B8
100
AcDbEntity
  8
Capa 1
370
     9
  0
POLYLINE
  5
4BC
330
1F
100
AcDbEntity
  8
Capa 1
 62
     7
420
 16777215
370
     9
100
AcDb2dPolyline
 66
     1
 10
0.0
 20
0.0
 30
0.0
  0
VERTEX
  5
4BD
330
4BC
100
AcDbEntity
  8
Capa 1
 62
     7
420
 16777215
370
     9
100
AcDbVertex
100
AcDb2dVertex
 10
177.9440049468334
 20
-181.9051757357737
 30
0.0
  0
VERTEX
  5
4BE
330
4BC
100
AcDbEntity
  8
Capa 1
 62
     7
420
 16777215
370
     9
100
AcDbVertex
100
AcDb2dVertex
 10
177.4913194000716
 20
-181.6426594597977
 30
0.0
  0
SEQEND
  5
4BF
330
4BC
100
AcDbEntity
  8
Capa 1
370
     9
  0
POLYLINE
  5
4C0
330
1F
100
AcDbEntity
  8
Capa 1
 62
     7
420
 16777215
370
     9
100
AcDb2dPolyline
 66
     1
 10
0.0
 20
0.0
 30
0.0
  0
VERTEX
  5
4C1
330
4C0
100
AcDbEntity
  8
Capa 1
 62
     7
420
 16777215
370
     9
100
AcDbVertex
100
AcDb2dVertex
 10
177.9440049468334
 20
-181.9051757357737
 30
0.0
  0
VERTEX
  5
4C2
330
4C0
100
AcDbEntity
  8
Capa 1
 62
     7
420
 16777215
370
     9
100
AcDbVertex
100
AcDb2dVertex
 10
178.1403753894927
 20
-181.9051757357737
 30
0.0
  0
SEQEND
  5
4C3
330
4C0
100
AcDbEntity
  8
Capa 1
370
     9
  0
POLYLINE
  5
4C4
330
1F
100
AcDbEntity
  8
Capa 1
 62
     7
420
 16777215
370
     9
100
AcDb2dPolyline
 66
     1
 10
0.0
 20
0.0
 30
0.0
  0
VERTEX
  5
4C5
330
4C4
100
AcDbEntity
  8
Capa 1
 62
     7
420
 16777215
370
     9
100
AcDbVertex
100
AcDb2dVertex
 10
178.1403753894927
 20
-181.9051757357737
 30
0.0
  0
VERTEX
  5
4C6
330
4C4
100
AcDbEntity
  8
Capa 1
 62
     7
420
 16777215
370
     9
100
AcDbVertex
100
AcDb2dVertex
 10
178.1403753894927
 20
-182.3185871940037
 30
0.0
  0
SEQEND
  5
4C7
330
4C4
100
AcDbEntity
  8
Capa 1
370
     9
  0
POLYLINE
  5
4C8
330
1F
100
AcDbEntity
  8
Capa 1
 62
     7
420
 16777215
370
     9
100
AcDb2dPolyline
 66
     1
 10
0.0
 20
0.0
 30
0.0
  0
VERTEX
  5
4C9
330
4C8
100
AcDbEntity
  8
Capa 1
 62
     7
420
 16777215
370
     9
100
AcDbVertex
100
AcDb2dVertex
 10
177.4499782542486
 20
-182.612109329347
 30
0.0
  0
VERTEX
  5
4CA
330
4C8
100
AcDbEntity
  8
Capa 1
 62
     7
420
 16777215
370
     9
100
AcDbVertex
100
AcDb2dVertex
 10
177.8447861968583
 20
-182.612109329347
 30
0.0
  0
SEQEND
  5
4CB
330
4C8
100
AcDbEntity
  8
Capa 1
370
     9
  0
POLYLINE
  5
4CC
330
1F
100
AcDbEntity
  8
Capa 1
 62
     7
420
 16777215
370
     9
100
AcDb2dPolyline
 66
     1
 10
0.0
 20
0.0
 30
0.0
  0
VERTEX
  5
4CD
330
4CC
100
AcDbEntity
  8
Capa 1
 62
     7
420
 16777215
370
     9
100
AcDbVertex
100
AcDb2dVertex
 10
177.4499782542486
 20
-186.073052253829
 30
0.0
  0
VERTEX
  5
4CE
330
4CC
100
AcDbEntity
  8
Capa 1
 62
     7
420
 16777215
370
     9
100
AcDbVertex
100
AcDb2dVertex
 10
178.2781792089027
 20
-186.073052253829
 30
0.0
  0
SEQEND
  5
4CF
330
4CC
100
AcDbEntity
  8
Capa 1
370
     9
  0
POLYLINE
  5
4D0
330
1F
100
AcDbEntity
  8
Capa 1
 62
     7
420
 16777215
370
     9
100
AcDb2dPolyline
 66
     1
 10
0.0
 20
0.0
 30
0.0
  0
VERTEX
  5
4D1
330
4D0
100
AcDbEntity
  8
Capa 1
 62
     7
420
 16777215
370
     9
100
AcDbVertex
100
AcDb2dVertex
 10
178.5730793824401
 20
-186.3700194846575
 30
0.0
  0
VERTEX
  5
4D2
330
4D0
100
AcDbEntity
  8
Capa 1
 62
     7
420
 16777215
370
     9
100
AcDbVertex
100
AcDb2dVertex
 10
178.5730793824401
 20
-186.7834309428875
 30
0.0
  0
SEQEND
  5
4D3
330
4D0
100
AcDbEntity
  8
Capa 1
370
     9
  0
POLYLINE
  5
4D4
330
1F
100
AcDbEntity
  8
Capa 1
 62
     7
420
 16777215
370
     9
100
AcDb2dPolyline
 66
     1
 10
0.0
 20
0.0
 30
0.0
  0
VERTEX
  5
4D5
330
4D4
100
AcDbEntity
  8
Capa 1
 62
     7
420
 16777215
370
     9
100
AcDbVertex
100
AcDb2dVertex
 10
178.5730793824401
 20
-186.7834309428875
 30
0.0
  0
VERTEX
  5
4D6
330
4D4
100
AcDbEntity
  8
Capa 1
 62
     7
420
 16777215
370
     9
100
AcDbVertex
100
AcDb2dVertex
 10
178.0797417089523
 20
-187.0638617153868
 30
0.0
  0
SEQEND
  5
4D7
330
4D4
100
AcDbEntity
  8
Capa 1
370
     9
  0
POLYLINE
  5
4D8
330
1F
100
AcDbEntity
  8
Capa 1
 62
     7
420
 16777215
370
     9
100
AcDb2dPolyline
 66
     1
 10
0.0
 20
0.0
 30
0.0
  0
VERTEX
  5
4D9
330
4D8
100
AcDbEntity
  8
Capa 1
 62
     7
420
 16777215
370
     9
100
AcDbVertex
100
AcDb2dVertex
 10
178.0797417089523
 20
-187.0638617153868
 30
0.0
  0
VERTEX
  5
4DA
330
4D8
100
AcDbEntity
  8
Capa 1
 62
     7
420
 16777215
370
     9
100
AcDbVertex
100
AcDb2dVertex
 10
178.0797417089523
 20
-187.1672145799443
 30
0.0
  0
SEQEND
  5
4DB
330
4D8
100
AcDbEntity
  8
Capa 1
370
     9
  0
POLYLINE
  5
4DC
330
1F
100
AcDbEntity
  8
Capa 1
 62
     7
420
 16777215
370
     9
100
AcDb2dPolyline
 66
     1
 10
0.0
 20
0.0
 30
0.0
  0
VERTEX
  5
4DD
330
4DC
100
AcDbEntity
  8
Capa 1
 62
     7
420
 16777215
370
     9
100
AcDbVertex
100
AcDb2dVertex
 10
186.2611544673236
 20
-189.5036783380407
 30
0.0
  0
VERTEX
  5
4DE
330
4DC
100
AcDbEntity
  8
Capa 1
 62
     7
420
 16777215
370
     9
100
AcDbVertex
100
AcDb2dVertex
 10
186.2611544673236
 20
-189.645616272033
 30
0.0
  0
SEQEND
  5
4DF
330
4DC
100
AcDbEntity
  8
Capa 1
370
     9
  0
POLYLINE
  5
4E0
330
1F
100
AcDbEntity
  8
Capa 1
 62
     7
420
 16777215
370
     9
100
AcDb2dPolyline
 66
     1
 10
0.0
 20
0.0
 30
0.0
  0
VERTEX
  5
4E1
330
4E0
100
AcDbEntity
  8
Capa 1
 62
     7
420
 16777215
370
     9
100
AcDbVertex
100
AcDb2dVertex
 10
186.2611544673236
 20
-188.7967447444675
 30
0.0
  0
VERTEX
  5
4E2
330
4E0
100
AcDbEntity
  8
Capa 1
 62
     7
420
 16777215
370
     9
100
AcDbVertex
100
AcDb2dVertex
 10
186.2611544673236
 20
-188.9386826784598
 30
0.0
  0
SEQEND
  5
4E3
330
4E0
100
AcDbEntity
  8
Capa 1
370
     9
  0
POLYLINE
  5
4E4
330
1F
100
AcDbEntity
  8
Capa 1
 62
     7
420
 16777215
370
     9
100
AcDb2dPolyline
 66
     1
 10
0.0
 20
0.0
 30
0.0
  0
VERTEX
  5
4E5
330
4E4
100
AcDbEntity
  8
Capa 1
 62
     7
420
 16777215
370
     9
100
AcDbVertex
100
AcDb2dVertex
 10
186.2611544673236
 20
-188.0856770363119
 30
0.0
  0
VERTEX
  5
4E6
330
4E4
100
AcDbEntity
  8
Capa 1
 62
     7
420
 16777215
370
     9
100
AcDbVertex
100
AcDb2dVertex
 10
186.2611544673236
 20
-188.2276149703042
 30
0.0
  0
SEQEND
  5
4E7
330
4E4
100
AcDbEntity
  8
Capa 1
370
     9
  0
POLYLINE
  5
4E8
330
1F
100
AcDbEntity
  8
Capa 1
 62
     7
420
 16777215
370
     9
100
AcDb2dPolyline
 66
     1
 10
0.0
 20
0.0
 30
0.0
  0
VERTEX
  5
4E9
330
4E8
100
AcDbEntity
  8
Capa 1
 62
     7
420
 16777215
370
     9
100
AcDbVertex
100
AcDb2dVertex
 10
186.2611544673236
 20
-187.3794324618357
 30
0.0
  0
VERTEX
  5
4EA
330
4E8
100
AcDbEntity
  8
Capa 1
 62
     7
420
 16777215
370
     9
100
AcDbVertex
100
AcDb2dVertex
 10
186.2611544673236
 20
-187.521370395828
 30
0.0
  0
SEQEND
  5
4EB
330
4E8
100
AcDbEntity
  8
Capa 1
370
     9
  0
POLYLINE
  5
4EC
330
1F
100
AcDbEntity
  8
Capa 1
 62
     7
420
 16777215
370
     9
100
AcDb2dPolyline
 66
     1
 10
0.0
 20
0.0
 30
0.0
  0
VERTEX
  5
4ED
330
4EC
100
AcDbEntity
  8
Capa 1
 62
     7
420
 16777215
370
     9
100
AcDbVertex
100
AcDb2dVertex
 10
185.769883851127
 20
-186.7834309428875
 30
0.0
  0
VERTEX
  5
4EE
330
4EC
100
AcDbEntity
  8
Capa 1
 62
     7
420
 16777215
370
     9
100
AcDbVertex
100
AcDb2dVertex
 10
186.0434244326558
 20
-186.9391492588208
 30
0.0
  0
SEQEND
  5
4EF
330
4EC
100
AcDbEntity
  8
Capa 1
370
     9
  0
POLYLINE
  5
4F0
330
1F
100
AcDbEntity
  8
Capa 1
 62
     7
420
 16777215
370
     9
100
AcDb2dPolyline
 66
     1
 10
0.0
 20
0.0
 30
0.0
  0
VERTEX
  5
4F1
330
4F0
100
AcDbEntity
  8
Capa 1
 62
     7
420
 16777215
370
     9
100
AcDbVertex
100
AcDb2dVertex
 10
185.769883851127
 20
-186.3700194846575
 30
0.0
  0
VERTEX
  5
4F2
330
4F0
100
AcDbEntity
  8
Capa 1
 62
     7
420
 16777215
370
     9
100
AcDbVertex
100
AcDb2dVertex
 10
185.769883851127
 20
-186.7834309428875
 30
0.0
  0
SEQEND
  5
4F3
330
4F0
100
AcDbEntity
  8
Capa 1
370
     9
  0
SPLINE
  5
4F4
330
1F
100
AcDbEntity
  8
Capa 1
 62
     7
420
 16777215
370
     9
100
AcDbSpline
210
0.0
220
0.0
230
1.0
 70
     8
 71
     3
 72
     8
 73
     4
 74
     0
 42
0.0000000001
 43
0.0000000001
 40
0.0
 40
0.0
 40
0.0
 40
0.0
 40
1.0
 40
1.0
 40
1.0
 40
1.0
 10
185.769883851127
 20
-186.3700194846575
 30
0.0
 10
185.769883851127
 20
-186.197764710395
 30
0.0
 10
185.8932182694989
 20
-186.073052253829
 30
0.0
 10
186.0654730437614
 20
-186.073052253829
 30
0.0
  0
POLYLINE
  5
4F5
330
1F
100
AcDbEntity
  8
Capa 1
 62
     7
420
 16777215
370
     9
100
AcDb2dPolyline
 66
     1
 10
0.0
 20
0.0
 30
0.0
  0
VERTEX
  5
4F6
330
4F5
100
AcDbEntity
  8
Capa 1
 62
     7
420
 16777215
370
     9
100
AcDbVertex
100
AcDb2dVertex
 10
186.0654730437614
 20
-186.073052253829
 30
0.0
  0
VERTEX
  5
4F7
330
4F5
100
AcDbEntity
  8
Capa 1
 62
     7
420
 16777215
370
     9
100
AcDbVertex
100
AcDb2dVertex
 10
186.8909179220273
 20
-186.073052253829
 30
0.0
  0
SEQEND
  5
4F8
330
4F5
100
AcDbEntity
  8
Capa 1
370
     9
  0
POLYLINE
  5
4F9
330
1F
100
AcDbEntity
  8
Capa 1
 62
     7
420
 16777215
370
     9
100
AcDb2dPolyline
 66
     1
 10
0.0
 20
0.0
 30
0.0
  0
VERTEX
  5
4FA
330
4F9
100
AcDbEntity
  8
Capa 1
 62
     7
420
 16777215
370
     9
100
AcDbVertex
100
AcDb2dVertex
 10
186.8909179220273
 20
-186.073052253829
 30
0.0
  0
VERTEX
  5
4FB
330
4F9
100
AcDbEntity
  8
Capa 1
 62
     7
420
 16777215
370
     9
100
AcDbVertex
100
AcDb2dVertex
 10
186.8909179220273
 20
-182.612109329347
 30
0.0
  0
SEQEND
  5
4FC
330
4F9
100
AcDbEntity
  8
Capa 1
370
     9
  0
POLYLINE
  5
4FD
330
1F
100
AcDbEntity
  8
Capa 1
 62
     7
420
 16777215
370
     9
100
AcDb2dPolyline
 66
     1
 10
0.0
 20
0.0
 30
0.0
  0
VERTEX
  5
4FE
330
4FD
100
AcDbEntity
  8
Capa 1
 62
     7
420
 16777215
370
     9
100
AcDbVertex
100
AcDb2dVertex
 10
186.4961099794176
 20
-182.612109329347
 30
0.0
  0
VERTEX
  5
4FF
330
4FD
100
AcDbEntity
  8
Capa 1
 62
     7
420
 16777215
370
     9
100
AcDbVertex
100
AcDb2dVertex
 10
186.8909179220273
 20
-182.612109329347
 30
0.0
  0
SEQEND
  5
500
330
4FD
100
AcDbEntity
  8
Capa 1
370
     9
  0
SPLINE
  5
501
330
1F
100
AcDbEntity
  8
Capa 1
 62
     7
420
 16777215
370
     9
100
AcDbSpline
210
0.0
220
0.0
230
1.0
 70
     8
 71
     3
 72
     8
 73
     4
 74
     0
 42
0.0000000001
 43
0.0000000001
 40
0.0
 40
0.0
 40
0.0
 40
0.0
 40
1.0
 40
1.0
 40
1.0
 40
1.0
 10
186.4961099794176
 20
-182.612109329347
 30
0.0
 10
186.3238552051552
 20
-182.612109329347
 30
0.0
 10
186.2039658822684
 20
-182.4908419682662
 30
0.0
 10
186.2039658822684
 20
-182.3185871940037
 30
0.0
  0
POLYLINE
  5
502
330
1F
100
AcDbEntity
  8
Capa 1
 62
     7
420
 16777215
370
     9
100
AcDb2dPolyline
 66
     1
 10
0.0
 20
0.0
 30
0.0
  0
VERTEX
  5
503
330
502
100
AcDbEntity
  8
Capa 1
 62
     7
420
 16777215
370
     9
100
AcDbVertex
100
AcDb2dVertex
 10
186.2039658822684
 20
-181.9051757357737
 30
0.0
  0
VERTEX
  5
504
330
502
100
AcDbEntity
  8
Capa 1
 62
     7
420
 16777215
370
     9
100
AcDbVertex
100
AcDb2dVertex
 10
186.2039658822684
 20
-182.3185871940037
 30
0.0
  0
SEQEND
  5
505
330
502
100
AcDbEntity
  8
Capa 1
370
     9
  0
POLYLINE
  5
506
330
1F
100
AcDbEntity
  8
Capa 1
 62
     7
420
 16777215
370
     9
100
AcDb2dPolyline
 66
     1
 10
0.0
 20
0.0
 30
0.0
  0
VERTEX
  5
507
330
506
100
AcDbEntity
  8
Capa 1
 62
     7
420
 16777215
370
     9
100
AcDbVertex
100
AcDb2dVertex
 10
186.2039658822684
 20
-181.9051757357737
 30
0.0
  0
VERTEX
  5
508
330
506
100
AcDbEntity
  8
Capa 1
 62
     7
420
 16777215
370
     9
100
AcDbVertex
100
AcDb2dVertex
 10
186.3996473058307
 20
-181.9051757357737
 30
0.0
  0
SEQEND
  5
509
330
506
100
AcDbEntity
  8
Capa 1
370
     9
  0
POLYLINE
  5
50A
330
1F
100
AcDbEntity
  8
Capa 1
 62
     7
420
 16777215
370
     9
100
AcDb2dPolyline
 66
     1
 10
0.0
 20
0.0
 30
0.0
  0
VERTEX
  5
50B
330
50A
100
AcDbEntity
  8
Capa 1
 62
     7
420
 16777215
370
     9
100
AcDbVertex
100
AcDb2dVertex
 10
186.3996473058307
 20
-181.9051757357737
 30
0.0
  0
VERTEX
  5
50C
330
50A
100
AcDbEntity
  8
Capa 1
 62
     7
420
 16777215
370
     9
100
AcDbVertex
100
AcDb2dVertex
 10
186.8502657953013
 20
-181.6426594597977
 30
0.0
  0
SEQEND
  5
50D
330
50A
100
AcDbEntity
  8
Capa 1
370
     9
  0
POLYLINE
  5
50E
330
1F
100
AcDbEntity
  8
Capa 1
 62
     7
420
 16777215
370
     9
100
AcDb2dPolyline
 66
     1
 10
0.0
 20
0.0
 30
0.0
  0
VERTEX
  5
50F
330
50E
100
AcDbEntity
  8
Capa 1
 62
     7
420
 16777215
370
     9
100
AcDbVertex
100
AcDb2dVertex
 10
186.8502657953013
 20
-181.2030652758798
 30
0.0
  0
VERTEX
  5
510
330
50E
100
AcDbEntity
  8
Capa 1
 62
     7
420
 16777215
370
     9
100
AcDbVertex
100
AcDb2dVertex
 10
186.8502657953013
 20
-181.3663628018806
 30
0.0
  0
SEQEND
  5
511
330
50E
100
AcDbEntity
  8
Capa 1
370
     9
  0
POLYLINE
  5
512
330
1F
100
AcDbEntity
  8
Capa 1
 62
     7
420
 16777215
370
     9
100
AcDb2dPolyline
 66
     1
 10
0.0
 20
0.0
 30
0.0
  0
VERTEX
  5
513
330
512
100
AcDbEntity
  8
Capa 1
 62
     7
420
 16777215
370
     9
100
AcDbVertex
100
AcDb2dVertex
 10
184.3160535563516
 20
-168.1998968763528
 30
0.0
  0
VERTEX
  5
514
330
512
100
AcDbEntity
  8
Capa 1
 62
     7
420
 16777215
370
     9
100
AcDbVertex
100
AcDb2dVertex
 10
184.3160535563516
 20
-168.9757323796311
 30
0.0
  0
SEQEND
  5
515
330
512
100
AcDbEntity
  8
Capa 1
370
     9
  0
POLYLINE
  5
516
330
1F
100
AcDbEntity
  8
Capa 1
 62
     7
420
 16777215
370
     9
100
AcDb2dPolyline
 66
     1
 10
0.0
 20
0.0
 30
0.0
  0
VERTEX
  5
517
330
516
100
AcDbEntity
  8
Capa 1
 62
     7
420
 16777215
370
     9
100
AcDbVertex
100
AcDb2dVertex
 10
180.0275986963126
 20
-168.1998968763528
 30
0.0
  0
VERTEX
  5
518
330
516
100
AcDbEntity
  8
Capa 1
 62
     7
420
 16777215
370
     9
100
AcDbVertex
100
AcDb2dVertex
 10
180.0275986963126
 20
-168.9757323796311
 30
0.0
  0
SEQEND
  5
519
330
516
100
AcDbEntity
  8
Capa 1
370
     9
  0
POLYLINE
  5
51A
330
1F
100
AcDbEntity
  8
Capa 1
 62
     7
420
 16777215
370
     9
100
AcDb2dPolyline
 66
     1
 10
0.0
 20
0.0
 30
0.0
  0
VERTEX
  5
51B
330
51A
100
AcDbEntity
  8
Capa 1
 62
     7
420
 16777215
370
     9
100
AcDbVertex
100
AcDb2dVertex
 10
177.4913194000716
 20
-181.068706551955
 30
0.0
  0
VERTEX
  5
51C
330
51A
100
AcDbEntity
  8
Capa 1
 62
     7
420
 16777215
370
     9
100
AcDbVertex
100
AcDb2dVertex
 10
177.4913194000716
 20
-181.6426594597977
 30
0.0
  0
SEQEND
  5
51D
330
51A
100
AcDbEntity
  8
Capa 1
370
     9
  0
POLYLINE
  5
51E
330
1F
100
AcDbEntity
  8
Capa 1
 62
     7
420
 16777215
370
     9
100
AcDb2dPolyline
 66
     1
 10
0.0
 20
0.0
 30
0.0
  0
VERTEX
  5
51F
330
51E
100
AcDbEntity
  8
Capa 1
 62
     7
420
 16777215
370
     9
100
AcDbVertex
100
AcDb2dVertex
 10
178.0797417089523
 20
-187.0638617153868
 30
0.0
  0
VERTEX
  5
520
330
51E
100
AcDbEntity
  8
Capa 1
 62
     7
420
 16777215
370
     9
100
AcDbVertex
100
AcDb2dVertex
 10
178.0797417089523
 20
-191.6196559850812
 30
0.0
  0
SEQEND
  5
521
330
51E
100
AcDbEntity
  8
Capa 1
370
     9
  0
POLYLINE
  5
522
330
1F
100
AcDbEntity
  8
Capa 1
 62
     7
420
 16777215
370
     9
100
AcDb2dPolyline
 66
     1
 10
0.0
 20
0.0
 30
0.0
  0
VERTEX
  5
523
330
522
100
AcDbEntity
  8
Capa 1
 62
     7
420
 16777215
370
     9
100
AcDbVertex
100
AcDb2dVertex
 10
178.1403753894927
 20
-182.1904296419524
 30
0.0
  0
VERTEX
  5
524
330
522
100
AcDbEntity
  8
Capa 1
 62
     7
420
 16777215
370
     9
100
AcDbVertex
100
AcDb2dVertex
 10
178.1403753894927
 20
-182.3185871940037
 30
0.0
  0
SEQEND
  5
525
330
522
100
AcDbEntity
  8
Capa 1
370
     9
  0
POLYLINE
  5
526
330
1F
100
AcDbEntity
  8
Capa 1
 62
     7
420
 16777215
370
     9
100
AcDb2dPolyline
 66
     1
 10
0.0
 20
0.0
 30
0.0
  0
VERTEX
  5
527
330
526
100
AcDbEntity
  8
Capa 1
 62
     7
420
 16777215
370
     9
100
AcDbVertex
100
AcDb2dVertex
 10
178.5730793824401
 20
-186.3700194846575
 30
0.0
  0
VERTEX
  5
528
330
526
100
AcDbEntity
  8
Capa 1
 62
     7
420
 16777215
370
     9
100
AcDbVertex
100
AcDb2dVertex
 10
178.5730793824401
 20
-186.611176168625
 30
0.0
  0
SEQEND
  5
529
330
526
100
AcDbEntity
  8
Capa 1
370
     9
  0
POLYLINE
  5
52A
330
1F
100
AcDbEntity
  8
Capa 1
  6
AI-Linetype-5
 62
     7
420
 16777215
370
     9
100
AcDb2dPolyline
 66
     1
 10
0.0
 20
0.0
 30
0.0
  0
VERTEX
  5
52B
330
52A
100
AcDbEntity
  8
Capa 1
  6
AI-Linetype-5
 62
     7
420
 16777215
370
     9
100
AcDbVertex
100
AcDb2dVertex
 10
177.4913194000716
 20
-181.068706551955
 30
0.0
  0
VERTEX
  5
52C
330
52A
100
AcDbEntity
  8
Capa 1
  6
AI-Linetype-5
 62
     7
420
 16777215
370
     9
100
AcDbVertex
100
AcDb2dVertex
 10
177.4913194000716
 20
-181.2630099373231
 30
0.0
  0
SEQEND
  5
52D
330
52A
100
AcDbEntity
  8
Capa 1
  6
AI-Linetype-5
370
     9
  0
POLYLINE
  5
52F
330
1F
100
AcDbEntity
  8
Capa 1
  6
AI-Linetype-6
 62
     7
420
 16777215
370
     9
100
AcDb2dPolyline
 66
     1
 10
0.0
 20
0.0
 30
0.0
  0
VERTEX
  5
530
330
52F
100
AcDbEntity
  8
Capa 1
  6
AI-Linetype-6
 62
     7
420
 16777215
370
     9
100
AcDbVertex
100
AcDb2dVertex
 10
186.8502657953013
 20
-181.068706551955
 30
0.0
  0
VERTEX
  5
531
330
52F
100
AcDbEntity
  8
Capa 1
  6
AI-Linetype-6
 62
     7
420
 16777215
370
     9
100
AcDbVertex
100
AcDb2dVertex
 10
186.8502657953013
 20
-181.2630099373231
 30
0.0
  0
SEQEND
  5
532
330
52F
100
AcDbEntity
  8
Capa 1
  6
AI-Linetype-6
370
     9
  0
POLYLINE
  5
534
330
1F
100
AcDbEntity
  8
Capa 1
 62
     7
420
 16777215
370
     9
100
AcDb2dPolyline
 66
     1
 10
0.0
 20
0.0
 30
0.0
  0
VERTEX
  5
535
330
534
100
AcDbEntity
  8
Capa 1
 62
     7
420
 16777215
370
     9
100
AcDbVertex
100
AcDb2dVertex
 10
185.769883851127
 20
-186.3700194846575
 30
0.0
  0
VERTEX
  5
536
330
534
100
AcDbEntity
  8
Capa 1
 62
     7
420
 16777215
370
     9
100
AcDbVertex
100
AcDb2dVertex
 10
185.769883851127
 20
-186.611176168625
 30
0.0
  0
SEQEND
  5
537
330
534
100
AcDbEntity
  8
Capa 1
370
     9
  0
POLYLINE
  5
538
330
1F
100
AcDbEntity
  8
Capa 1
 62
     7
420
 16777215
370
     9
100
AcDb2dPolyline
 66
     1
 10
0.0
 20
0.0
 30
0.0
  0
VERTEX
  5
539
330
538
100
AcDbEntity
  8
Capa 1
 62
     7
420
 16777215
370
     9
100
AcDbVertex
100
AcDb2dVertex
 10
186.2039658822684
 20
-182.1904296419524
 30
0.0
  0
VERTEX
  5
53A
330
538
100
AcDbEntity
  8
Capa 1
 62
     7
420
 16777215
370
     9
100
AcDbVertex
100
AcDb2dVertex
 10
186.2039658822684
 20
-182.3185871940037
 30
0.0
  0
SEQEND
  5
53B
330
538
100
AcDbEntity
  8
Capa 1
370
     9
  0
POLYLINE
  5
53C
330
1F
100
AcDbEntity
  8
Capa 1
 62
     7
420
 16777215
370
     9
100
AcDb2dPolyline
 66
     1
 10
0.0
 20
0.0
 30
0.0
  0
VERTEX
  5
53D
330
53C
100
AcDbEntity
  8
Capa 1
 62
     7
420
 16777215
370
     9
100
AcDbVertex
100
AcDb2dVertex
 10
177.4499782542486
 20
-182.612109329347
 30
0.0
  0
VERTEX
  5
53E
330
53C
100
AcDbEntity
  8
Capa 1
 62
     7
420
 16777215
370
     9
100
AcDbVertex
100
AcDb2dVertex
 10
177.8447861968583
 20
-182.612109329347
 30
0.0
  0
SEQEND
  5
53F
330
53C
100
AcDbEntity
  8
Capa 1
370
     9
  0
POLYLINE
  5
540
330
1F
100
AcDbEntity
  8
Capa 1
 62
     7
420
 16777215
370
     9
100
AcDb2dPolyline
 66
     1
 10
0.0
 20
0.0
 30
0.0
  0
VERTEX
  5
541
330
540
100
AcDbEntity
  8
Capa 1
 62
     7
420
 16777215
370
     9
100
AcDbVertex
100
AcDb2dVertex
 10
186.4961099794176
 20
-182.612109329347
 30
0.0
  0
VERTEX
  5
542
330
540
100
AcDbEntity
  8
Capa 1
 62
     7
420
 16777215
370
     9
100
AcDbVertex
100
AcDb2dVertex
 10
186.8909179220273
 20
-182.612109329347
 30
0.0
  0
SEQEND
  5
543
330
540
100
AcDbEntity
  8
Capa 1
370
     9
  0
POLYLINE
  5
544
330
1F
100
AcDbEntity
  8
Capa 1
 62
     7
420
 16777215
370
     9
100
AcDb2dPolyline
 66
     1
 10
0.0
 20
0.0
 30
0.0
  0
VERTEX
  5
545
330
544
100
AcDbEntity
  8
Capa 1
 62
     7
420
 16777215
370
     9
100
AcDbVertex
100
AcDb2dVertex
 10
186.2611544673236
 20
-187.0638617153868
 30
0.0
  0
VERTEX
  5
546
330
544
100
AcDbEntity
  8
Capa 1
 62
     7
420
 16777215
370
     9
100
AcDbVertex
100
AcDb2dVertex
 10
186.2611544673236
 20
-191.6196559850812
 30
0.0
  0
SEQEND
  5
547
330
544
100
AcDbEntity
  8
Capa 1
370
     9
  0
POLYLINE
  5
548
330
1F
100
AcDbEntity
  8
Capa 1
 62
     7
420
 16777215
370
     9
100
AcDb2dPolyline
 66
     1
 10
0.0
 20
0.0
 30
0.0
  0
VERTEX
  5
549
330
548
100
AcDbEntity
  8
Capa 1
 62
     7
420
 16777215
370
     9
100
AcDbVertex
100
AcDb2dVertex
 10
185.9469617590688
 20
-192.3176323303928
 30
0.0
  0
VERTEX
  5
54A
330
548
100
AcDbEntity
  8
Capa 1
 62
     7
420
 16777215
370
     9
100
AcDbVertex
100
AcDb2dVertex
 10
186.2611544673236
 20
-191.6196559850812
 30
0.0
  0
SEQEND
  5
54B
330
548
100
AcDbEntity
  8
Capa 1
370
     9
  0
POLYLINE
  5
54C
330
1F
100
AcDbEntity
  8
Capa 1
 62
     7
420
 16777215
370
     9
100
AcDb2dPolyline
 66
     1
 10
0.0
 20
0.0
 30
0.0
  0
VERTEX
  5
54D
330
54C
100
AcDbEntity
  8
Capa 1
 62
     7
420
 16777215
370
     9
100
AcDbVertex
100
AcDb2dVertex
 10
186.8909179220273
 20
-186.073052253829
 30
0.0
  0
VERTEX
  5
54E
330
54C
100
AcDbEntity
  8
Capa 1
 62
     7
420
 16777215
370
     9
100
AcDbVertex
100
AcDb2dVertex
 10
186.8909179220273
 20
-182.612109329347
 30
0.0
  0
SEQEND
  5
54F
330
54C
100
AcDbEntity
  8
Capa 1
370
     9
  0
POLYLINE
  5
550
330
1F
100
AcDbEntity
  8
Capa 1
 62
     7
420
 16777215
370
     9
100
AcDb2dPolyline
 66
     1
 10
0.0
 20
0.0
 30
0.0
  0
VERTEX
  5
551
330
550
100
AcDbEntity
  8
Capa 1
 62
     7
420
 16777215
370
     9
100
AcDbVertex
100
AcDb2dVertex
 10
185.9166449187986
 20
-186.8661132345335
 30
0.0
  0
VERTEX
  5
552
330
550
100
AcDbEntity
  8
Capa 1
 62
     7
420
 16777215
370
     9
100
AcDbVertex
100
AcDb2dVertex
 10
186.2611544673236
 20
-187.0638617153868
 30
0.0
  0
SEQEND
  5
553
330
550
100
AcDbEntity
  8
Capa 1
370
     9
  0
POLYLINE
  5
554
330
1F
100
AcDbEntity
  8
Capa 1
 62
     7
420
 16777215
370
     9
100
AcDb2dPolyline
 66
     1
 10
0.0
 20
0.0
 30
0.0
  0
VERTEX
  5
555
330
554
100
AcDbEntity
  8
Capa 1
 62
     7
420
 16777215
370
     9
100
AcDbVertex
100
AcDb2dVertex
 10
178.4242512574773
 20
-186.8661132345335
 30
0.0
  0
VERTEX
  5
556
330
554
100
AcDbEntity
  8
Capa 1
 62
     7
420
 16777215
370
     9
100
AcDbVertex
100
AcDb2dVertex
 10
178.0797417089523
 20
-187.0638617153868
 30
0.0
  0
SEQEND
  5
557
330
554
100
AcDbEntity
  8
Capa 1
370
     9
  0
POLYLINE
  5
558
330
1F
100
AcDbEntity
  8
Capa 1
 62
     7
420
 16777215
370
     9
100
AcDb2dPolyline
 66
     1
 10
0.0
 20
0.0
 30
0.0
  0
VERTEX
  5
559
330
558
100
AcDbEntity
  8
Capa 1
 62
     7
420
 16777215
370
     9
100
AcDbVertex
100
AcDb2dVertex
 10
177.4499782542486
 20
-186.073052253829
 30
0.0
  0
VERTEX
  5
55A
330
558
100
AcDbEntity
  8
Capa 1
 62
     7
420
 16777215
370
     9
100
AcDbVertex
100
AcDb2dVertex
 10
186.8909179220273
 20
-186.073052253829
 30
0.0
  0
SEQEND
  5
55B
330
558
100
AcDbEntity
  8
Capa 1
370
     9
  0
POLYLINE
  5
55C
330
1F
100
AcDbEntity
  8
Capa 1
 62
     7
420
 16777215
370
     9
100
AcDb2dPolyline
 66
     1
 10
0.0
 20
0.0
 30
0.0
  0
VERTEX
  5
55D
330
55C
100
AcDbEntity
  8
Capa 1
 62
     7
420
 16777215
370
     9
100
AcDbVertex
100
AcDb2dVertex
 10
186.0654730437614
 20
-186.073052253829
 30
0.0
  0
VERTEX
  5
55E
330
55C
100
AcDbEntity
  8
Capa 1
 62
     7
420
 16777215
370
     9
100
AcDbVertex
100
AcDb2dVertex
 10
186.8909179220273
 20
-186.073052253829
 30
0.0
  0
SEQEND
  5
55F
330
55C
100
AcDbEntity
  8
Capa 1
370
     9
  0
POLYLINE
  5
560
330
1F
100
AcDbEntity
  8
Capa 1
 62
     7
420
 16777215
370
     9
100
AcDb2dPolyline
 66
     1
 10
0.0
 20
0.0
 30
0.0
  0
VERTEX
  5
561
330
560
100
AcDbEntity
  8
Capa 1
 62
     7
420
 16777215
370
     9
100
AcDbVertex
100
AcDb2dVertex
 10
178.3939344172071
 20
-192.3176323303928
 30
0.0
  0
VERTEX
  5
562
330
560
100
AcDbEntity
  8
Capa 1
 62
     7
420
 16777215
370
     9
100
AcDbVertex
100
AcDb2dVertex
 10
185.9469617590688
 20
-192.3176323303928
 30
0.0
  0
SEQEND
  5
563
330
560
100
AcDbEntity
  8
Capa 1
370
     9
  0
POLYLINE
  5
564
330
1F
100
AcDbEntity
  8
Capa 1
 62
     7
420
 16777215
370
     9
100
AcDb2dPolyline
 66
     1
 10
0.0
 20
0.0
 30
0.0
  0
VERTEX
  5
565
330
564
100
AcDbEntity
  8
Capa 1
 62
     7
420
 16777215
370
     9
100
AcDbVertex
100
AcDb2dVertex
 10
178.0797417089523
 20
-191.6196559850812
 30
0.0
  0
VERTEX
  5
566
330
564
100
AcDbEntity
  8
Capa 1
 62
     7
420
 16777215
370
     9
100
AcDbVertex
100
AcDb2dVertex
 10
178.3939344172071
 20
-192.3176323303928
 30
0.0
  0
SEQEND
  5
567
330
564
100
AcDbEntity
  8
Capa 1
370
     9
  0
SPLINE
  5
568
330
1F
100
AcDbEntity
  8
Capa 1
 62
     7
420
 16777215
370
     9
100
AcDbSpline
210
0.0
220
0.0
230
1.0
 70
     8
 71
     3
 72
     8
 73
     4
 74
     0
 42
0.0000000001
 43
0.0000000001
 40
0.0
 40
0.0
 40
0.0
 40
0.0
 40
1.0
 40
1.0
 40
1.0
 40
1.0
 10
177.8447861968583
 20
-182.612109329347
 30
0.0
 10
178.006705684665
 20
-182.612109329347
 30
0.0
 10
178.1403753894927
 20
-182.4825737391016
 30
0.0
 10
178.1403753894927
 20
-182.3185871940037
 30
0.0
  0
SPLINE
  5
569
330
1F
100
AcDbEntity
  8
Capa 1
 62
     7
420
 16777215
370
     9
100
AcDbSpline
210
0.0
220
0.0
230
1.0
 70
     8
 71
     3
 72
     8
 73
     4
 74
     0
 42
0.0000000001
 43
0.0000000001
 40
0.0
 40
0.0
 40
0.0
 40
0.0
 40
1.0
 40
1.0
 40
1.0
 40
1.0
 10
178.5730793824401
 20
-186.3700194846575
 30
0.0
 10
178.5730793824401
 20
-186.2060329395596
 30
0.0
 10
178.4421657540006
 20
-186.073052253829
 30
0.0
 10
178.2781792089027
 20
-186.073052253829
 30
0.0
  0
POLYLINE
  5
56A
330
1F
100
AcDbEntity
  8
Capa 1
 62
     7
420
 16777215
370
     9
100
AcDb2dPolyline
 66
     1
 10
0.0
 20
0.0
 30
0.0
  0
VERTEX
  5
56B
330
56A
100
AcDbEntity
  8
Capa 1
 62
     7
420
 16777215
370
     9
100
AcDbVertex
100
AcDb2dVertex
 10
186.8502657953013
 20
-181.068706551955
 30
0.0
  0
VERTEX
  5
56C
330
56A
100
AcDbEntity
  8
Capa 1
 62
     7
420
 16777215
370
     9
100
AcDbVertex
100
AcDb2dVertex
 10
186.8502657953013
 20
-181.6426594597977
 30
0.0
  0
SEQEND
  5
56D
330
56A
100
AcDbEntity
  8
Capa 1
370
     9
  0
POLYLINE
  5
56E
330
1F
100
AcDbEntity
  8
Capa 1
 62
     7
420
 16777215
370
     9
100
AcDb2dPolyline
 66
     1
 10
0.0
 20
0.0
 30
0.0
  0
VERTEX
  5
56F
330
56E
100
AcDbEntity
  8
Capa 1
 62
     7
420
 16777215
370
     9
100
AcDbVertex
100
AcDb2dVertex
 10
186.4961099794176
 20
-182.612109329347
 30
0.0
  0
VERTEX
  5
570
330
56E
100
AcDbEntity
  8
Capa 1
 62
     7
420
 16777215
370
     9
100
AcDbVertex
100
AcDb2dVertex
 10
177.8447861968583
 20
-182.612109329347
 30
0.0
  0
SEQEND
  5
571
330
56E
100
AcDbEntity
  8
Capa 1
370
     9
  0
POLYLINE
  5
572
330
1F
100
AcDbEntity
  8
Capa 1
 62
     7
420
 16777215
370
     9
100
AcDb2dPolyline
 66
     1
 10
0.0
 20
0.0
 30
0.0
  0
VERTEX
  5
573
330
572
100
AcDbEntity
  8
Capa 1
 62
     7
420
 16777215
370
     9
100
AcDbVertex
100
AcDb2dVertex
 10
178.0797417089523
 20
-187.0638617153868
 30
0.0
  0
VERTEX
  5
574
330
572
100
AcDbEntity
  8
Capa 1
 62
     7
420
 16777215
370
     9
100
AcDbVertex
100
AcDb2dVertex
 10
186.2611544673236
 20
-187.0638617153868
 30
0.0
  0
SEQEND
  5
575
330
572
100
AcDbEntity
  8
Capa 1
370
     9
  0
POLYLINE
  5
576
330
1F
100
AcDbEntity
  8
Capa 1
 62
     7
420
 16777215
370
     9
100
AcDb2dPolyline
 66
     1
 10
0.0
 20
0.0
 30
0.0
  0
VERTEX
  5
577
330
576
100
AcDbEntity
  8
Capa 1
 62
     7
420
 16777215
370
     9
100
AcDbVertex
100
AcDb2dVertex
 10
186.2611544673236
 20
-187.0638617153868
 30
0.0
  0
VERTEX
  5
578
330
576
100
AcDbEntity
  8
Capa 1
 62
     7
420
 16777215
370
     9
100
AcDbVertex
100
AcDb2dVertex
 10
185.769883851127
 20
-186.7834309428875
 30
0.0
  0
SEQEND
  5
579
330
576
100
AcDbEntity
  8
Capa 1
370
     9
  0
POLYLINE
  5
57A
330
1F
100
AcDbEntity
  8
Capa 1
 62
     7
420
 16777215
370
     9
100
AcDb2dPolyline
 66
     1
 10
0.0
 20
0.0
 30
0.0
  0
VERTEX
  5
57B
330
57A
100
AcDbEntity
  8
Capa 1
 62
     7
420
 16777215
370
     9
100
AcDbVertex
100
AcDb2dVertex
 10
179.0967338961981
 20
-168.1998968763528
 30
0.0
  0
VERTEX
  5
57C
330
57A
100
AcDbEntity
  8
Capa 1
 62
     7
420
 16777215
370
     9
100
AcDbVertex
100
AcDb2dVertex
 10
179.0967338961981
 20
-160.1321722689947
 30
0.0
  0
SEQEND
  5
57D
330
57A
100
AcDbEntity
  8
Capa 1
370
     9
  0
POLYLINE
  5
57E
330
1F
100
AcDbEntity
  8
Capa 1
 62
     7
420
 16777215
370
     9
100
AcDb2dPolyline
 66
     1
 10
0.0
 20
0.0
 30
0.0
  0
VERTEX
  5
57F
330
57E
100
AcDbEntity
  8
Capa 1
 62
     7
420
 16777215
370
     9
100
AcDbVertex
100
AcDb2dVertex
 10
185.2448512991749
 20
-160.1321722689947
 30
0.0
  0
VERTEX
  5
580
330
57E
100
AcDbEntity
  8
Capa 1
 62
     7
420
 16777215
370
     9
100
AcDbVertex
100
AcDb2dVertex
 10
185.2448512991749
 20
-168.1998968763528
 30
0.0
  0
SEQEND
  5
581
330
57E
100
AcDbEntity
  8
Capa 1
370
     9
  0
POLYLINE
  5
582
330
1F
100
AcDbEntity
  8
Capa 1
 62
     7
420
 16777215
370
     9
100
AcDb2dPolyline
 66
     1
 10
0.0
 20
0.0
 30
0.0
  0
VERTEX
  5
583
330
582
100
AcDbEntity
  8
Capa 1
 62
     7
420
 16777215
370
     9
100
AcDbVertex
100
AcDb2dVertex
 10
179.0967338961981
 20
-160.1321722689947
 30
0.0
  0
VERTEX
  5
584
330
582
100
AcDbEntity
  8
Capa 1
 62
     7
420
 16777215
370
     9
100
AcDbVertex
100
AcDb2dVertex
 10
185.2448512991749
 20
-160.1321722689947
 30
0.0
  0
SEQEND
  5
585
330
582
100
AcDbEntity
  8
Capa 1
370
     9
  0
POLYLINE
  5
586
330
1F
100
AcDbEntity
  8
Capa 1
 62
     7
420
 16777215
370
     9
100
AcDb2dPolyline
 66
     1
 10
0.0
 20
0.0
 30
0.0
  0
VERTEX
  5
587
330
586
100
AcDbEntity
  8
Capa 1
 62
     7
420
 16777215
370
     9
100
AcDbVertex
100
AcDb2dVertex
 10
179.0967338961981
 20
-168.1998968763528
 30
0.0
  0
VERTEX
  5
588
330
586
100
AcDbEntity
  8
Capa 1
 62
     7
420
 16777215
370
     9
100
AcDbVertex
100
AcDb2dVertex
 10
185.2448512991749
 20
-168.1998968763528
 30
0.0
  0
SEQEND
  5
589
330
586
100
AcDbEntity
  8
Capa 1
370
     9
  0
SPLINE
  5
58A
330
1F
100
AcDbEntity
  8
Capa 1
 62
     7
420
 16777215
370
     9
100
AcDbSpline
210
0.0
220
0.0
230
1.0
 70
     8
 71
     3
 72
     8
 73
     4
 74
     0
 42
0.0000000001
 43
0.0000000001
 40
0.0
 40
0.0
 40
0.0
 40
0.0
 40
1.0
 40
1.0
 40
1.0
 40
1.0
 10
185.2448512991749
 20
-160.1321722689947
 30
0.0
 10
183.2280924021096
 20
-159.6195420607896
 30
0.0
 10
181.1134927932633
 20
-159.6195420607896
 30
0.0
 10
179.0967338961981
 20
-160.1321722689947
 30
0.0
  0
POLYLINE
  5
58B
330
1F
100
AcDbEntity
  8
Capa 1
 62
     7
420
 16777215
370
     9
100
AcDb2dPolyline
 66
     1
 10
0.0
 20
0.0
 30
0.0
  0
VERTEX
  5
58C
330
58B
100
AcDbEntity
  8
Capa 1
 62
     7
420
 16777215
370
     9
100
AcDbVertex
100
AcDb2dVertex
 10
138.6451117274915
 20
-179.2159341999877
 30
0.0
  0
VERTEX
  5
58D
330
58B
100
AcDbEntity
  8
Capa 1
 62
     7
420
 16777215
370
     9
100
AcDbVertex
100
AcDb2dVertex
 10
130.1936034830766
 20
-179.2159341999877
 30
0.0
  0
SEQEND
  5
58E
330
58B
100
AcDbEntity
  8
Capa 1
370
     9
  0
POLYLINE
  5
58F
330
1F
100
AcDbEntity
  8
Capa 1
 62
     7
420
 16777215
370
     9
100
AcDb2dPolyline
 66
     1
 10
0.0
 20
0.0
 30
0.0
  0
VERTEX
  5
590
330
58F
100
AcDbEntity
  8
Capa 1
 62
     7
420
 16777215
370
     9
100
AcDbVertex
100
AcDb2dVertex
 10
129.4243136612203
 20
-178.4449218303888
 30
0.0
  0
VERTEX
  5
591
330
58F
100
AcDbEntity
  8
Capa 1
 62
     7
420
 16777215
370
     9
100
AcDbVertex
100
AcDb2dVertex
 10
129.4243136612203
 20
-172.2995605038001
 30
0.0
  0
SEQEND
  5
592
330
58F
100
AcDbEntity
  8
Capa 1
370
     9
  0
POLYLINE
  5
593
330
1F
100
AcDbEntity
  8
Capa 1
 62
     7
420
 16777215
370
     9
100
AcDb2dPolyline
 66
     1
 10
0.0
 20
0.0
 30
0.0
  0
VERTEX
  5
594
330
593
100
AcDbEntity
  8
Capa 1
 62
     7
420
 16777215
370
     9
100
AcDbVertex
100
AcDb2dVertex
 10
130.1936034830766
 20
-171.5313042105894
 30
0.0
  0
VERTEX
  5
595
330
593
100
AcDbEntity
  8
Capa 1
 62
     7
420
 16777215
370
     9
100
AcDbVertex
100
AcDb2dVertex
 10
138.6451117274915
 20
-171.5313042105894
 30
0.0
  0
SEQEND
  5
596
330
593
100
AcDbEntity
  8
Capa 1
370
     9
  0
POLYLINE
  5
597
330
1F
100
AcDbEntity
  8
Capa 1
 62
     7
420
 16777215
370
     9
100
AcDb2dPolyline
 66
     1
 10
0.0
 20
0.0
 30
0.0
  0
VERTEX
  5
598
330
597
100
AcDbEntity
  8
Capa 1
 62
     7
420
 16777215
370
     9
100
AcDbVertex
100
AcDb2dVertex
 10
130.1936034830766
 20
-171.5313042105894
 30
0.0
  0
VERTEX
  5
599
330
597
100
AcDbEntity
  8
Capa 1
 62
     7
420
 16777215
370
     9
100
AcDbVertex
100
AcDb2dVertex
 10
129.4243136612203
 20
-172.2995605038001
 30
0.0
  0
SEQEND
  5
59A
330
597
100
AcDbEntity
  8
Capa 1
370
     9
  0
POLYLINE
  5
59B
330
1F
100
AcDbEntity
  8
Capa 1
 62
     7
420
 16777215
370
     9
100
AcDb2dPolyline
 66
     1
 10
0.0
 20
0.0
 30
0.0
  0
VERTEX
  5
59C
330
59B
100
AcDbEntity
  8
Capa 1
 62
     7
420
 16777215
370
     9
100
AcDbVertex
100
AcDb2dVertex
 10
130.1936034830766
 20
-179.2159341999877
 30
0.0
  0
VERTEX
  5
59D
330
59B
100
AcDbEntity
  8
Capa 1
 62
     7
420
 16777215
370
     9
100
AcDbVertex
100
AcDb2dVertex
 10
129.4243136612203
 20
-178.4449218303888
 30
0.0
  0
SEQEND
  5
59E
330
59B
100
AcDbEntity
  8
Capa 1
370
     9
  0
POLYLINE
  5
59F
330
1F
100
AcDbEntity
  8
Capa 1
 62
     7
420
 16777215
370
     9
100
AcDb2dPolyline
 66
     1
 10
0.0
 20
0.0
 30
0.0
  0
VERTEX
  5
5A0
330
59F
100
AcDbEntity
  8
Capa 1
 62
     7
420
 16777215
370
     9
100
AcDbVertex
100
AcDb2dVertex
 10
130.1936034830766
 20
-171.5313042105894
 30
0.0
  0
VERTEX
  5
5A1
330
59F
100
AcDbEntity
  8
Capa 1
 62
     7
420
 16777215
370
     9
100
AcDbVertex
100
AcDb2dVertex
 10
130.1936034830766
 20
-179.2159341999877
 30
0.0
  0
SEQEND
  5
5A2
330
59F
100
AcDbEntity
  8
Capa 1
370
     9
  0
POLYLINE
  5
5A3
330
1F
100
AcDbEntity
  8
Capa 1
 62
     7
420
 16777215
370
     9
100
AcDb2dPolyline
 66
     1
 10
0.0
 20
0.0
 30
0.0
  0
VERTEX
  5
5A4
330
5A3
100
AcDbEntity
  8
Capa 1
 62
     7
420
 16777215
370
     9
100
AcDbVertex
100
AcDb2dVertex
 10
60.15343422975331
 20
-174.931613454531
 30
0.0
  0
VERTEX
  5
5A5
330
5A3
100
AcDbEntity
  8
Capa 1
 62
     7
420
 16777215
370
     9
100
AcDbVertex
100
AcDb2dVertex
 10
60.15343422975331
 20
-166.4801052101161
 30
0.0
  0
SEQEND
  5
5A6
330
5A3
100
AcDbEntity
  8
Capa 1
370
     9
  0
POLYLINE
  5
5A7
330
1F
100
AcDbEntity
  8
Capa 1
 62
     7
420
 16777215
370
     9
100
AcDb2dPolyline
 66
     1
 10
0.0
 20
0.0
 30
0.0
  0
VERTEX
  5
5A8
330
5A7
100
AcDbEntity
  8
Capa 1
 62
     7
420
 16777215
370
     9
100
AcDbVertex
100
AcDb2dVertex
 10
60.92479110890075
 20
-165.7108153882598
 30
0.0
  0
VERTEX
  5
5A9
330
5A7
100
AcDbEntity
  8
Capa 1
 62
     7
420
 16777215
370
     9
100
AcDbVertex
100
AcDb2dVertex
 10
67.0706691998122
 20
-165.7108153882598
 30
0.0
  0
SEQEND
  5
5AA
330
5A7
100
AcDbEntity
  8
Capa 1
370
     9
  0
POLYLINE
  5
5AB
330
1F
100
AcDbEntity
  8
Capa 1
 62
     7
420
 16777215
370
     9
100
AcDb2dPolyline
 66
     1
 10
0.0
 20
0.0
 30
0.0
  0
VERTEX
  5
5AC
330
5AB
100
AcDbEntity
  8
Capa 1
 62
     7
420
 16777215
370
     9
100
AcDbVertex
100
AcDb2dVertex
 10
67.83771970960308
 20
-166.4801052101161
 30
0.0
  0
VERTEX
  5
5AD
330
5AB
100
AcDbEntity
  8
Capa 1
 62
     7
420
 16777215
370
     9
100
AcDbVertex
100
AcDb2dVertex
 10
67.83771970960308
 20
-174.931613454531
 30
0.0
  0
SEQEND
  5
5AE
330
5AB
100
AcDbEntity
  8
Capa 1
370
     9
  0
POLYLINE
  5
5AF
330
1F
100
AcDbEntity
  8
Capa 1
 62
     7
420
 16777215
370
     9
100
AcDb2dPolyline
 66
     1
 10
0.0
 20
0.0
 30
0.0
  0
VERTEX
  5
5B0
330
5AF
100
AcDbEntity
  8
Capa 1
 62
     7
420
 16777215
370
     9
100
AcDbVertex
100
AcDb2dVertex
 10
67.83771970960308
 20
-166.4801052101161
 30
0.0
  0
VERTEX
  5
5B1
330
5AF
100
AcDbEntity
  8
Capa 1
 62
     7
420
 16777215
370
     9
100
AcDbVertex
100
AcDb2dVertex
 10
67.0706691998122
 20
-165.7108153882598
 30
0.0
  0
SEQEND
  5
5B2
330
5AF
100
AcDbEntity
  8
Capa 1
370
     9
  0
POLYLINE
  5
5B3
330
1F
100
AcDbEntity
  8
Capa 1
 62
     7
420
 16777215
370
     9
100
AcDb2dPolyline
 66
     1
 10
0.0
 20
0.0
 30
0.0
  0
VERTEX
  5
5B4
330
5B3
100
AcDbEntity
  8
Capa 1
 62
     7
420
 16777215
370
     9
100
AcDbVertex
100
AcDb2dVertex
 10
60.15343422975331
 20
-166.4801052101161
 30
0.0
  0
VERTEX
  5
5B5
330
5B3
100
AcDbEntity
  8
Capa 1
 62
     7
420
 16777215
370
     9
100
AcDbVertex
100
AcDb2dVertex
 10
60.92479110890075
 20
-165.7108153882598
 30
0.0
  0
SEQEND
  5
5B6
330
5B3
100
AcDbEntity
  8
Capa 1
370
     9
  0
POLYLINE
  5
5B7
330
1F
100
AcDbEntity
  8
Capa 1
 62
     7
420
 16777215
370
     9
100
AcDb2dPolyline
 66
     1
 10
0.0
 20
0.0
 30
0.0
  0
VERTEX
  5
5B8
330
5B7
100
AcDbEntity
  8
Capa 1
 62
     7
420
 16777215
370
     9
100
AcDbVertex
100
AcDb2dVertex
 10
67.83771970960308
 20
-166.4801052101161
 30
0.0
  0
VERTEX
  5
5B9
330
5B7
100
AcDbEntity
  8
Capa 1
 62
     7
420
 16777215
370
     9
100
AcDbVertex
100
AcDb2dVertex
 10
60.15343422975331
 20
-166.4801052101161
 30
0.0
  0
SEQEND
  5
5BA
330
5B7
100
AcDbEntity
  8
Capa 1
370
     9
  0
POLYLINE
  5
5BB
330
1F
100
AcDbEntity
  8
Capa 1
 62
     7
420
 16777215
370
     9
100
AcDb2dPolyline
 66
     1
 10
0.0
 20
0.0
 30
0.0
  0
VERTEX
  5
5BC
330
5BB
100
AcDbEntity
  8
Capa 1
 62
     7
420
 16777215
370
     9
100
AcDbVertex
100
AcDb2dVertex
 10
2.337497286742015
 20
-174.931613454531
 30
0.0
  0
VERTEX
  5
5BD
330
5BB
100
AcDbEntity
  8
Capa 1
 62
     7
420
 16777215
370
     9
100
AcDbVertex
100
AcDb2dVertex
 10
2.337497286742015
 20
-166.4801052101161
 30
0.0
  0
SEQEND
  5
5BE
330
5BB
100
AcDbEntity
  8
Capa 1
370
     9
  0
POLYLINE
  5
5BF
330
1F
100
AcDbEntity
  8
Capa 1
 62
     7
420
 16777215
370
     9
100
AcDb2dPolyline
 66
     1
 10
0.0
 20
0.0
 30
0.0
  0
VERTEX
  5
5C0
330
5BF
100
AcDbEntity
  8
Capa 1
 62
     7
420
 16777215
370
     9
100
AcDbVertex
100
AcDb2dVertex
 10
3.104547796532891
 20
-165.7108153882598
 30
0.0
  0
VERTEX
  5
5C1
330
5BF
100
AcDbEntity
  8
Capa 1
 62
     7
420
 16777215
370
     9
100
AcDbVertex
100
AcDb2dVertex
 10
9.254732256800901
 20
-165.7108153882598
 30
0.0
  0
SEQEND
  5
5C2
330
5BF
100
AcDbEntity
  8
Capa 1
370
     9
  0
POLYLINE
  5
5C3
330
1F
100
AcDbEntity
  8
Capa 1
 62
     7
420
 16777215
370
     9
100
AcDb2dPolyline
 66
     1
 10
0.0
 20
0.0
 30
0.0
  0
VERTEX
  5
5C4
330
5C3
100
AcDbEntity
  8
Capa 1
 62
     7
420
 16777215
370
     9
100
AcDbVertex
100
AcDb2dVertex
 10
10.02178276659178
 20
-166.4801052101161
 30
0.0
  0
VERTEX
  5
5C5
330
5C3
100
AcDbEntity
  8
Capa 1
 62
     7
420
 16777215
370
     9
100
AcDbVertex
100
AcDb2dVertex
 10
10.02178276659178
 20
-174.931613454531
 30
0.0
  0
SEQEND
  5
5C6
330
5C3
100
AcDbEntity
  8
Capa 1
370
     9
  0
POLYLINE
  5
5C7
330
1F
100
AcDbEntity
  8
Capa 1
 62
     7
420
 16777215
370
     9
100
AcDb2dPolyline
 66
     1
 10
0.0
 20
0.0
 30
0.0
  0
VERTEX
  5
5C8
330
5C7
100
AcDbEntity
  8
Capa 1
 62
     7
420
 16777215
370
     9
100
AcDbVertex
100
AcDb2dVertex
 10
10.02178276659178
 20
-166.4801052101161
 30
0.0
  0
VERTEX
  5
5C9
330
5C7
100
AcDbEntity
  8
Capa 1
 62
     7
420
 16777215
370
     9
100
AcDbVertex
100
AcDb2dVertex
 10
9.254732256800901
 20
-165.7108153882598
 30
0.0
  0
SEQEND
  5
5CA
330
5C7
100
AcDbEntity
  8
Capa 1
370
     9
  0
POLYLINE
  5
5CB
330
1F
100
AcDbEntity
  8
Capa 1
 62
     7
420
 16777215
370
     9
100
AcDb2dPolyline
 66
     1
 10
0.0
 20
0.0
 30
0.0
  0
VERTEX
  5
5CC
330
5CB
100
AcDbEntity
  8
Capa 1
 62
     7
420
 16777215
370
     9
100
AcDbVertex
100
AcDb2dVertex
 10
2.337497286742015
 20
-166.4801052101161
 30
0.0
  0
VERTEX
  5
5CD
330
5CB
100
AcDbEntity
  8
Capa 1
 62
     7
420
 16777215
370
     9
100
AcDbVertex
100
AcDb2dVertex
 10
3.104547796532891
 20
-165.7108153882598
 30
0.0
  0
SEQEND
  5
5CE
330
5CB
100
AcDbEntity
  8
Capa 1
370
     9
  0
POLYLINE
  5
5CF
330
1F
100
AcDbEntity
  8
Capa 1
 62
     7
420
 16777215
370
     9
100
AcDb2dPolyline
 66
     1
 10
0.0
 20
0.0
 30
0.0
  0
VERTEX
  5
5D0
330
5CF
100
AcDbEntity
  8
Capa 1
 62
     7
420
 16777215
370
     9
100
AcDbVertex
100
AcDb2dVertex
 10
10.02178276659178
 20
-166.4801052101161
 30
0.0
  0
VERTEX
  5
5D1
330
5CF
100
AcDbEntity
  8
Capa 1
 62
     7
420
 16777215
370
     9
100
AcDbVertex
100
AcDb2dVertex
 10
2.337497286742015
 20
-166.4801052101161
 30
0.0
  0
SEQEND
  5
5D2
330
5CF
100
AcDbEntity
  8
Capa 1
370
     9
  0
POLYLINE
  5
5D3
330
1F
100
AcDbEntity
  8
Capa 1
 62
     7
420
 16777215
370
     9
100
AcDb2dPolyline
 66
     1
 10
0.0
 20
0.0
 30
0.0
  0
VERTEX
  5
5D4
330
5D3
100
AcDbEntity
  8
Capa 1
 62
     7
420
 16777215
370
     9
100
AcDbVertex
100
AcDb2dVertex
 10
185.4928981741129
 20
-189.5036783380407
 30
0.0
  0
VERTEX
  5
5D5
330
5D3
100
AcDbEntity
  8
Capa 1
 62
     7
420
 16777215
370
     9
100
AcDbVertex
100
AcDb2dVertex
 10
185.4928981741129
 20
-189.645616272033
 30
0.0
  0
SEQEND
  5
5D6
330
5D3
100
AcDbEntity
  8
Capa 1
370
     9
  0
POLYLINE
  5
5D7
330
1F
100
AcDbEntity
  8
Capa 1
 62
     7
420
 16777215
370
     9
100
AcDb2dPolyline
 66
     1
 10
0.0
 20
0.0
 30
0.0
  0
VERTEX
  5
5D8
330
5D7
100
AcDbEntity
  8
Capa 1
 62
     7
420
 16777215
370
     9
100
AcDbVertex
100
AcDb2dVertex
 10
178.0797417089523
 20
-191.6196559850812
 30
0.0
  0
VERTEX
  5
5D9
330
5D7
100
AcDbEntity
  8
Capa 1
 62
     7
420
 16777215
370
     9
100
AcDbVertex
100
AcDb2dVertex
 10
186.2611544673236
 20
-191.6196559850812
 30
0.0
  0
SEQEND
  5
5DA
330
5D7
100
AcDbEntity
  8
Capa 1
370
     9
  0
SPLINE
  5
5DB
330
1F
100
AcDbEntity
  8
Capa 1
 62
     7
420
 16777215
370
     9
100
AcDbSpline
210
0.0
220
0.0
230
1.0
 70
     8
 71
     3
 72
    14
 73
    10
 74
     0
 42
0.0000000001
 43
0.0000000001
 40
0.0
 40
0.0
 40
0.0
 40
0.0
 40
1.0
 40
1.0
 40
1.0
 40
2.0
 40
2.0
 40
2.0
 40
3.0
 40
3.0
 40
3.0
 40
3.0
 10
43.16842446837456
 20
-204.1019259472384
 30
0.0
 10
45.20240884286606
 20
-199.7859103233174
 30
0.0
 10
43.35359835070674
 20
-194.6334255155778
 30
0.0
 10
39.03534341472033
 20
-192.5997856506348
 30
0.0
 10
34.71708847873392
 20
-190.5630451997551
 30
0.0
 10
29.56684298305968
 20
-192.416162061271
 30
0.0
 10
27.53234184424539
 20
-196.732866704289
 30
0.0
 10
26.42905001509413
 20
-199.0665743859973
 30
0.0
 10
26.42905001509413
 20
-201.7682182655302
 30
0.0
 10
27.53234184424539
 20
-204.1019259472384
 30
0.0
  0
SPLINE
  5
5DC
330
1F
100
AcDbEntity
  8
Capa 1
 62
     7
420
 16777215
370
     9
100
AcDbSpline
210
0.0
220
0.0
230
1.0
 70
     8
 71
     3
 72
     8
 73
     4
 74
     0
 42
0.0000000001
 43
0.0000000001
 40
0.0
 40
0.0
 40
0.0
 40
0.0
 40
1.0
 40
1.0
 40
1.0
 40
1.0
 10
29.29967582817855
 20
-210.7330457372473
 30
0.0
 10
29.11415743629785
 20
-208.4358560676827
 30
0.0
 10
28.51522758618717
 20
-206.1903428303969
 30
0.0
 10
27.53234184424539
 20
-204.1019259472384
 30
0.0
  0
POLYLINE
  5
5DD
330
1F
100
AcDbEntity
  8
Capa 1
 62
     7
420
 16777215
370
     9
100
AcDb2dPolyline
 66
     1
 10
0.0
 20
0.0
 30
0.0
  0
VERTEX
  5
5DE
330
5DD
100
AcDbEntity
  8
Capa 1
 62
     7
420
 16777215
370
     9
100
AcDbVertex
100
AcDb2dVertex
 10
39.1907172211051
 20
-237.8762640464337
 30
0.0
  0
VERTEX
  5
5DF
330
5DD
100
AcDbEntity
  8
Capa 1
 62
     7
420
 16777215
370
     9
100
AcDbVertex
100
AcDb2dVertex
 10
31.50608723170681
 20
-237.8762640464337
 30
0.0
  0
SEQEND
  5
5E0
330
5DD
100
AcDbEntity
  8
Capa 1
370
     9
  0
POLYLINE
  5
5E1
330
1F
100
AcDbEntity
  8
Capa 1
 62
     7
420
 16777215
370
     9
100
AcDb2dPolyline
 66
     1
 10
0.0
 20
0.0
 30
0.0
  0
VERTEX
  5
5E2
330
5E1
100
AcDbEntity
  8
Capa 1
 62
     7
420
 16777215
370
     9
100
AcDbVertex
100
AcDb2dVertex
 10
31.50608723170681
 20
-237.8762640464337
 30
0.0
  0
VERTEX
  5
5E3
330
5E1
100
AcDbEntity
  8
Capa 1
 62
     7
420
 16777215
370
     9
100
AcDbVertex
100
AcDb2dVertex
 10
29.29967582817855
 20
-210.7330457372473
 30
0.0
  0
SEQEND
  5
5E4
330
5E1
100
AcDbEntity
  8
Capa 1
370
     9
  0
SPLINE
  5
5E5
330
1F
100
AcDbEntity
  8
Capa 1
 62
     7
420
 16777215
370
     9
100
AcDbSpline
210
0.0
220
0.0
230
1.0
 70
     8
 71
     3
 72
     8
 73
     4
 74
     0
 42
0.0000000001
 43
0.0000000001
 40
0.0
 40
0.0
 40
0.0
 40
0.0
 40
1.0
 40
1.0
 40
1.0
 40
1.0
 10
43.16842446837456
 20
-204.1019259472384
 30
0.0
 10
42.18553872643278
 20
-206.1903428303969
 30
0.0
 10
41.58678113109636
 20
-208.4358560676827
 30
0.0
 10
41.3969563698591
 20
-210.7330457372473
 30
0.0
  0
POLYLINE
  5
5E6
330
1F
100
AcDbEntity
  8
Capa 1
 62
     7
420
 16777215
370
     9
100
AcDb2dPolyline
 66
     1
 10
0.0
 20
0.0
 30
0.0
  0
VERTEX
  5
5E7
330
5E6
100
AcDbEntity
  8
Capa 1
 62
     7
420
 16777215
370
     9
100
AcDbVertex
100
AcDb2dVertex
 10
39.1907172211051
 20
-237.8762640464337
 30
0.0
  0
VERTEX
  5
5E8
330
5E6
100
AcDbEntity
  8
Capa 1
 62
     7
420
 16777215
370
     9
100
AcDbVertex
100
AcDb2dVertex
 10
41.3969563698591
 20
-210.7330457372473
 30
0.0
  0
SEQEND
  5
5E9
330
5E6
100
AcDbEntity
  8
Capa 1
370
     9
  0
POLYLINE
  5
5EA
330
1F
100
AcDbEntity
  8
Capa 1
 62
     7
420
 16777215
370
     9
100
AcDb2dPolyline
 66
     1
 10
0.0
 20
0.0
 30
0.0
  0
VERTEX
  5
5EB
330
5EA
100
AcDbEntity
  8
Capa 1
 62
     7
420
 16777215
370
     9
100
AcDbVertex
100
AcDb2dVertex
 10
155.0671928865804
 20
-148.1809637758888
 30
0.0
  0
VERTEX
  5
5EC
330
5EA
100
AcDbEntity
  8
Capa 1
 62
     7
420
 16777215
370
     9
100
AcDbVertex
100
AcDb2dVertex
 10
155.0671928865804
 20
-150.9048285213016
 30
0.0
  0
SEQEND
  5
5ED
330
5EA
100
AcDbEntity
  8
Capa 1
370
     9
  0
POLYLINE
  5
5EE
330
1F
100
AcDbEntity
  8
Capa 1
 62
     7
420
 16777215
370
     9
100
AcDb2dPolyline
 66
     1
 10
0.0
 20
0.0
 30
0.0
  0
VERTEX
  5
5EF
330
5EE
100
AcDbEntity
  8
Capa 1
 62
     7
420
 16777215
370
     9
100
AcDbVertex
100
AcDb2dVertex
 10
155.0671928865804
 20
-154.7495550828404
 30
0.0
  0
VERTEX
  5
5F0
330
5EE
100
AcDbEntity
  8
Capa 1
 62
     7
420
 16777215
370
     9
100
AcDbVertex
100
AcDb2dVertex
 10
155.0671928865804
 20
-155.7486327735629
 30
0.0
  0
SEQEND
  5
5F1
330
5EE
100
AcDbEntity
  8
Capa 1
370
     9
  0
POLYLINE
  5
5F2
330
1F
100
AcDbEntity
  8
Capa 1
 62
     7
420
 16777215
370
     9
100
AcDb2dPolyline
 66
     1
 10
0.0
 20
0.0
 30
0.0
  0
VERTEX
  5
5F3
330
5F2
100
AcDbEntity
  8
Capa 1
 62
     7
420
 16777215
370
     9
100
AcDbVertex
100
AcDb2dVertex
 10
173.6148979600685
 20
-158.5887694916028
 30
0.0
  0
VERTEX
  5
5F4
330
5F2
100
AcDbEntity
  8
Capa 1
 62
     7
420
 16777215
370
     9
100
AcDbVertex
100
AcDb2dVertex
 10
173.6148979600685
 20
-146.922470395127
 30
0.0
  0
SEQEND
  5
5F5
330
5F2
100
AcDbEntity
  8
Capa 1
370
     9
  0
POLYLINE
  5
5F6
330
1F
100
AcDbEntity
  8
Capa 1
 62
     7
420
 16777215
370
     9
100
AcDb2dPolyline
 66
     1
 10
0.0
 20
0.0
 30
0.0
  0
VERTEX
  5
5F7
330
5F6
100
AcDbEntity
  8
Capa 1
 62
     7
420
 16777215
370
     9
100
AcDbVertex
100
AcDb2dVertex
 10
193.5344400557831
 20
-145.336348433718
 30
0.0
  0
VERTEX
  5
5F8
330
5F6
100
AcDbEntity
  8
Capa 1
 62
     7
420
 16777215
370
     9
100
AcDbVertex
100
AcDb2dVertex
 10
176.2476399298964
 20
-145.336348433718
 30
0.0
  0
SEQEND
  5
5F9
330
5F6
100
AcDbEntity
  8
Capa 1
370
     9
  0
POLYLINE
  5
5FA
330
1F
100
AcDbEntity
  8
Capa 1
 62
     7
420
 16777215
370
     9
100
AcDb2dPolyline
 66
     1
 10
0.0
 20
0.0
 30
0.0
  0
VERTEX
  5
5FB
330
5FA
100
AcDbEntity
  8
Capa 1
 62
     7
420
 16777215
370
     9
100
AcDbVertex
100
AcDb2dVertex
 10
176.2476399298964
 20
-145.336348433718
 30
0.0
  0
VERTEX
  5
5FC
330
5FA
100
AcDbEntity
  8
Capa 1
 62
     7
420
 16777215
370
     9
100
AcDbVertex
100
AcDb2dVertex
 10
175.4077256505925
 20
-145.336348433718
 30
0.0
  0
SEQEND
  5
5FD
330
5FA
100
AcDbEntity
  8
Capa 1
370
     9
  0
POLYLINE
  5
5FE
330
1F
100
AcDbEntity
  8
Capa 1
 62
     7
420
 16777215
370
     9
100
AcDb2dPolyline
 66
     1
 10
0.0
 20
0.0
 30
0.0
  0
VERTEX
  5
5FF
330
5FE
100
AcDbEntity
  8
Capa 1
 62
     7
420
 16777215
370
     9
100
AcDbVertex
100
AcDb2dVertex
 10
173.6148979600685
 20
-158.5887694916028
 30
0.0
  0
VERTEX
  5
600
330
5FE
100
AcDbEntity
  8
Capa 1
 62
     7
420
 16777215
370
     9
100
AcDbVertex
100
AcDb2dVertex
 10
164.8740016948926
 20
-158.5887694916028
 30
0.0
  0
SEQEND
  5
601
330
5FE
100
AcDbEntity
  8
Capa 1
370
     9
  0
SPLINE
  5
602
330
1F
100
AcDbEntity
  8
Capa 1
 62
     7
420
 16777215
370
     9
100
AcDbSpline
210
0.0
220
0.0
230
1.0
 70
     8
 71
     3
 72
     8
 73
     4
 74
     0
 42
0.0000000001
 43
0.0000000001
 40
0.0
 40
0.0
 40
0.0
 40
0.0
 40
1.0
 40
1.0
 40
1.0
 40
1.0
 10
155.0671928865804
 20
-150.9048285213016
 30
0.0
 10
154.4277831645181
 20
-152.1078558647508
 30
0.0
 10
154.4277831645181
 20
-153.5465277393912
 30
0.0
 10
155.0671928865804
 20
-154.7495550828404
 30
0.0
  0
SPLINE
  5
603
330
1F
100
AcDbEntity
  8
Capa 1
 62
     7
420
 16777215
370
     9
100
AcDbSpline
210
0.0
220
0.0
230
1.0
 70
     8
 71
     3
 72
     8
 73
     4
 74
     0
 42
0.0000000001
 43
0.0000000001
 40
0.0
 40
0.0
 40
0.0
 40
0.0
 40
1.0
 40
1.0
 40
1.0
 40
1.0
 10
175.5324381071586
 20
-145.336348433718
 30
0.0
 10
174.5974391924618
 20
-145.3408270578488
 30
0.0
 10
173.7933539062045
 20
-146.0043524483079
 30
0.0
 10
173.6148979600685
 20
-146.922470395127
 30
0.0
  0
SPLINE
  5
604
330
1F
100
AcDbEntity
  8
Capa 1
 62
     7
420
 16777215
370
     9
100
AcDbSpline
210
0.0
220
0.0
230
1.0
 70
     8
 71
     3
 72
    80
 73
    76
 74
     0
 42
0.0000000001
 43
0.0000000001
 40
0.0
 40
0.0
 40
0.0
 40
0.0
 40
1.0
 40
1.0
 40
1.0
 40
2.0
 40
2.0
 40
2.0
 40
3.0
 40
3.0
 40
3.0
 40
4.0
 40
4.0
 40
4.0
 40
5.0
 40
5.0
 40
5.0
 40
6.0
 40
6.0
 40
6.0
 40
7.0
 40
7.0
 40
7.0
 40
8.0
 40
8.0
 40
8.0
 40
9.0
 40
9.0
 40
9.0
 40
10.0
 40
10.0
 40
10.0
 40
11.0
 40
11.0
 40
11.0
 40
12.0
 40
12.0
 40
12.0
 40
13.0
 40
13.0
 40
13.0
 40
14.0
 40
14.0
 40
14.0
 40
15.0
 40
15.0
 40
15.0
 40
16.0
 40
16.0
 40
16.0
 40
17.0
 40
17.0
 40
17.0
 40
18.0
 40
18.0
 40
18.0
 40
19.0
 40
19.0
 40
19.0
 40
20.0
 40
20.0
 40
20.0
 40
21.0
 40
21.0
 40
21.0
 40
22.0
 40
22.0
 40
22.0
 40
23.0
 40
23.0
 40
23.0
 40
24.0
 40
24.0
 40
24.0
 40
25.0
 40
25.0
 40
25.0
 40
25.0
 10
194.0002169653888
 20
-143.6427394931692
 30
0.0
 10
193.5151475210657
 20
-143.6427394931692
 30
0.0
 10
193.0307670958395
 20
-143.6427394931692
 30
0.0
 10
192.5477647088075
 20
-143.6427394931692
 30
0.0
 10
191.5907171830051
 20
-143.6427394931692
 30
0.0
 10
190.6364257335909
 20
-143.6427394931692
 30
0.0
 10
189.6821342841767
 20
-143.6427394931692
 30
0.0
 10
188.8146592409908
 20
-143.6427394931692
 30
0.0
 10
187.9533853696783
 20
-143.6427394931692
 30
0.0
 10
187.0872883646865
 20
-143.6427394931692
 30
0.0
 10
186.3135199186994
 20
-143.6427394931692
 30
0.0
 10
185.5397514727123
 20
-143.6427394931692
 30
0.0
 10
184.7666720458222
 20
-143.6427394931692
 30
0.0
 10
184.2209689209587
 20
-143.6427394931692
 30
0.0
 10
183.6780218724833
 20
-143.6427394931692
 30
0.0
 10
183.1323187476197
 20
-143.6427394931692
 30
0.0
 10
182.6438042078113
 20
-143.6427394931692
 30
0.0
 10
182.1546006489058
 20
-143.6427394931692
 30
0.0
 10
181.6647080709033
 20
-143.6427394931692
 30
0.0
 10
181.2299370206647
 20
-143.6427394931692
 30
0.0
 10
180.7944769513292
 20
-143.6427394931692
 30
0.0
 10
180.3576388437995
 20
-143.6427394931692
 30
0.0
 10
179.9283799463373
 20
-143.6427394931692
 30
0.0
 10
179.4977430106811
 20
-143.6427394931692
 30
0.0
 10
179.0671060750249
 20
-143.6427394931692
 30
0.0
 10
178.6316460056893
 20
-143.6427394931692
 30
0.0
 10
178.1961859363537
 20
-143.6427394931692
 30
0.0
 10
177.758658809727
 20
-143.6427394931692
 30
0.0
 10
177.3163085494209
 20
-143.6427394931692
 30
0.0
 10
176.8732692700178
 20
-143.6427394931692
 30
0.0
 10
176.4295409715176
 20
-143.6427394931692
 30
0.0
 10
175.8170029942402
 20
-143.6427394931692
 30
0.0
 10
175.2003309023805
 20
-143.6427394931692
 30
0.0
 10
174.587103906006
 20
-143.6427394931692
 30
0.0
 10
173.9594075085935
 20
-143.6427394931692
 30
0.0
 10
173.332400130278
 20
-143.6472181173
 30
0.0
 10
172.7053927519625
 20
-143.6472181173
 30
0.0
 10
172.0652940108031
 20
-143.6472181173
 30
0.0
 10
171.4251952696437
 20
-143.6472181173
 30
0.0
 10
170.7871635857754
 20
-143.6472181173
 30
0.0
 10
170.1339734817721
 20
-143.6472181173
 30
0.0
 10
169.4821614159628
 20
-143.6472181173
 30
0.0
 10
168.8303493501535
 20
-143.6472181173
 30
0.0
 10
168.1495984822682
 20
-143.6472181173
 30
0.0
 10
167.4688476143828
 20
-143.6427394931692
 30
0.0
 10
166.7853406701092
 20
-143.6472181173
 30
0.0
 10
166.326453951474
 20
-143.6472181173
 30
0.0
 10
165.8655001755475
 20
-143.6472181173
 30
0.0
 10
165.4045463996211
 20
-143.6472181173
 30
0.0
 10
164.9218885221376
 20
-143.6427394931692
 30
0.0
 10
164.4364745682659
 20
-143.6344712640046
 30
0.0
 10
163.9520941430398
 20
-143.6472181173
 30
0.0
 10
163.4690917560077
 20
-143.6554863464646
 30
0.0
 10
162.9847113307816
 20
-143.6902818108656
 30
0.0
 10
162.5044650201378
 20
-143.7553941155369
 30
0.0
 10
161.9780544299916
 20
-143.8277411207271
 30
0.0
 10
161.4568114830733
 20
-143.9397067239977
 30
0.0
 10
160.9459038226107
 20
-144.0864677916693
 30
0.0
 10
160.5814127202713
 20
-144.1942992803577
 30
0.0
 10
160.2217447516112
 20
-144.3190117369237
 30
0.0
 10
159.8703450121158
 20
-144.4575045754308
 30
0.0
 10
159.5003417569999
 20
-144.6077107385877
 30
0.0
 10
159.1382622215002
 20
-144.7809990414957
 30
0.0
 10
158.784450915165
 20
-144.9660006690536
 30
0.0
 10
158.4178927555344
 20
-145.1640936594555
 30
0.0
 10
158.0602918441655
 20
-145.3838907514144
 30
0.0
 10
157.7157822956405
 20
-145.6212578303482
 30
0.0
 10
157.3599039320142
 20
-145.8668931384465
 30
0.0
 10
157.0178059503289
 20
-146.1342325481019
 30
0.0
 10
156.6905218792301
 20
-146.418452925635
 30
0.0
 10
156.3542805598698
 20
-146.7116305514297
 30
0.0
 10
156.0352647179356
 20
-147.026167769233
 30
0.0
 10
155.7376084680101
 20
-147.3579304644626
 30
0.0
 10
155.5887803430473
 20
-147.5263956336913
 30
0.0
 10
155.4440863326668
 20
-147.7031290320846
 30
0.0
 10
155.3066270228053
 20
-147.8839965450603
 30
0.0
  0
SPLINE
  5
605
330
1F
100
AcDbEntity
  8
Capa 1
 62
     7
420
 16777215
370
     9
100
AcDbSpline
210
0.0
220
0.0
230
1.0
 70
     8
 71
     3
 72
    11
 73
     7
 74
     0
 42
0.0000000001
 43
0.0000000001
 40
0.0
 40
0.0
 40
0.0
 40
0.0
 40
1.0
 40
1.0
 40
1.0
 40
2.0
 40
2.0
 40
2.0
 40
2.0
 10
171.8599663198822
 20
-146.8969766885362
 30
0.0
 10
172.1018120229468
 20
-146.418452925635
 30
0.0
 10
172.711593923836
 20
-145.8713717625773
 30
0.0
 10
173.2159559028766
 20
-145.6688001480446
 30
0.0
 10
173.7203178819171
 20
-145.4617499093811
 30
0.0
 10
174.7373100691629
 20
-145.336348433718
 30
0.0
 10
175.4077256505925
 20
-145.336348433718
 30
0.0
  0
SPLINE
  5
606
330
1F
100
AcDbEntity
  8
Capa 1
 62
     7
420
 16777215
370
     9
100
AcDbSpline
210
0.0
220
0.0
230
1.0
 70
     8
 71
     3
 72
    17
 73
    13
 74
     0
 42
0.0000000001
 43
0.0000000001
 40
0.0
 40
0.0
 40
0.0
 40
0.0
 40
1.0
 40
1.0
 40
1.0
 40
2.0
 40
2.0
 40
2.0
 40
3.0
 40
3.0
 40
3.0
 40
4.0
 40
4.0
 40
4.0
 40
4.0
 10
155.0671928865804
 20
-150.9048285213016
 30
0.0
 10
155.0671928865804
 20
-150.9048285213016
 30
0.0
 10
155.1192138284077
 20
-151.1163573840959
 30
0.0
 10
155.1729573179776
 20
-151.4698241808825
 30
0.0
 10
155.2287678648387
 20
-151.8226019585721
 30
0.0
 10
155.2807888066659
 20
-152.3221408039334
 30
0.0
 10
155.2807888066659
 20
-152.827191802071
 30
0.0
 10
155.2807888066659
 20
-153.3274196665293
 30
0.0
 10
155.2287678648387
 20
-153.8269585118905
 30
0.0
 10
155.1729573179776
 20
-154.1845594232594
 30
0.0
 10
155.116802261568
 20
-154.5428493537254
 30
0.0
 10
155.0671928865804
 20
-154.7495550828404
 30
0.0
 10
155.0671928865804
 20
-154.7495550828404
 30
0.0
  0
SPLINE
  5
607
330
1F
100
AcDbEntity
  8
Capa 1
 62
     7
420
 16777215
370
     9
100
AcDbSpline
210
0.0
220
0.0
230
1.0
 70
     8
 71
     3
 72
    11
 73
     7
 74
     0
 42
0.0000000001
 43
0.0000000001
 40
0.0
 40
0.0
 40
0.0
 40
0.0
 40
1.0
 40
1.0
 40
1.0
 40
2.0
 40
2.0
 40
2.0
 40
2.0
 10
172.7742946616675
 20
-143.8112046623979
 30
0.0
 10
173.08435325534
 20
-143.7553941155369
 30
0.0
 10
173.580447005216
 20
-143.7250772752666
 30
0.0
 10
174.1881618488141
 20
-143.7030286641611
 30
0.0
 10
174.7951876733151
 20
-143.6858031867348
 30
0.0
 10
175.5172796870235
 20
-143.6775349575702
 30
0.0
 10
176.2476399298964
 20
-143.6775349575702
 30
0.0
  0
SPLINE
  5
608
330
1F
100
AcDbEntity
  8
Capa 1
 62
     7
420
 16777215
370
     9
100
AcDbSpline
210
0.0
220
0.0
230
1.0
 70
     8
 71
     3
 72
    29
 73
    25
 74
     0
 42
0.0000000001
 43
0.0000000001
 40
0.0
 40
0.0
 40
0.0
 40
0.0
 40
1.0
 40
1.0
 40
1.0
 40
2.0
 40
2.0
 40
2.0
 40
3.0
 40
3.0
 40
3.0
 40
4.0
 40
4.0
 40
4.0
 40
5.0
 40
5.0
 40
5.0
 40
6.0
 40
6.0
 40
6.0
 40
7.0
 40
7.0
 40
7.0
 40
8.0
 40
8.0
 40
8.0
 40
8.0
 10
155.0671928865804
 20
-148.1809637758888
 30
0.0
 10
155.0692599438716
 20
-148.1809637758888
 30
0.0
 10
155.2590847051088
 20
-147.9398070919213
 30
0.0
 10
155.5846462284649
 20
-147.5990871484301
 30
0.0
 10
155.9098632422725
 20
-147.2542330903566
 30
0.0
 10
156.3797742664606
 20
-146.8191175305695
 30
0.0
 10
156.9571722697885
 20
-146.4012274482087
 30
0.0
 10
157.5345702731164
 20
-145.9833373658479
 30
0.0
 10
158.2418483762382
 20
-145.5644137548416
 30
0.0
 10
159.0517903248204
 20
-145.2161146012828
 30
0.0
 10
159.8620767829512
 20
-144.8709160336608
 30
0.0
 10
160.7950086403568
 20
-144.5956529043893
 30
0.0
 10
161.7803059491383
 20
-144.4354559643252
 30
0.0
 10
162.2715765653349
 20
-144.3582858254556
 30
0.0
 10
162.7780056016666
 20
-144.3107435077591
 30
0.0
 10
163.2968369817452
 20
-144.2935180303329
 30
0.0
 10
163.8163573809209
 20
-144.2766370624552
 30
0.0
 10
164.3420789519701
 20
-144.2979966544637
 30
0.0
 10
164.8588432747575
 20
-144.3069539027254
 30
0.0
 10
165.8958170158177
 20
-144.3234903610546
 30
0.0
 10
166.9190103749369
 20
-144.3107435077591
 30
0.0
 10
167.8567653660219
 20
-144.2721584383243
 30
0.0
 10
169.733653386386
 20
-144.1905096753239
 30
0.0
 10
171.2956596793983
 20
-143.9745021883987
 30
0.0
 10
172.1789821618164
 20
-143.8194728915625
 30
0.0
  0
SPLINE
  5
609
330
1F
100
AcDbEntity
  8
Capa 1
 62
     7
420
 16777215
370
     9
100
AcDbSpline
210
0.0
220
0.0
230
1.0
 70
     8
 71
     3
 72
     8
 73
     4
 74
     0
 42
0.0000000001
 43
0.0000000001
 40
0.0
 40
0.0
 40
0.0
 40
0.0
 40
1.0
 40
1.0
 40
1.0
 40
1.0
 10
193.5344400557831
 20
-145.336348433718
 30
0.0
 10
196.0252440916187
 20
-145.2078463721182
 30
0.0
 10
198.4995116691251
 20
-144.8450778175214
 30
0.0
 10
200.9255479098381
 20
-144.2549329608981
 30
0.0
  0
SPLINE
  5
60A
330
1F
100
AcDbEntity
  8
Capa 1
 62
     7
420
 16777215
370
     9
100
AcDbSpline
210
0.0
220
0.0
230
1.0
 70
     8
 71
     3
 72
     8
 73
     4
 74
     0
 42
0.0000000001
 43
0.0000000001
 40
0.0
 40
0.0
 40
0.0
 40
0.0
 40
1.0
 40
1.0
 40
1.0
 40
1.0
 10
200.9255479098381
 20
-144.2549329608981
 30
0.0
 10
201.0978026841006
 20
-144.2118692673324
 30
0.0
 10
201.2190700451814
 20
-144.06062957553
 30
0.0
 10
201.2190700451814
 20
-143.8838961771367
 30
0.0
  0
POLYLINE
  5
60B
330
1F
100
AcDbEntity
  8
Capa 1
 62
     7
420
 16777215
370
     9
100
AcDb2dPolyline
 66
     1
 10
0.0
 20
0.0
 30
0.0
  0
VERTEX
  5
60C
330
60B
100
AcDbEntity
  8
Capa 1
 62
     7
420
 16777215
370
     9
100
AcDbVertex
100
AcDb2dVertex
 10
201.2190700451814
 20
-143.8838961771367
 30
0.0
  0
VERTEX
  5
60D
330
60B
100
AcDbEntity
  8
Capa 1
 62
     7
420
 16777215
370
     9
100
AcDbVertex
100
AcDb2dVertex
 10
201.2190700451814
 20
-143.143200647808
 30
0.0
  0
SEQEND
  5
60E
330
60B
100
AcDbEntity
  8
Capa 1
370
     9
  0
SPLINE
  5
60F
330
1F
100
AcDbEntity
  8
Capa 1
 62
     7
420
 16777215
370
     9
100
AcDbSpline
210
0.0
220
0.0
230
1.0
 70
     8
 71
     3
 72
     8
 73
     4
 74
     0
 42
0.0000000001
 43
0.0000000001
 40
0.0
 40
0.0
 40
0.0
 40
0.0
 40
1.0
 40
1.0
 40
1.0
 40
1.0
 10
193.5344400557831
 20
-143.6427394931692
 30
0.0
 10
195.9652994301753
 20
-143.6647881042748
 30
0.0
 10
198.3858235181119
 20
-143.3712659689315
 30
0.0
 10
200.7402017727316
 20
-142.7728528831436
 30
0.0
  0
SPLINE
  5
610
330
1F
100
AcDbEntity
  8
Capa 1
 62
     7
420
 16777215
370
     9
100
AcDbSpline
210
0.0
220
0.0
230
1.0
 70
     8
 71
     3
 72
    11
 73
     7
 74
     0
 42
0.0000000001
 43
0.0000000001
 40
0.0
 40
0.0
 40
0.0
 40
0.0
 40
1.0
 40
1.0
 40
1.0
 40
2.0
 40
2.0
 40
2.0
 40
2.0
 10
201.2190700451814
 20
-143.143200647808
 30
0.0
 10
201.2190700451814
 20
-142.9316717850136
 30
0.0
 10
201.0468152709189
 20
-142.7594170107511
 30
0.0
 10
200.8359754272216
 20
-142.7594170107511
 30
0.0
 10
200.800835453272
 20
-142.7594170107511
 30
0.0
 10
200.7705186130018
 20
-142.7638956348819
 30
0.0
 10
200.7402017727316
 20
-142.7728528831436
 30
0.0
  0
POLYLINE
  5
611
330
1F
100
AcDbEntity
  8
Capa 1
 62
     7
420
 16777215
370
     9
100
AcDb2dPolyline
 66
     1
 10
0.0
 20
0.0
 30
0.0
  0
VERTEX
  5
612
330
611
100
AcDbEntity
  8
Capa 1
 62
     7
420
 16777215
370
     9
100
AcDbVertex
100
AcDb2dVertex
 10
164.8740016948926
 20
-158.5887694916028
 30
0.0
  0
VERTEX
  5
613
330
611
100
AcDbEntity
  8
Capa 1
 62
     7
420
 16777215
370
     9
100
AcDbVertex
100
AcDb2dVertex
 10
155.0671928865804
 20
-155.7486327735629
 30
0.0
  0
SEQEND
  5
614
330
611
100
AcDbEntity
  8
Capa 1
370
     9
  0
POLYLINE
  5
615
330
1F
100
AcDbEntity
  8
Capa 1
 62
     7
420
 16777215
370
     9
100
AcDb2dPolyline
 66
     1
 10
0.0
 20
0.0
 30
0.0
  0
VERTEX
  5
616
330
615
100
AcDbEntity
  8
Capa 1
 62
     7
420
 16777215
370
     9
100
AcDbVertex
100
AcDb2dVertex
 10
155.0671928865804
 20
-160.5159559060516
 30
0.0
  0
VERTEX
  5
617
330
615
100
AcDbEntity
  8
Capa 1
 62
     7
420
 16777215
370
     9
100
AcDbVertex
100
AcDb2dVertex
 10
173.5067219618317
 20
-160.5159559060516
 30
0.0
  0
SEQEND
  5
618
330
615
100
AcDbEntity
  8
Capa 1
370
     9
  0
POLYLINE
  5
619
330
1F
100
AcDbEntity
  8
Capa 1
370
     0
100
AcDb2dPolyline
 66
     1
 10
0.0
 20
0.0
 30
0.0
  0
VERTEX
  5
61A
330
619
100
AcDbEntity
  8
Capa 1
370
     0
100
AcDbVertex
100
AcDb2dVertex
 10
130.1936034830766
 20
-172.2995605038001
 30
0.0
  0
VERTEX
  5
61B
330
619
100
AcDbEntity
  8
Capa 1
370
     0
100
AcDbVertex
100
AcDb2dVertex
 10
138.6451117274915
 20
-172.2995605038001
 30
0.0
  0
SEQEND
  5
61C
330
619
100
AcDbEntity
  8
Capa 1
370
     0
  0
POLYLINE
  5
61D
330
1F
100
AcDbEntity
  8
Capa 1
370
     0
100
AcDb2dPolyline
 66
     1
 10
0.0
 20
0.0
 30
0.0
  0
VERTEX
  5
61E
330
61D
100
AcDbEntity
  8
Capa 1
370
     0
100
AcDbVertex
100
AcDb2dVertex
 10
130.1936034830766
 20
-178.4449218303888
 30
0.0
  0
VERTEX
  5
61F
330
61D
100
AcDbEntity
  8
Capa 1
370
     0
100
AcDbVertex
100
AcDb2dVertex
 10
138.6451117274915
 20
-178.4449218303888
 30
0.0
  0
SEQEND
  5
620
330
61D
100
AcDbEntity
  8
Capa 1
370
     0
  0
POLYLINE
  5
621
330
1F
100
AcDbEntity
  8
Capa 1
370
     0
100
AcDb2dPolyline
 66
     1
 10
0.0
 20
0.0
 30
0.0
  0
VERTEX
  5
622
330
621
100
AcDbEntity
  8
Capa 1
370
     0
100
AcDbVertex
100
AcDb2dVertex
 10
67.0706691998122
 20
-166.4801052101161
 30
0.0
  0
VERTEX
  5
623
330
621
100
AcDbEntity
  8
Capa 1
370
     0
100
AcDbVertex
100
AcDb2dVertex
 10
67.0706691998122
 20
-174.931613454531
 30
0.0
  0
SEQEND
  5
624
330
621
100
AcDbEntity
  8
Capa 1
370
     0
  0
POLYLINE
  5
625
330
1F
100
AcDbEntity
  8
Capa 1
370
     0
100
AcDb2dPolyline
 66
     1
 10
0.0
 20
0.0
 30
0.0
  0
VERTEX
  5
626
330
625
100
AcDbEntity
  8
Capa 1
370
     0
100
AcDbVertex
100
AcDb2dVertex
 10
60.92479110890075
 20
-166.4801052101161
 30
0.0
  0
VERTEX
  5
627
330
625
100
AcDbEntity
  8
Capa 1
370
     0
100
AcDbVertex
100
AcDb2dVertex
 10
60.92479110890075
 20
-174.931613454531
 30
0.0
  0
SEQEND
  5
628
330
625
100
AcDbEntity
  8
Capa 1
370
     0
  0
POLYLINE
  5
629
330
1F
100
AcDbEntity
  8
Capa 1
370
     0
100
AcDb2dPolyline
 66
     1
 10
0.0
 20
0.0
 30
0.0
  0
VERTEX
  5
62A
330
629
100
AcDbEntity
  8
Capa 1
370
     0
100
AcDbVertex
100
AcDb2dVertex
 10
9.254732256800901
 20
-166.4801052101161
 30
0.0
  0
VERTEX
  5
62B
330
629
100
AcDbEntity
  8
Capa 1
370
     0
100
AcDbVertex
100
AcDb2dVertex
 10
9.254732256800901
 20
-174.931613454531
 30
0.0
  0
SEQEND
  5
62C
330
629
100
AcDbEntity
  8
Capa 1
370
     0
  0
POLYLINE
  5
62D
330
1F
100
AcDbEntity
  8
Capa 1
370
     0
100
AcDb2dPolyline
 66
     1
 10
0.0
 20
0.0
 30
0.0
  0
VERTEX
  5
62E
330
62D
100
AcDbEntity
  8
Capa 1
370
     0
100
AcDbVertex
100
AcDb2dVertex
 10
3.104547796532891
 20
-166.4801052101161
 30
0.0
  0
VERTEX
  5
62F
330
62D
100
AcDbEntity
  8
Capa 1
370
     0
100
AcDbVertex
100
AcDb2dVertex
 10
3.104547796532891
 20
-174.931613454531
 30
0.0
  0
SEQEND
  5
630
330
62D
100
AcDbEntity
  8
Capa 1
370
     0
  0
POLYLINE
  5
631
330
1F
100
AcDbEntity
  8
Capa 1
370
     0
100
AcDb2dPolyline
 66
     1
 10
0.0
 20
0.0
 30
0.0
  0
VERTEX
  5
632
330
631
100
AcDbEntity
  8
Capa 1
370
     0
100
AcDbVertex
100
AcDb2dVertex
 10
197.8056694383958
 20
-181.8714138000183
 30
0.0
  0
VERTEX
  5
633
330
631
100
AcDbEntity
  8
Capa 1
370
     0
100
AcDbVertex
100
AcDb2dVertex
 10
197.8056694383958
 20
-182.4825737391016
 30
0.0
  0
SEQEND
  5
634
330
631
100
AcDbEntity
  8
Capa 1
370
     0
  0
POLYLINE
  5
635
330
1F
100
AcDbEntity
  8
Capa 1
370
     0
100
AcDb2dPolyline
 66
     1
 10
0.0
 20
0.0
 30
0.0
  0
VERTEX
  5
636
330
635
100
AcDbEntity
  8
Capa 1
370
     0
100
AcDbVertex
100
AcDb2dVertex
 10
197.8056694383958
 20
-181.8714138000183
 30
0.0
  0
VERTEX
  5
637
330
635
100
AcDbEntity
  8
Capa 1
370
     0
100
AcDbVertex
100
AcDb2dVertex
 10
198.0213324157725
 20
-182.6851453536343
 30
0.0
  0
SEQEND
  5
638
330
635
100
AcDbEntity
  8
Capa 1
370
     0
  0
POLYLINE
  5
639
330
1F
100
AcDbEntity
  8
Capa 1
370
     0
100
AcDb2dPolyline
 66
     1
 10
0.0
 20
0.0
 30
0.0
  0
VERTEX
  5
63A
330
639
100
AcDbEntity
  8
Capa 1
370
     0
100
AcDbVertex
100
AcDb2dVertex
 10
185.4928981741129
 20
-187.0638617153868
 30
0.0
  0
VERTEX
  5
63B
330
639
100
AcDbEntity
  8
Capa 1
370
     0
100
AcDbVertex
100
AcDb2dVertex
 10
185.4928981741129
 20
-191.6196559850812
 30
0.0
  0
SEQEND
  5
63C
330
639
100
AcDbEntity
  8
Capa 1
370
     0
  0
POLYLINE
  5
63D
330
1F
100
AcDbEntity
  8
Capa 1
370
     0
100
AcDb2dPolyline
 66
     1
 10
0.0
 20
0.0
 30
0.0
  0
VERTEX
  5
63E
330
63D
100
AcDbEntity
  8
Capa 1
370
     0
100
AcDbVertex
100
AcDb2dVertex
 10
178.8493760403571
 20
-187.0638617153868
 30
0.0
  0
VERTEX
  5
63F
330
63D
100
AcDbEntity
  8
Capa 1
370
     0
100
AcDbVertex
100
AcDb2dVertex
 10
178.8493760403571
 20
-191.6196559850812
 30
0.0
  0
SEQEND
  5
640
330
63D
100
AcDbEntity
  8
Capa 1
370
     0
  0
INSERT
  5
642
330
1F
100
AcDbEntity
  8
Capa 1
100
AcDbBlockReference
  2
block 2
 10
0.0
 20
0.0
 30
0.0
  0
INSERT
  5
64A
330
1F
100
AcDbEntity
  8
Capa 1
100
AcDbBlockReference
  2
block 3
 10
0.0
 20
0.0
 30
0.0
  0
INSERT
  5
652
330
1F
100
AcDbEntity
  8
Capa 1
100
AcDbBlockReference
  2
block 4
 10
0.0
 20
0.0
 30
0.0
  0
INSERT
  5
65A
330
1F
100
AcDbEntity
  8
Capa 1
100
AcDbBlockReference
  2
block 5
 10
0.0
 20
0.0
 30
0.0
  0
INSERT
  5
662
330
1F
100
AcDbEntity
  8
Capa 1
100
AcDbBlockReference
  2
block 6
 10
0.0
 20
0.0
 30
0.0
  0
INSERT
  5
66A
330
1F
100
AcDbEntity
  8
Capa 1
100
AcDbBlockReference
  2
block 7
 10
0.0
 20
0.0
 30
0.0
  0
INSERT
  5
672
330
1F
100
AcDbEntity
  8
Capa 1
100
AcDbBlockReference
  2
block 8
 10
0.0
 20
0.0
 30
0.0
  0
INSERT
  5
67A
330
1F
100
AcDbEntity
  8
Capa 1
100
AcDbBlockReference
  2
block 9
 10
0.0
 20
0.0
 30
0.0
  0
INSERT
  5
682
330
1F
100
AcDbEntity
  8
Capa 1
100
AcDbBlockReference
  2
block 10
 10
0.0
 20
0.0
 30
0.0
  0
INSERT
  5
68A
330
1F
100
AcDbEntity
  8
Capa 1
100
AcDbBlockReference
  2
block 11
 10
0.0
 20
0.0
 30
0.0
  0
INSERT
  5
692
330
1F
100
AcDbEntity
  8
Capa 1
100
AcDbBlockReference
  2
block 12
 10
0.0
 20
0.0
 30
0.0
  0
INSERT
  5
69A
330
1F
100
AcDbEntity
  8
Capa 1
100
AcDbBlockReference
  2
block 13
 10
0.0
 20
0.0
 30
0.0
  0
INSERT
  5
6A2
330
1F
100
AcDbEntity
  8
Capa 1
100
AcDbBlockReference
  2
block 14
 10
0.0
 20
0.0
 30
0.0
  0
INSERT
  5
6AA
330
1F
100
AcDbEntity
  8
Capa 1
100
AcDbBlockReference
  2
block 15
 10
0.0
 20
0.0
 30
0.0
  0
INSERT
  5
6B2
330
1F
100
AcDbEntity
  8
Capa 1
100
AcDbBlockReference
  2
block 16
 10
0.0
 20
0.0
 30
0.0
  0
INSERT
  5
6BA
330
1F
100
AcDbEntity
  8
Capa 1
100
AcDbBlockReference
  2
block 17
 10
0.0
 20
0.0
 30
0.0
  0
INSERT
  5
6C2
330
1F
100
AcDbEntity
  8
Capa 1
100
AcDbBlockReference
  2
block 18
 10
0.0
 20
0.0
 30
0.0
  0
INSERT
  5
6CA
330
1F
100
AcDbEntity
  8
Capa 1
100
AcDbBlockReference
  2
block 19
 10
0.0
 20
0.0
 30
0.0
  0
ENDSEC
  0
SECTION
  2
OBJECTS
  0
DICTIONARY
  5
C
330
0
100
AcDbDictionary
281
     1
  3
ACAD_GROUP
350
D
  3
ACAD_LAYOUT
350
1A
  3
ACAD_MLINESTYLE
350
17
  3
ACAD_PLOTSETTINGS
350
19
  3
ACAD_PLOTSTYLENAME
350
E
  3
ACAD_TABLESTYLE
350
6D1
  3
ACAD_VISUALSTYLE
350
2A
  0
DICTIONARY
  5
D
102
{ACAD_REACTORS
330
C
102
}
330
C
100
AcDbDictionary
281
     1
  0
DICTIONARY
  5
1A
102
{ACAD_REACTORS
330
C
102
}
330
C
100
AcDbDictionary
281
     1
  3
Layout1
350
1E
  3
Layout2
350
26
  3
Model
350
22
  0
DICTIONARY
  5
17
102
{ACAD_REACTORS
330
C
102
}
330
C
100
AcDbDictionary
281
     1
  3
Standard
350
18
  0
DICTIONARY
  5
19
102
{ACAD_REACTORS
330
C
102
}
330
C
100
AcDbDictionary
281
     1
  0
ACDBDICTIONARYWDFLT
  5
E
102
{ACAD_REACTORS
330
C
102
}
330
C
100
AcDbDictionary
281
     1
  3
Normal
350
F
100
AcDbDictionaryWithDefault
340
F
  0
DICTIONARY
  5
6D1
102
{ACAD_REACTORS
330
C
102
}
330
C
100
AcDbDictionary
281
     1
  0
DICTIONARY
  5
2A
102
{ACAD_REACTORS
330
C
102
}
330
C
100
AcDbDictionary
281
     1
  3
2dWireframe
350
2F
  3
3D Hidden
350
31
  3
3dWireframe
350
30
  3
Basic
350
32
  3
Brighten
350
36
  3
ColorChange
350
3A
  3
Conceptual
350
34
  3
Dim
350
35
  3
Facepattern
350
39
  3
Flat
350
2B
  3
FlatWithEdges
350
2C
  3
Gouraud
350
2D
  3
GouraudWithEdges
350
2E
  3
Linepattern
350
38
  3
Realistic
350
33
  3
Thicken
350
37
  0
LAYOUT
  5
1E
102
{ACAD_REACTORS
330
1A
102
}
330
1A
100
AcDbPlotSettings
  1

  2
none_device
  4

  6

 40
0.0
 41
0.0
 42
0.0
 43
0.0
 44
0.0
 45
0.0
 46
0.0
 47
0.0
 48
0.0
 49
0.0
140
0.0
141
0.0
142
1.0
143
1.0
 70
   688
 72
     0
 73
     0
 74
     5
  7

 75
    16
 76
     0
 77
     2
 78
   300
147
1.0
148
0.0
149
0.0
100
AcDbLayout
  1
Layout1
 70
     1
 71
     1
 10
0.0
 20
0.0
 11
12.0
 21
9.0
 12
0.0
 22
0.0
 32
0.0
 14
1.000000000000000E+20
 24
1.000000000000000E+20
 34
1.000000000000000E+20
 15
-1.000000000000000E+20
 25
-1.000000000000000E+20
 35
-1.000000000000000E+20
146
0.0
 13
0.0
 23
0.0
 33
0.0
 16
1.0
 26
0.0
 36
0.0
 17
0.0
 27
1.0
 37
0.0
 76
     0
330
1B
  0
LAYOUT
  5
26
102
{ACAD_REACTORS
330
1A
102
}
330
1A
100
AcDbPlotSettings
  1

  2
none_device
  4

  6

 40
0.0
 41
0.0
 42
0.0
 43
0.0
 44
0.0
 45
0.0
 46
0.0
 47
0.0
 48
0.0
 49
0.0
140
0.0
141
0.0
142
1.0
143
1.0
 70
   688
 72
     0
 73
     0
 74
     5
  7

 75
    16
 76
     0
 77
     2
 78
   300
147
1.0
148
0.0
149
0.0
100
AcDbLayout
  1
Layout2
 70
     1
 71
     2
 10
0.0
 20
0.0
 11
0.0
 21
0.0
 12
0.0
 22
0.0
 32
0.0
 14
0.0
 24
0.0
 34
0.0
 15
0.0
 25
0.0
 35
0.0
146
0.0
 13
0.0
 23
0.0
 33
0.0
 16
1.0
 26
0.0
 36
0.0
 17
0.0
 27
1.0
 37
0.0
 76
     0
330
23
  0
LAYOUT
  5
22
102
{ACAD_REACTORS
330
1A
102
}
330
1A
100
AcDbPlotSettings
  1

  2
none_device
  4

  6

 40
0.0
 41
0.0
 42
0.0
 43
0.0
 44
0.0
 45
0.0
 46
0.0
 47
0.0
 48
0.0
 49
0.0
140
0.0
141
0.0
142
1.0
143
1.0
 70
  1712
 72
     0
 73
     0
 74
     0
  7

 75
     0
 76
     0
 77
     2
 78
   300
147
1.0
148
0.0
149
0.0
100
AcDbLayout
  1
Model
 70
     1
 71
     0
 10
0.0
 20
0.0
 11
12.0
 21
9.0
 12
0.0
 22
0.0
 32
0.0
 14
1.000000000000000E+20
 24
1.000000000000000E+20
 34
1.000000000000000E+20
 15
-1.000000000000000E+20
 25
-1.000000000000000E+20
 35
-1.000000000000000E+20
146
0.0
 13
0.0
 23
0.0
 33
0.0
 16
1.0
 26
0.0
 36
0.0
 17
0.0
 27
1.0
 37
0.0
 76
     0
330
1F
331
29
  0
MLINESTYLE
  5
18
102
{ACAD_REACTORS
330
17
102
}
330
17
100
AcDbMlineStyle
  2
Standard
 70
     0
  3

 62
   256
 51
90.0
 52
90.0
 71
     2
 49
0.5
 62
   256
  6
BYLAYER
 49
-0.5
 62
   256
  6
BYLAYER
  0
ACDBPLACEHOLDER
  5
F
102
{ACAD_REACTORS
330
E
102
}
330
E
  0
VISUALSTYLE
  5
2F
102
{ACAD_REACTORS
330
2A
102
}
330
2A
100
AcDbVisualStyle
  2
2dWireframe
 70
     4
 71
     0
 72
     2
 73
     0
 90
        0
 40
-0.6
 41
-30.0
 62
     5
 63
     7
421
 16777215
 74
     1
 91
        4
 64
     7
 65
   257
 75
     1
175
     1
 42
1.0
 92
        0
 66
   257
 43
1.0
 76
     1
 77
     6
 78
     2
 67
     7
 79
     5
170
     0
171
     0
290
     0
174
     0
 93
        1
 44
0.0
173
     0
291
     0
 45
0.0
1001
ACAD
1000
AcDbSavedByObjectVersion
1070
     0
  0
VISUALSTYLE
  5
31
102
{ACAD_REACTORS
330
2A
102
}
330
2A
100
AcDbVisualStyle
  2
3D Hidden
 70
     6
 71
     1
 72
     2
 73
     2
 90
        0
 40
-0.6
 41
-30.0
 62
     5
 63
     7
421
 16777215
 74
     2
 91
        2
 64
     7
 65
   257
 75
     2
175
     1
 42
40.0
 92
        0
 66
   257
 43
1.0
 76
     1
 77
     6
 78
     2
 67
     7
 79
     3
170
     0
171
     0
290
     0
174
     0
 93
        1
 44
0.0
173
     0
291
     0
 45
0.0
1001
ACAD
1000
AcDbSavedByObjectVersion
1070
     0
  0
VISUALSTYLE
  5
30
102
{ACAD_REACTORS
330
2A
102
}
330
2A
100
AcDbVisualStyle
  2
3dWireframe
 70
     5
 71
     0
 72
     2
 73
     0
 90
        0
 40
-0.6
 41
-30.0
 62
     5
 63
     7
421
 16777215
 74
     1
 91
        4
 64
     7
 65
   257
 75
     1
175
     1
 42
1.0
 92
        0
 66
   257
 43
1.0
 76
     1
 77
     6
 78
     2
 67
     7
 79
     5
170
     0
171
     0
290
     0
174
     0
 93
        1
 44
0.0
173
     0
291
     0
 45
0.0
1001
ACAD
1000
AcDbSavedByObjectVersion
1070
     0
  0
VISUALSTYLE
  5
32
102
{ACAD_REACTORS
330
2A
102
}
330
2A
100
AcDbVisualStyle
  2
Basic
 70
     7
 71
     1
 72
     0
 73
     1
 90
        0
 40
-0.6
 41
-30.0
 62
     5
 63
     7
421
 16777215
 74
     0
 91
        4
 64
     7
 65
   257
 75
     1
175
     1
 42
1.0
 92
        8
 66
     7
 43
1.0
 76
     1
 77
     6
 78
     2
 67
     7
 79
     5
170
     0
171
     0
290
     0
174
     0
 93
        1
 44
0.0
173
     0
291
     1
 45
0.0
1001
ACAD
1000
AcDbSavedByObjectVersion
1070
     0
  0
VISUALSTYLE
  5
36
102
{ACAD_REACTORS
330
2A
102
}
330
2A
100
AcDbVisualStyle
  2
Brighten
 70
    12
 71
     2
 72
     2
 73
     0
 90
        0
 40
-0.6
 41
-30.0
 62
     5
 63
     7
421
 16777215
 74
     1
 91
        4
 64
     7
 65
   257
 75
     1
175
     1
 42
1.0
 92
        8
 66
     7
 43
1.0
 76
     1
 77
     6
 78
     2
 67
     7
 79
     5
170
     0
171
     0
290
     0
174
     0
 93
        1
 44
50.0
173
     0
291
     1
 45
0.0
1001
ACAD
1000
AcDbSavedByObjectVersion
1070
     0
  0
VISUALSTYLE
  5
3A
102
{ACAD_REACTORS
330
2A
102
}
330
2A
100
AcDbVisualStyle
  2
ColorChange
 70
    16
 71
     2
 72
     2
 73
     3
 90
        0
 40
-0.6
 41
-30.0
 62
     5
 63
     8
421
  8421504
 74
     1
 91
        4
 64
     7
 65
   257
 75
     1
175
     1
 42
1.0
 92
        8
 66
     8
424
  8421504
 43
1.0
 76
     1
 77
     6
 78
     2
 67
     7
 79
     5
170
     0
171
     0
290
     0
174
     0
 93
        1
 44
0.0
173
     0
291
     1
 45
0.0
1001
ACAD
1000
AcDbSavedByObjectVersion
1070
     0
  0
VISUALSTYLE
  5
34
102
{ACAD_REACTORS
330
2A
102
}
330
2A
100
AcDbVisualStyle
  2
Conceptual
 70
     9
 71
     3
 72
     2
 73
     0
 90
        0
 40
-0.6
 41
-30.0
 62
     5
 63
     7
421
 16777215
 74
     2
 91
        2
 64
     7
 65
   257
 75
     1
175
     1
 42
40.0
 92
        8
 66
     7
 43
1.0
 76
     1
 77
     6
 78
     2
 67
     7
 79
     3
170
     0
171
     0
290
     0
174
     0
 93
        1
 44
0.0
173
     0
291
     0
 45
0.0
1001
ACAD
1000
AcDbSavedByObjectVersion
1070
     0
  0
VISUALSTYLE
  5
35
102
{ACAD_REACTORS
330
2A
102
}
330
2A
100
AcDbVisualStyle
  2
Dim
 70
    11
 71
     2
 72
     2
 73
     0
 90
        0
 40
-0.6
 41
-30.0
 62
     5
 63
     7
421
 16777215
 74
     1
 91
        4
 64
     7
 65
   257
 75
     1
175
     1
 42
1.0
 92
        8
 66
     7
 43
1.0
 76
     1
 77
     6
 78
     2
 67
     7
 79
     5
170
     0
171
     0
290
     0
174
     0
 93
        1
 44
-50.0
173
     0
291
     1
 45
0.0
1001
ACAD
1000
AcDbSavedByObjectVersion
1070
     0
  0
VISUALSTYLE
  5
39
102
{ACAD_REACTORS
330
2A
102
}
330
2A
100
AcDbVisualStyle
  2
Facepattern
 70
    15
 71
     2
 72
     2
 73
     0
 90
        0
 40
-0.6
 41
-30.0
 62
     5
 63
     7
421
 16777215
 74
     1
 91
        4
 64
     7
 65
   257
 75
     1
175
     1
 42
1.0
 92
        8
 66
     7
 43
1.0
 76
     1
 77
     6
 78
     2
 67
     7
 79
     5
170
     0
171
     0
290
     0
174
     0
 93
        1
 44
0.0
173
     0
291
     1
 45
0.0
1001
ACAD
1000
AcDbSavedByObjectVersion
1070
     0
  0
VISUALSTYLE
  5
2B
102
{ACAD_REACTORS
330
2A
102
}
330
2A
100
AcDbVisualStyle
  2
Flat
 70
     0
 71
     2
 72
     1
 73
     1
 90
        2
 40
-0.6
 41
30.0
 62
     5
 63
     7
421
 16777215
 74
     0
 91
        4
 64
     7
 65
   257
 75
     1
175
     1
 42
1.0
 92
        8
 66
     7
 43
1.0
 76
     1
 77
     6
 78
     2
 67
     7
 79
     5
170
     0
171
     0
290
     0
174
     0
 93
       13
 44
0.0
173
     0
291
     1
 45
0.0
1001
ACAD
1000
AcDbSavedByObjectVersion
1070
     0
  0
VISUALSTYLE
  5
2C
102
{ACAD_REACTORS
330
2A
102
}
330
2A
100
AcDbVisualStyle
  2
FlatWithEdges
 70
     1
 71
     2
 72
     1
 73
     1
 90
        2
 40
-0.6
 41
30.0
 62
     5
 63
     7
421
 16777215
 74
     1
 91
        4
 64
     7
 65
   257
 75
     1
175
     1
 42
1.0
 92
        0
 66
   257
 43
1.0
 76
     1
 77
     6
 78
     2
 67
     7
 79
     5
170
     0
171
     0
290
     0
174
     0
 93
       13
 44
0.0
173
     0
291
     1
 45
0.0
1001
ACAD
1000
AcDbSavedByObjectVersion
1070
     0
  0
VISUALSTYLE
  5
2D
102
{ACAD_REACTORS
330
2A
102
}
330
2A
100
AcDbVisualStyle
  2
Gouraud
 70
     2
 71
     2
 72
     2
 73
     1
 90
        2
 40
-0.6
 41
30.0
 62
     5
 63
     7
421
 16777215
 74
     0
 91
        4
 64
     7
 65
   257
 75
     1
175
     1
 42
1.0
 92
        0
 66
     7
 43
1.0
 76
     1
 77
     6
 78
     2
 67
     7
 79
     5
170
     0
171
     0
290
     0
174
     0
 93
       13
 44
0.0
173
     0
291
     1
 45
0.0
1001
ACAD
1000
AcDbSavedByObjectVersion
1070
     0
  0
VISUALSTYLE
  5
2E
102
{ACAD_REACTORS
330
2A
102
}
330
2A
100
AcDbVisualStyle
  2
GouraudWithEdges
 70
     3
 71
     2
 72
     2
 73
     1
 90
        2
 40
-0.6
 41
30.0
 62
     5
 63
     7
421
 16777215
 74
     1
 91
        4
 64
     7
 65
   257
 75
     1
175
     1
 42
1.0
 92
        0
 66
   257
 43
1.0
 76
     1
 77
     6
 78
     2
 67
     7
 79
     5
170
     0
171
     0
290
     0
174
     0
 93
       13
 44
0.0
173
     0
291
     1
 45
0.0
1001
ACAD
1000
AcDbSavedByObjectVersion
1070
     0
  0
VISUALSTYLE
  5
38
102
{ACAD_REACTORS
330
2A
102
}
330
2A
100
AcDbVisualStyle
  2
Linepattern
 70
    14
 71
     2
 72
     2
 73
     0
 90
        0
 40
-0.6
 41
-30.0
 62
     5
 63
     7
421
 16777215
 74
     1
 91
        4
 64
     7
 65
   257
 75
     7
175
     7
 42
1.0
 92
        8
 66
     7
 43
1.0
 76
     1
 77
     6
 78
     2
 67
     7
 79
     5
170
     0
171
     0
290
     0
174
     0
 93
        1
 44
0.0
173
     0
291
     1
 45
0.0
1001
ACAD
1000
AcDbSavedByObjectVersion
1070
     0
  0
VISUALSTYLE
  5
33
102
{ACAD_REACTORS
330
2A
102
}
330
2A
100
AcDbVisualStyle
  2
Realistic
 70
     8
 71
     2
 72
     2
 73
     0
 90
        0
 40
-0.6
 41
-30.0
 62
     5
 63
     7
421
 16777215
 74
     1
 91
        0
 64
     7
 65
   257
 75
     1
175
     1
 42
1.0
 92
        8
 66
     8
424
  7895160
 43
1.0
 76
     1
 77
     6
 78
     2
 67
     7
 79
     5
170
     0
171
     0
290
     0
174
     0
 93
       13
 44
0.0
173
     0
291
     0
 45
0.0
1001
ACAD
1000
AcDbSavedByObjectVersion
1070
     0
  0
VISUALSTYLE
  5
37
102
{ACAD_REACTORS
330
2A
102
}
330
2A
100
AcDbVisualStyle
  2
Thicken
 70
    13
 71
     2
 72
     2
 73
     0
 90
        0
 40
-0.6
 41
-30.0
 62
     5
 63
     7
421
 16777215
 74
     1
 91
        4
 64
     7
 65
   257
 75
     1
175
     1
 42
1.0
 92
       12
 66
     7
 43
1.0
 76
     1
 77
     6
 78
     2
 67
     7
 79
     5
170
     0
171
     0
290
     0
174
     0
 93
        1
 44
0.0
173
     0
291
     1
 45
0.0
1001
ACAD
1000
AcDbSavedByObjectVersion
1070
     0
  0
ENDSEC
  0
EOF
