  0
SECTION
  2
HEADER
  9
$ACADVER
  1
AC1018
  9
$ACADMAINTVER
 70
     0
  9
$DWGCODEPAGE
  3
ANSI_1252
  9
$INSBASE
 10
0.0
 20
0.0
 30
0.0
  9
$EXTMIN
 10
1.000000000000000E+20
 20
1.000000000000000E+20
 30
1.000000000000000E+20
  9
$EXTMAX
 10
-1.000000000000000E+20
 20
-1.000000000000000E+20
 30
-1.000000000000000E+20
  9
$LIMMIN
 10
0.0
 20
0.0
  9
$LIMMAX
 10
12.0
 20
9.0
  9
$ORTHOMODE
 70
     0
  9
$REGENMODE
 70
     1
  9
$FILLMODE
 70
     1
  9
$QTEXTMODE
 70
     0
  9
$MIRRTEXT
 70
     1
  9
$LTSCALE
 40
1.0
  9
$ATTMODE
 70
     1
  9
$TEXTSIZE
 40
0.2
  9
$TRACEWID
 40
0.05
  9
$TEXTSTYLE
  7
Standard
  9
$CLAYER
  8
0
  9
$CELTYPE
  6
ByLayer
  9
$CECOLOR
 62
   256
  9
$CELTSCALE
 40
1.0
  9
$DISPSILH
 70
     0
  9
$DIMSCALE
 40
1.0
  9
$DIMASZ
 40
0.18
  9
$DIMEXO
 40
0.0625
  9
$DIMDLI
 40
0.38
  9
$DIMRND
 40
0.0
  9
$DIMDLE
 40
0.0
  9
$DIMEXE
 40
0.18
  9
$DIMTP
 40
0.0
  9
$DIMTM
 40
0.0
  9
$DIMTXT
 40
0.18
  9
$DIMCEN
 40
0.09
  9
$DIMTSZ
 40
0.0
  9
$DIMTOL
 70
     0
  9
$DIMLIM
 70
     0
  9
$DIMTIH
 70
     1
  9
$DIMTOH
 70
     1
  9
$DIMSE1
 70
     0
  9
$DIMSE2
 70
     0
  9
$DIMTAD
 70
     0
  9
$DIMZIN
 70
     0
  9
$DIMBLK
  1

  9
$DIMASO
 70
     1
  9
$DIMSHO
 70
     1
  9
$DIMPOST
  1

  9
$DIMAPOST
  1

  9
$DIMALT
 70
     0
  9
$DIMALTD
 70
     2
  9
$DIMALTF
 40
25.4
  9
$DIMLFAC
 40
1.0
  9
$DIMTOFL
 70
     0
  9
$DIMTVP
 40
0.0
  9
$DIMTIX
 70
     0
  9
$DIMSOXD
 70
     0
  9
$DIMSAH
 70
     0
  9
$DIMBLK1
  1

  9
$DIMBLK2
  1

  9
$DIMSTYLE
  2
Standard
  9
$DIMCLRD
 70
     0
  9
$DIMCLRE
 70
     0
  9
$DIMCLRT
 70
     0
  9
$DIMTFAC
 40
1.0
  9
$DIMGAP
 40
0.09
  9
$DIMJUST
 70
     0
  9
$DIMSD1
 70
     0
  9
$DIMSD2
 70
     0
  9
$DIMTOLJ
 70
     1
  9
$DIMTZIN
 70
     0
  9
$DIMALTZ
 70
     0
  9
$DIMALTTZ
 70
     0
  9
$DIMUPT
 70
     0
  9
$DIMDEC
 70
     4
  9
$DIMTDEC
 70
     4
  9
$DIMALTU
 70
     2
  9
$DIMALTTD
 70
     2
  9
$DIMTXSTY
  7
Standard
  9
$DIMAUNIT
 70
     0
  9
$DIMADEC
 70
     0
  9
$DIMALTRND
 40
0.0
  9
$DIMAZIN
 70
     0
  9
$DIMDSEP
 70
    46
  9
$DIMATFIT
 70
     3
  9
$DIMFRAC
 70
     0
  9
$DIMLDRBLK
  1

  9
$DIMLUNIT
 70
     2
  9
$DIMLWD
 70
    -2
  9
$DIMLWE
 70
    -2
  9
$DIMTMOVE
 70
     0
  9
$LUNITS
 70
     2
  9
$LUPREC
 70
     4
  9
$SKETCHINC
 40
0.1
  9
$FILLETRAD
 40
0.5
  9
$AUNITS
 70
     0
  9
$AUPREC
 70
     0
  9
$MENU
  1
.
  9
$ELEVATION
 40
0.0
  9
$PELEVATION
 40
0.0
  9
$THICKNESS
 40
0.0
  9
$LIMCHECK
 70
     0
  9
$CHAMFERA
 40
0.5
  9
$CHAMFERB
 40
0.5
  9
$CHAMFERC
 40
1.0
  9
$CHAMFERD
 40
0.0
  9
$SKPOLY
 70
     0
  9
$TDCREATE
 40
2457548.326041458
  9
$TDUCREATE
 40
2457548.242708125
  9
$TDUPDATE
 40
2457548.32604147
  9
$TDUUPDATE
 40
2457548.242708137
  9
$TDINDWG
 40
0.0000000116
  9
$TDUSRTIMER
 40
0.0000000116
  9
$USRTIMER
 70
     1
  9
$ANGBASE
 50
0.0
  9
$ANGDIR
 70
     0
  9
$PDMODE
 70
     0
  9
$PDSIZE
 40
0.0
  9
$PLINEWID
 40
0.0
  9
$SPLFRAME
 70
     0
  9
$SPLINETYPE
 70
     6
  9
$SPLINESEGS
 70
     8
  9
$HANDSEED
  5
4B5
  9
$SURFTAB1
 70
     6
  9
$SURFTAB2
 70
     6
  9
$SURFTYPE
 70
     6
  9
$SURFU
 70
     6
  9
$SURFV
 70
     6
  9
$UCSBASE
  2

  9
$UCSNAME
  2

  9
$UCSORG
 10
0.0
 20
0.0
 30
0.0
  9
$UCSXDIR
 10
1.0
 20
0.0
 30
0.0
  9
$UCSYDIR
 10
0.0
 20
1.0
 30
0.0
  9
$UCSORTHOREF
  2

  9
$UCSORTHOVIEW
 70
     0
  9
$UCSORGTOP
 10
0.0
 20
0.0
 30
0.0
  9
$UCSORGBOTTOM
 10
0.0
 20
0.0
 30
0.0
  9
$UCSORGLEFT
 10
0.0
 20
0.0
 30
0.0
  9
$UCSORGRIGHT
 10
0.0
 20
0.0
 30
0.0
  9
$UCSORGFRONT
 10
0.0
 20
0.0
 30
0.0
  9
$UCSORGBACK
 10
0.0
 20
0.0
 30
0.0
  9
$PUCSBASE
  2

  9
$PUCSNAME
  2

  9
$PUCSORG
 10
0.0
 20
0.0
 30
0.0
  9
$PUCSXDIR
 10
1.0
 20
0.0
 30
0.0
  9
$PUCSYDIR
 10
0.0
 20
1.0
 30
0.0
  9
$PUCSORTHOREF
  2

  9
$PUCSORTHOVIEW
 70
     0
  9
$PUCSORGTOP
 10
0.0
 20
0.0
 30
0.0
  9
$PUCSORGBOTTOM
 10
0.0
 20
0.0
 30
0.0
  9
$PUCSORGLEFT
 10
0.0
 20
0.0
 30
0.0
  9
$PUCSORGRIGHT
 10
0.0
 20
0.0
 30
0.0
  9
$PUCSORGFRONT
 10
0.0
 20
0.0
 30
0.0
  9
$PUCSORGBACK
 10
0.0
 20
0.0
 30
0.0
  9
$USERI1
 70
     0
  9
$USERI2
 70
     0
  9
$USERI3
 70
     0
  9
$USERI4
 70
     0
  9
$USERI5
 70
     0
  9
$USERR1
 40
0.0
  9
$USERR2
 40
0.0
  9
$USERR3
 40
0.0
  9
$USERR4
 40
0.0
  9
$USERR5
 40
0.0
  9
$WORLDVIEW
 70
     1
  9
$SHADEDGE
 70
     3
  9
$SHADEDIF
 70
    70
  9
$TILEMODE
 70
     1
  9
$MAXACTVP
 70
    64
  9
$PINSBASE
 10
0.0
 20
0.0
 30
0.0
  9
$PLIMCHECK
 70
     0
  9
$PEXTMIN
 10
1.000000000000000E+20
 20
1.000000000000000E+20
 30
1.000000000000000E+20
  9
$PEXTMAX
 10
-1.000000000000000E+20
 20
-1.000000000000000E+20
 30
-1.000000000000000E+20
  9
$PLIMMIN
 10
0.0
 20
0.0
  9
$PLIMMAX
 10
12.0
 20
9.0
  9
$UNITMODE
 70
     0
  9
$VISRETAIN
 70
     1
  9
$PLINEGEN
 70
     0
  9
$PSLTSCALE
 70
     1
  9
$TREEDEPTH
 70
  3020
  9
$CMLSTYLE
  2
Standard
  9
$CMLJUST
 70
     0
  9
$CMLSCALE
 40
1.0
  9
$PROXYGRAPHICS
 70
     1
  9
$MEASUREMENT
 70
     0
  9
$CELWEIGHT
370
    -1
  9
$ENDCAPS
280
     0
  9
$JOINSTYLE
280
     0
  9
$LWDISPLAY
290
     1
  9
$INSUNITS
 70
     1
  9
$HYPERLINKBASE
  1

  9
$STYLESHEET
  1

  9
$XEDIT
290
     1
  9
$CEPSNTYPE
380
     0
  9
$PSTYLEMODE
290
     1
  9
$FINGERPRINTGUID
  2
{294632E3-E419-4C40-8673-E54E153F2490}
  9
$VERSIONGUID
  2
{FAEB1C32-E019-11D5-929B-00C0DF256EC4}
  9
$EXTNAMES
290
     1
  9
$PSVPSCALE
 40
0.0
  9
$OLESTARTUP
290
     0
  9
$SORTENTS
280
   127
  9
$INDEXCTL
280
     0
  9
$HIDETEXT
280
     1
  9
$XCLIPFRAME
290
     0
  9
$HALOGAP
280
     0
  9
$OBSCOLOR
 70
   257
  9
$OBSLTYPE
280
     0
  9
$INTERSECTIONDISPLAY
280
     0
  9
$INTERSECTIONCOLOR
 70
   257
  9
$DIMASSOC
280
     2
  9
$PROJECTNAME
  1

  0
ENDSEC
  0
SECTION
  2
CLASSES
  0
CLASS
  1
ACDBDICTIONARYWDFLT
  2
AcDbDictionaryWithDefault
  3
ObjectDBX Classes
 90
        0
 91
        3
280
     0
281
     0
  0
CLASS
  1
VISUALSTYLE
  2
AcDbVisualStyle
  3
ObjectDBX Classes
 90
     4095
 91
        3
280
     0
281
     0
  0
ENDSEC
  0
SECTION
  2
TABLES
  0
TABLE
  2
VPORT
  5
8
330
0
100
AcDbSymbolTable
 70
     1
  0
VPORT
  5
29
330
8
100
AcDbSymbolTableRecord
100
AcDbViewportTableRecord
  2
*Active
 70
     0
 10
0.0
 20
0.0
 11
1.0
 21
1.0
 12
0.0
 22
0.0
 13
0.0
 23
0.0
 14
0.5
 24
0.5
 15
0.5
 25
0.5
 16
0.0
 26
0.0
 36
1.0
 17
69.23263887158073
 27
-76.90555553632917
 37
0.0
 40
161.5722221818292
 41
0.87882096069869
 42
50.0
 43
0.0
 44
0.0
 50
0.0
 51
0.0
 71
     0
 72
   100
 73
     1
 74
     3
 75
     0
 76
     0
 77
     0
 78
     0
281
     0
 65
     1
110
0.0
120
0.0
130
0.0
111
1.0
121
0.0
131
0.0
112
0.0
122
1.0
132
0.0
 79
     0
146
0.0
  0
ENDTAB
  0
TABLE
  2
LTYPE
  5
5
330
0
100
AcDbSymbolTable
 70
     1
  0
LTYPE
  5
14
330
5
100
AcDbSymbolTableRecord
100
AcDbLinetypeTableRecord
  2
ByBlock
 70
     0
  3

 72
    65
 73
     0
 40
0.0
  0
LTYPE
  5
15
330
5
100
AcDbSymbolTableRecord
100
AcDbLinetypeTableRecord
  2
ByLayer
 70
     0
  3

 72
    65
 73
     0
 40
0.0
  0
LTYPE
  5
16
330
5
100
AcDbSymbolTableRecord
100
AcDbLinetypeTableRecord
  2
Continuous
 70
     0
  3
Solid line
 72
    65
 73
     0
 40
0.0
  0
ENDTAB
  0
TABLE
  2
LAYER
  5
2
330
0
100
AcDbSymbolTable
 70
     2
  0
LAYER
  5
10
330
2
100
AcDbSymbolTableRecord
100
AcDbLayerTableRecord
  2
0
 70
     0
 62
     7
  6
Continuous
370
    -3
390
F
  0
LAYER
  5
3B
330
2
100
AcDbSymbolTableRecord
100
AcDbLayerTableRecord
  2
Capa 1
 70
     0
 62
     7
  6
Continuous
370
    -3
390
F
  0
ENDTAB
  0
TABLE
  2
STYLE
  5
3
330
0
100
AcDbSymbolTable
 70
     1
  0
STYLE
  5
11
330
3
100
AcDbSymbolTableRecord
100
AcDbTextStyleTableRecord
  2
Standard
 70
     0
 40
0.0
 41
1.0
 50
0.0
 71
     0
 42
0.2
  3
txt
  4

  0
ENDTAB
  0
TABLE
  2
VIEW
  5
6
330
0
100
AcDbSymbolTable
 70
     0
  0
ENDTAB
  0
TABLE
  2
UCS
  5
7
330
0
100
AcDbSymbolTable
 70
     0
  0
ENDTAB
  0
TABLE
  2
APPID
  5
9
330
0
100
AcDbSymbolTable
 70
     1
  0
APPID
  5
12
330
9
100
AcDbSymbolTableRecord
100
AcDbRegAppTableRecord
  2
ACAD
 70
     0
  0
ENDTAB
  0
TABLE
  2
DIMSTYLE
  5
A
330
0
100
AcDbSymbolTable
 70
     1
100
AcDbDimStyleTable
  0
DIMSTYLE
105
27
330
A
100
AcDbSymbolTableRecord
100
AcDbDimStyleTableRecord
  2
Standard
 70
     0
340
11
  0
ENDTAB
  0
TABLE
  2
BLOCK_RECORD
  5
1
330
0
100
AcDbSymbolTable
 70
     1
  0
BLOCK_RECORD
  5
1F
330
1
100
AcDbSymbolTableRecord
100
AcDbBlockTableRecord
  2
*Model_Space
340
22
  0
BLOCK_RECORD
  5
1B
330
1
100
AcDbSymbolTableRecord
100
AcDbBlockTableRecord
  2
*Paper_Space
340
1E
  0
BLOCK_RECORD
  5
23
330
1
100
AcDbSymbolTableRecord
100
AcDbBlockTableRecord
  2
*Paper_Space0
340
26
  0
ENDTAB
  0
ENDSEC
  0
SECTION
  2
BLOCKS
  0
BLOCK
  5
20
330
1F
100
AcDbEntity
  8
0
100
AcDbBlockBegin
  2
*Model_Space
 70
     0
 71
     0
 10
0.0
 20
0.0
 30
0.0
  3
*Model_Space
  1

  0
ENDBLK
  5
21
330
1F
100
AcDbEntity
  8
0
100
AcDbBlockEnd
  0
BLOCK
  5
1C
330
1B
100
AcDbEntity
 67
     1
  8
0
100
AcDbBlockBegin
  2
*Paper_Space
 70
     0
 71
     0
 10
0.0
 20
0.0
 30
0.0
  3
*Paper_Space
  1

  0
ENDBLK
  5
1D
330
1B
100
AcDbEntity
 67
     1
  8
0
100
AcDbBlockEnd
  0
BLOCK
  5
24
330
23
100
AcDbEntity
  8
0
100
AcDbBlockBegin
  2
*Paper_Space0
 70
     0
 71
     0
 10
0.0
 20
0.0
 30
0.0
  3
*Paper_Space0
  1

  0
ENDBLK
  5
25
330
23
100
AcDbEntity
  8
0
100
AcDbBlockEnd
  0
ENDSEC
  0
SECTION
  2
ENTITIES
  0
POLYLINE
  5
3C
330
1F
100
AcDbEntity
  8
Capa 1
 62
     7
420
 16777215
370
     5
100
AcDb2dPolyline
 66
     1
 10
0.0
 20
0.0
 30
0.0
  0
VERTEX
  5
3D
330
3C
100
AcDbEntity
  8
Capa 1
 62
     7
420
 16777215
370
     5
100
AcDbVertex
100
AcDb2dVertex
 10
38.24572752950107
 20
-25.91228569230665
 30
0.0
  0
VERTEX
  5
3E
330
3C
100
AcDbEntity
  8
Capa 1
 62
     7
420
 16777215
370
     5
100
AcDbVertex
100
AcDb2dVertex
 10
38.15770533985294
 20
-25.91228569230665
 30
0.0
  0
SEQEND
  5
3F
330
3C
100
AcDbEntity
  8
Capa 1
370
     5
  0
POLYLINE
  5
40
330
1F
100
AcDbEntity
  8
Capa 1
 62
     7
420
 16777215
370
     5
100
AcDb2dPolyline
 66
     1
 10
0.0
 20
0.0
 30
0.0
  0
VERTEX
  5
41
330
40
100
AcDbEntity
  8
Capa 1
 62
     7
420
 16777215
370
     5
100
AcDbVertex
100
AcDb2dVertex
 10
38.15770533985294
 20
-29.48674451302762
 30
0.0
  0
VERTEX
  5
42
330
40
100
AcDbEntity
  8
Capa 1
 62
     7
420
 16777215
370
     5
100
AcDbVertex
100
AcDb2dVertex
 10
38.24572752950107
 20
-29.48674451302762
 30
0.0
  0
SEQEND
  5
43
330
40
100
AcDbEntity
  8
Capa 1
370
     5
  0
POLYLINE
  5
44
330
1F
100
AcDbEntity
  8
Capa 1
 62
     7
420
 16777215
370
     5
100
AcDb2dPolyline
 66
     1
 10
0.0
 20
0.0
 30
0.0
  0
VERTEX
  5
45
330
44
100
AcDbEntity
  8
Capa 1
 62
     7
420
 16777215
370
     5
100
AcDbVertex
100
AcDb2dVertex
 10
38.6929009234865
 20
-34.40289577047914
 30
0.0
  0
VERTEX
  5
46
330
44
100
AcDbEntity
  8
Capa 1
 62
     7
420
 16777215
370
     5
100
AcDbVertex
100
AcDb2dVertex
 10
38.6929009234865
 20
-65.32452255311331
 30
0.0
  0
SEQEND
  5
47
330
44
100
AcDbEntity
  8
Capa 1
370
     5
  0
POLYLINE
  5
48
330
1F
100
AcDbEntity
  8
Capa 1
 62
     7
420
 16777215
370
     5
100
AcDb2dPolyline
 66
     1
 10
0.0
 20
0.0
 30
0.0
  0
VERTEX
  5
49
330
48
100
AcDbEntity
  8
Capa 1
 62
     7
420
 16777215
370
     5
100
AcDbVertex
100
AcDb2dVertex
 10
87.62565915778109
 20
-41.55939262198863
 30
0.0
  0
VERTEX
  5
4A
330
48
100
AcDbEntity
  8
Capa 1
 62
     7
420
 16777215
370
     5
100
AcDbVertex
100
AcDb2dVertex
 10
87.88025171414105
 20
-41.12152098581337
 30
0.0
  0
SEQEND
  5
4B
330
48
100
AcDbEntity
  8
Capa 1
370
     5
  0
POLYLINE
  5
4C
330
1F
100
AcDbEntity
  8
Capa 1
 62
     7
420
 16777215
370
     5
100
AcDb2dPolyline
 66
     1
 10
0.0
 20
0.0
 30
0.0
  0
VERTEX
  5
4D
330
4C
100
AcDbEntity
  8
Capa 1
 62
     7
420
 16777215
370
     5
100
AcDbVertex
100
AcDb2dVertex
 10
79.59255776004979
 20
-43.34257404515394
 30
0.0
  0
VERTEX
  5
4E
330
4C
100
AcDbEntity
  8
Capa 1
 62
     7
420
 16777215
370
     5
100
AcDbVertex
100
AcDb2dVertex
 10
80.0300848866765
 20
-43.59596081809407
 30
0.0
  0
SEQEND
  5
4F
330
4C
100
AcDbEntity
  8
Capa 1
370
     5
  0
POLYLINE
  5
50
330
1F
100
AcDbEntity
  8
Capa 1
 62
     7
420
 16777215
370
     5
100
AcDb2dPolyline
 66
     1
 10
0.0
 20
0.0
 30
0.0
  0
VERTEX
  5
51
330
50
100
AcDbEntity
  8
Capa 1
 62
     7
420
 16777215
370
     5
100
AcDbVertex
100
AcDb2dVertex
 10
79.05443384525375
 20
-41.33994003957821
 30
0.0
  0
VERTEX
  5
52
330
50
100
AcDbEntity
  8
Capa 1
 62
     7
420
 16777215
370
     5
100
AcDbVertex
100
AcDb2dVertex
 10
79.59255776004979
 20
-43.34257404515394
 30
0.0
  0
SEQEND
  5
53
330
50
100
AcDbEntity
  8
Capa 1
370
     5
  0
POLYLINE
  5
54
330
1F
100
AcDbEntity
  8
Capa 1
 62
     7
420
 16777215
370
     5
100
AcDb2dPolyline
 66
     1
 10
0.0
 20
0.0
 30
0.0
  0
VERTEX
  5
55
330
54
100
AcDbEntity
  8
Capa 1
 62
     7
420
 16777215
370
     5
100
AcDbVertex
100
AcDb2dVertex
 10
87.88025171414105
 20
-41.12152098581337
 30
0.0
  0
VERTEX
  5
56
330
54
100
AcDbEntity
  8
Capa 1
 62
     7
420
 16777215
370
     5
100
AcDbVertex
100
AcDb2dVertex
 10
87.3257635957901
 20
-39.04998507053264
 30
0.0
  0
SEQEND
  5
57
330
54
100
AcDbEntity
  8
Capa 1
370
     5
  0
POLYLINE
  5
58
330
1F
100
AcDbEntity
  8
Capa 1
 62
     7
420
 16777215
370
     5
100
AcDb2dPolyline
 66
     1
 10
0.0
 20
0.0
 30
0.0
  0
VERTEX
  5
59
330
58
100
AcDbEntity
  8
Capa 1
 62
     7
420
 16777215
370
     5
100
AcDbVertex
100
AcDb2dVertex
 10
38.50583223863743
 20
-65.40651582566227
 30
0.0
  0
VERTEX
  5
5A
330
58
100
AcDbEntity
  8
Capa 1
 62
     7
420
 16777215
370
     5
100
AcDbVertex
100
AcDb2dVertex
 10
38.15770533985294
 20
-69.61435545134641
 30
0.0
  0
SEQEND
  5
5B
330
58
100
AcDbEntity
  8
Capa 1
370
     5
  0
POLYLINE
  5
5C
330
1F
100
AcDbEntity
  8
Capa 1
 62
     7
420
 16777215
370
     5
100
AcDb2dPolyline
 66
     1
 10
0.0
 20
0.0
 30
0.0
  0
VERTEX
  5
5D
330
5C
100
AcDbEntity
  8
Capa 1
 62
     7
420
 16777215
370
     5
100
AcDbVertex
100
AcDb2dVertex
 10
54.59942354320778
 20
-69.61435545134641
 30
0.0
  0
VERTEX
  5
5E
330
5C
100
AcDbEntity
  8
Capa 1
 62
     7
420
 16777215
370
     5
100
AcDbVertex
100
AcDb2dVertex
 10
54.2507798801005
 20
-65.40651582566227
 30
0.0
  0
SEQEND
  5
5F
330
5C
100
AcDbEntity
  8
Capa 1
370
     5
  0
POLYLINE
  5
60
330
1F
100
AcDbEntity
  8
Capa 1
 62
     7
420
 16777215
370
     5
100
AcDb2dPolyline
 66
     1
 10
0.0
 20
0.0
 30
0.0
  0
VERTEX
  5
61
330
60
100
AcDbEntity
  8
Capa 1
 62
     7
420
 16777215
370
     5
100
AcDbVertex
100
AcDb2dVertex
 10
38.24572752950107
 20
-23.26214599027821
 30
0.0
  0
VERTEX
  5
62
330
60
100
AcDbEntity
  8
Capa 1
 62
     7
420
 16777215
370
     5
100
AcDbVertex
100
AcDb2dVertex
 10
38.24572752950107
 20
-25.91228569230665
 30
0.0
  0
SEQEND
  5
63
330
60
100
AcDbEntity
  8
Capa 1
370
     5
  0
POLYLINE
  5
64
330
1F
100
AcDbEntity
  8
Capa 1
 62
     7
420
 16777215
370
     5
100
AcDb2dPolyline
 66
     1
 10
0.0
 20
0.0
 30
0.0
  0
VERTEX
  5
65
330
64
100
AcDbEntity
  8
Capa 1
 62
     7
420
 16777215
370
     5
100
AcDbVertex
100
AcDb2dVertex
 10
38.24572752950107
 20
-29.48674451302762
 30
0.0
  0
VERTEX
  5
66
330
64
100
AcDbEntity
  8
Capa 1
 62
     7
420
 16777215
370
     5
100
AcDbVertex
100
AcDb2dVertex
 10
38.24572752950107
 20
-30.41933186088475
 30
0.0
  0
SEQEND
  5
67
330
64
100
AcDbEntity
  8
Capa 1
370
     5
  0
POLYLINE
  5
68
330
1F
100
AcDbEntity
  8
Capa 1
 62
     7
420
 16777215
370
     5
100
AcDb2dPolyline
 66
     1
 10
0.0
 20
0.0
 30
0.0
  0
VERTEX
  5
69
330
68
100
AcDbEntity
  8
Capa 1
 62
     7
420
 16777215
370
     5
100
AcDbVertex
100
AcDb2dVertex
 10
54.51140135355966
 20
-33.0620646076199
 30
0.0
  0
VERTEX
  5
6A
330
68
100
AcDbEntity
  8
Capa 1
 62
     7
420
 16777215
370
     5
100
AcDbVertex
100
AcDb2dVertex
 10
54.51140135355966
 20
-22.20656873359766
 30
0.0
  0
SEQEND
  5
6B
330
68
100
AcDbEntity
  8
Capa 1
370
     5
  0
POLYLINE
  5
6C
330
1F
100
AcDbEntity
  8
Capa 1
 62
     7
420
 16777215
370
     5
100
AcDb2dPolyline
 66
     1
 10
0.0
 20
0.0
 30
0.0
  0
VERTEX
  5
6D
330
6C
100
AcDbEntity
  8
Capa 1
 62
     7
420
 16777215
370
     5
100
AcDbVertex
100
AcDb2dVertex
 10
54.59942354320778
 20
-69.61435545134641
 30
0.0
  0
VERTEX
  5
6E
330
6C
100
AcDbEntity
  8
Capa 1
 62
     7
420
 16777215
370
     5
100
AcDbVertex
100
AcDb2dVertex
 10
38.15770533985294
 20
-69.61435545134641
 30
0.0
  0
SEQEND
  5
6F
330
6C
100
AcDbEntity
  8
Capa 1
370
     5
  0
POLYLINE
  5
70
330
1F
100
AcDbEntity
  8
Capa 1
 62
     7
420
 16777215
370
     5
100
AcDb2dPolyline
 66
     1
 10
0.0
 20
0.0
 30
0.0
  0
VERTEX
  5
71
330
70
100
AcDbEntity
  8
Capa 1
 62
     7
420
 16777215
370
     5
100
AcDbVertex
100
AcDb2dVertex
 10
86.14289006092956
 20
-41.95799016963203
 30
0.0
  0
VERTEX
  5
72
330
70
100
AcDbEntity
  8
Capa 1
 62
     7
420
 16777215
370
     5
100
AcDbVertex
100
AcDb2dVertex
 10
85.77185327716815
 20
-40.57599011572406
 30
0.0
  0
SEQEND
  5
73
330
70
100
AcDbEntity
  8
Capa 1
370
     5
  0
POLYLINE
  5
74
330
1F
100
AcDbEntity
  8
Capa 1
 62
     7
420
 16777215
370
     5
100
AcDb2dPolyline
 66
     1
 10
0.0
 20
0.0
 30
0.0
  0
VERTEX
  5
75
330
74
100
AcDbEntity
  8
Capa 1
 62
     7
420
 16777215
370
     5
100
AcDbVertex
100
AcDb2dVertex
 10
81.77519800472982
 20
-41.64775932118528
 30
0.0
  0
VERTEX
  5
76
330
74
100
AcDbEntity
  8
Capa 1
 62
     7
420
 16777215
370
     5
100
AcDbVertex
100
AcDb2dVertex
 10
85.77185327716815
 20
-40.57599011572406
 30
0.0
  0
SEQEND
  5
77
330
74
100
AcDbEntity
  8
Capa 1
370
     5
  0
POLYLINE
  5
78
330
1F
100
AcDbEntity
  8
Capa 1
 62
     7
420
 16777215
370
     5
100
AcDb2dPolyline
 66
     1
 10
0.0
 20
0.0
 30
0.0
  0
VERTEX
  5
79
330
78
100
AcDbEntity
  8
Capa 1
 62
     7
420
 16777215
370
     5
100
AcDbVertex
100
AcDb2dVertex
 10
81.77519800472982
 20
-41.64775932118528
 30
0.0
  0
VERTEX
  5
7A
330
78
100
AcDbEntity
  8
Capa 1
 62
     7
420
 16777215
370
     5
100
AcDbVertex
100
AcDb2dVertex
 10
82.14640704326548
 20
-43.02924261077047
 30
0.0
  0
SEQEND
  5
7B
330
78
100
AcDbEntity
  8
Capa 1
370
     5
  0
POLYLINE
  5
7C
330
1F
100
AcDbEntity
  8
Capa 1
 62
     7
420
 16777215
370
     5
100
AcDb2dPolyline
 66
     1
 10
0.0
 20
0.0
 30
0.0
  0
VERTEX
  5
7D
330
7C
100
AcDbEntity
  8
Capa 1
 62
     7
420
 16777215
370
     5
100
AcDbVertex
100
AcDb2dVertex
 10
83.01715492716238
 20
-42.79514837254774
 30
0.0
  0
VERTEX
  5
7E
330
7C
100
AcDbEntity
  8
Capa 1
 62
     7
420
 16777215
370
     5
100
AcDbVertex
100
AcDb2dVertex
 10
85.27283119612972
 20
-42.19018960533787
 30
0.0
  0
SEQEND
  5
7F
330
7C
100
AcDbEntity
  8
Capa 1
370
     5
  0
POLYLINE
  5
80
330
1F
100
AcDbEntity
  8
Capa 1
 62
     7
420
 16777215
370
     5
100
AcDb2dPolyline
 66
     1
 10
0.0
 20
0.0
 30
0.0
  0
VERTEX
  5
81
330
80
100
AcDbEntity
  8
Capa 1
 62
     7
420
 16777215
370
     5
100
AcDbVertex
100
AcDb2dVertex
 10
85.27283119612972
 20
-42.19018960533787
 30
0.0
  0
VERTEX
  5
82
330
80
100
AcDbEntity
  8
Capa 1
 62
     7
420
 16777215
370
     5
100
AcDbVertex
100
AcDb2dVertex
 10
87.62565915778109
 20
-41.55939262198863
 30
0.0
  0
SEQEND
  5
83
330
80
100
AcDbEntity
  8
Capa 1
370
     5
  0
POLYLINE
  5
84
330
1F
100
AcDbEntity
  8
Capa 1
 62
     7
420
 16777215
370
     5
100
AcDb2dPolyline
 66
     1
 10
0.0
 20
0.0
 30
0.0
  0
VERTEX
  5
85
330
84
100
AcDbEntity
  8
Capa 1
 62
     7
420
 16777215
370
     5
100
AcDbVertex
100
AcDb2dVertex
 10
83.01715492716238
 20
-42.79514837254774
 30
0.0
  0
VERTEX
  5
86
330
84
100
AcDbEntity
  8
Capa 1
 62
     7
420
 16777215
370
     5
100
AcDbVertex
100
AcDb2dVertex
 10
80.0300848866765
 20
-43.59596081809407
 30
0.0
  0
SEQEND
  5
87
330
84
100
AcDbEntity
  8
Capa 1
370
     5
  0
POLYLINE
  5
88
330
1F
100
AcDbEntity
  8
Capa 1
 62
     7
420
 16777215
370
     5
100
AcDb2dPolyline
 66
     1
 10
0.0
 20
0.0
 30
0.0
  0
VERTEX
  5
89
330
88
100
AcDbEntity
  8
Capa 1
 62
     7
420
 16777215
370
     5
100
AcDbVertex
100
AcDb2dVertex
 10
52.88445501065041
 20
-34.13469508695244
 30
0.0
  0
VERTEX
  5
8A
330
88
100
AcDbEntity
  8
Capa 1
 62
     7
420
 16777215
370
     5
100
AcDbVertex
100
AcDb2dVertex
 10
52.88445501065041
 20
-34.40289577047914
 30
0.0
  0
SEQEND
  5
8B
330
88
100
AcDbEntity
  8
Capa 1
370
     5
  0
POLYLINE
  5
8C
330
1F
100
AcDbEntity
  8
Capa 1
 62
     7
420
 16777215
370
     5
100
AcDb2dPolyline
 66
     1
 10
0.0
 20
0.0
 30
0.0
  0
VERTEX
  5
8D
330
8C
100
AcDbEntity
  8
Capa 1
 62
     7
420
 16777215
370
     5
100
AcDbVertex
100
AcDb2dVertex
 10
48.90536972518685
 20
-34.40289577047914
 30
0.0
  0
VERTEX
  5
8E
330
8C
100
AcDbEntity
  8
Capa 1
 62
     7
420
 16777215
370
     5
100
AcDbVertex
100
AcDb2dVertex
 10
38.6929009234865
 20
-34.40289577047914
 30
0.0
  0
SEQEND
  5
8F
330
8C
100
AcDbEntity
  8
Capa 1
370
     5
  0
POLYLINE
  5
90
330
1F
100
AcDbEntity
  8
Capa 1
 62
     7
420
 16777215
370
     5
100
AcDb2dPolyline
 66
     1
 10
0.0
 20
0.0
 30
0.0
  0
VERTEX
  5
91
330
90
100
AcDbEntity
  8
Capa 1
 62
     7
420
 16777215
370
     5
100
AcDbVertex
100
AcDb2dVertex
 10
78.59520261706996
 20
-41.46344671272442
 30
0.0
  0
VERTEX
  5
92
330
90
100
AcDbEntity
  8
Capa 1
 62
     7
420
 16777215
370
     5
100
AcDbVertex
100
AcDb2dVertex
 10
86.31617836383762
 20
-39.39397785473484
 30
0.0
  0
SEQEND
  5
93
330
90
100
AcDbEntity
  8
Capa 1
370
     5
  0
POLYLINE
  5
94
330
1F
100
AcDbEntity
  8
Capa 1
 62
     7
420
 16777215
370
     5
100
AcDb2dPolyline
 66
     1
 10
0.0
 20
0.0
 30
0.0
  0
VERTEX
  5
95
330
94
100
AcDbEntity
  8
Capa 1
 62
     7
420
 16777215
370
     5
100
AcDbVertex
100
AcDb2dVertex
 10
78.59520261706996
 20
-41.46344671272442
 30
0.0
  0
VERTEX
  5
96
330
94
100
AcDbEntity
  8
Capa 1
 62
     7
420
 16777215
370
     5
100
AcDbVertex
100
AcDb2dVertex
 10
65.42460257695983
 20
-41.46344671272442
 30
0.0
  0
SEQEND
  5
97
330
94
100
AcDbEntity
  8
Capa 1
370
     5
  0
POLYLINE
  5
98
330
1F
100
AcDbEntity
  8
Capa 1
 62
     7
420
 16777215
370
     5
100
AcDb2dPolyline
 66
     1
 10
0.0
 20
0.0
 30
0.0
  0
VERTEX
  5
99
330
98
100
AcDbEntity
  8
Capa 1
 62
     7
420
 16777215
370
     5
100
AcDbVertex
100
AcDb2dVertex
 10
55.21506210642193
 20
-54.64886066342112
 30
0.0
  0
VERTEX
  5
9A
330
98
100
AcDbEntity
  8
Capa 1
 62
     7
420
 16777215
370
     5
100
AcDbVertex
100
AcDb2dVertex
 10
54.09506156416721
 20
-65.32452255311331
 30
0.0
  0
SEQEND
  5
9B
330
98
100
AcDbEntity
  8
Capa 1
370
     5
  0
POLYLINE
  5
9C
330
1F
100
AcDbEntity
  8
Capa 1
 62
     7
420
 16777215
370
     5
100
AcDb2dPolyline
 66
     1
 10
0.0
 20
0.0
 30
0.0
  0
VERTEX
  5
9D
330
9C
100
AcDbEntity
  8
Capa 1
 62
     7
420
 16777215
370
     5
100
AcDbVertex
100
AcDb2dVertex
 10
73.05135496220592
 20
-20.72845051565122
 30
0.0
  0
VERTEX
  5
9E
330
9C
100
AcDbEntity
  8
Capa 1
 62
     7
420
 16777215
370
     5
100
AcDbVertex
100
AcDb2dVertex
 10
56.9631035556377
 20
-20.72845051565122
 30
0.0
  0
SEQEND
  5
9F
330
9C
100
AcDbEntity
  8
Capa 1
370
     5
  0
POLYLINE
  5
A0
330
1F
100
AcDbEntity
  8
Capa 1
 62
     7
420
 16777215
370
     5
100
AcDb2dPolyline
 66
     1
 10
0.0
 20
0.0
 30
0.0
  0
VERTEX
  5
A1
330
A0
100
AcDbEntity
  8
Capa 1
 62
     7
420
 16777215
370
     5
100
AcDbVertex
100
AcDb2dVertex
 10
56.9631035556377
 20
-20.72845051565122
 30
0.0
  0
VERTEX
  5
A2
330
A0
100
AcDbEntity
  8
Capa 1
 62
     7
420
 16777215
370
     5
100
AcDbVertex
100
AcDb2dVertex
 10
56.18106688048599
 20
-20.72845051565122
 30
0.0
  0
SEQEND
  5
A3
330
A0
100
AcDbEntity
  8
Capa 1
370
     5
  0
POLYLINE
  5
A4
330
1F
100
AcDbEntity
  8
Capa 1
 62
     7
420
 16777215
370
     5
100
AcDb2dPolyline
 66
     1
 10
0.0
 20
0.0
 30
0.0
  0
VERTEX
  5
A5
330
A4
100
AcDbEntity
  8
Capa 1
 62
     7
420
 16777215
370
     5
100
AcDbVertex
100
AcDb2dVertex
 10
46.38011473449873
 20
-33.0620646076199
 30
0.0
  0
VERTEX
  5
A6
330
A4
100
AcDbEntity
  8
Capa 1
 62
     7
420
 16777215
370
     5
100
AcDbVertex
100
AcDb2dVertex
 10
38.24572752950107
 20
-30.41933186088475
 30
0.0
  0
SEQEND
  5
A7
330
A4
100
AcDbEntity
  8
Capa 1
370
     5
  0
POLYLINE
  5
A8
330
1F
100
AcDbEntity
  8
Capa 1
 62
     7
420
 16777215
370
     5
100
AcDb2dPolyline
 66
     1
 10
0.0
 20
0.0
 30
0.0
  0
VERTEX
  5
A9
330
A8
100
AcDbEntity
  8
Capa 1
 62
     7
420
 16777215
370
     5
100
AcDbVertex
100
AcDb2dVertex
 10
54.51140135355966
 20
-33.0620646076199
 30
0.0
  0
VERTEX
  5
AA
330
A8
100
AcDbEntity
  8
Capa 1
 62
     7
420
 16777215
370
     5
100
AcDbVertex
100
AcDb2dVertex
 10
46.38011473449873
 20
-33.0620646076199
 30
0.0
  0
SEQEND
  5
AB
330
A8
100
AcDbEntity
  8
Capa 1
370
     5
  0
POLYLINE
  5
AC
330
1F
100
AcDbEntity
  8
Capa 1
 62
     7
420
 16777215
370
     5
100
AcDb2dPolyline
 66
     1
 10
0.0
 20
0.0
 30
0.0
  0
VERTEX
  5
AD
330
AC
100
AcDbEntity
  8
Capa 1
 62
     7
420
 16777215
370
     5
100
AcDbVertex
100
AcDb2dVertex
 10
38.59695501422229
 20
-65.32452255311331
 30
0.0
  0
VERTEX
  5
AE
330
AC
100
AcDbEntity
  8
Capa 1
 62
     7
420
 16777215
370
     5
100
AcDbVertex
100
AcDb2dVertex
 10
54.16327445477516
 20
-65.32452255311331
 30
0.0
  0
SEQEND
  5
AF
330
AC
100
AcDbEntity
  8
Capa 1
370
     5
  0
POLYLINE
  5
B0
330
1F
100
AcDbEntity
  8
Capa 1
 62
     7
420
 16777215
370
     5
100
AcDb2dPolyline
 66
     1
 10
0.0
 20
0.0
 30
0.0
  0
VERTEX
  5
B1
330
B0
100
AcDbEntity
  8
Capa 1
 62
     7
420
 16777215
370
     5
100
AcDbVertex
100
AcDb2dVertex
 10
52.88445501065041
 20
-34.13469508695244
 30
0.0
  0
VERTEX
  5
B2
330
B0
100
AcDbEntity
  8
Capa 1
 62
     7
420
 16777215
370
     5
100
AcDbVertex
100
AcDb2dVertex
 10
59.37019177118176
 20
-34.13469508695244
 30
0.0
  0
SEQEND
  5
B3
330
B0
100
AcDbEntity
  8
Capa 1
370
     5
  0
POLYLINE
  5
B4
330
1F
100
AcDbEntity
  8
Capa 1
 62
     7
420
 16777215
370
     5
100
AcDb2dPolyline
 66
     1
 10
0.0
 20
0.0
 30
0.0
  0
VERTEX
  5
B5
330
B4
100
AcDbEntity
  8
Capa 1
 62
     7
420
 16777215
370
     5
100
AcDbVertex
100
AcDb2dVertex
 10
48.90536972518685
 20
-34.40289577047914
 30
0.0
  0
VERTEX
  5
B6
330
B4
100
AcDbEntity
  8
Capa 1
 62
     7
420
 16777215
370
     5
100
AcDbVertex
100
AcDb2dVertex
 10
52.88445501065041
 20
-34.40289577047914
 30
0.0
  0
SEQEND
  5
B7
330
B4
100
AcDbEntity
  8
Capa 1
370
     5
  0
SPLINE
  5
B8
330
1F
100
AcDbEntity
  8
Capa 1
 62
     7
420
 16777215
370
     5
100
AcDbSpline
210
0.0
220
0.0
230
1.0
 70
     8
 71
     3
 72
     8
 73
     4
 74
     0
 42
0.0000000001
 43
0.0000000001
 40
0.0
 40
0.0
 40
0.0
 40
0.0
 40
1.0
 40
1.0
 40
1.0
 40
1.0
 10
38.59695501422229
 20
-65.32452255311331
 30
0.0
 10
38.55113524426847
 20
-65.32452255311331
 30
0.0
 10
38.51186115573662
 20
-65.36104056525697
 30
0.0
 10
38.50583223863743
 20
-65.40651582566227
 30
0.0
  0
SPLINE
  5
B9
330
1F
100
AcDbEntity
  8
Capa 1
 62
     7
420
 16777215
370
     5
100
AcDbSpline
210
0.0
220
0.0
230
1.0
 70
     8
 71
     3
 72
     8
 73
     4
 74
     0
 42
0.0000000001
 43
0.0000000001
 40
0.0
 40
0.0
 40
0.0
 40
0.0
 40
1.0
 40
1.0
 40
1.0
 40
1.0
 10
38.15770533985294
 20
-25.91228569230665
 30
0.0
 10
37.6779757935319
 20
-27.05640190295812
 30
0.0
 10
37.6779757935319
 20
-28.34280055715041
 30
0.0
 10
38.15770533985294
 20
-29.48674451302762
 30
0.0
  0
SPLINE
  5
BA
330
1F
100
AcDbEntity
  8
Capa 1
 62
     7
420
 16777215
370
     5
100
AcDbSpline
210
0.0
220
0.0
230
1.0
 70
     8
 71
     3
 72
     8
 73
     4
 74
     0
 42
0.0000000001
 43
0.0000000001
 40
0.0
 40
0.0
 40
0.0
 40
0.0
 40
1.0
 40
1.0
 40
1.0
 40
1.0
 10
40.09402125733761
 20
-31.01998425873806
 30
0.0
 10
39.48165553483445
 20
-32.06333142644598
 30
0.0
 10
39.06703829318463
 20
-33.20934243961433
 30
0.0
 10
38.8715291243967
 20
-34.40289577047914
 30
0.0
  0
SPLINE
  5
BB
330
1F
100
AcDbEntity
  8
Capa 1
 62
     7
420
 16777215
370
     5
100
AcDbSpline
210
0.0
220
0.0
230
1.0
 70
     8
 71
     3
 72
     8
 73
     4
 74
     0
 42
0.0000000001
 43
0.0000000001
 40
0.0
 40
0.0
 40
0.0
 40
0.0
 40
1.0
 40
1.0
 40
1.0
 40
1.0
 10
53.8397799887102
 20
-34.13469508695244
 30
0.0
 10
53.76915553126258
 20
-33.77192653235563
 30
0.0
 10
53.6785495200005
 20
-33.41501464008375
 30
0.0
 10
53.56813420969824
 20
-33.0620646076199
 30
0.0
  0
SPLINE
  5
BC
330
1F
100
AcDbEntity
  8
Capa 1
 62
     7
420
 16777215
370
     5
100
AcDbSpline
210
0.0
220
0.0
230
1.0
 70
     8
 71
     3
 72
     8
 73
     4
 74
     0
 42
0.0000000001
 43
0.0000000001
 40
0.0
 40
0.0
 40
0.0
 40
0.0
 40
1.0
 40
1.0
 40
1.0
 40
1.0
 10
54.2507798801005
 20
-65.40651582566227
 30
0.0
 10
54.24767929416377
 20
-65.36104056525697
 30
0.0
 10
54.20840520563193
 20
-65.32452255311331
 30
0.0
 10
54.16327445477516
 20
-65.32452255311331
 30
0.0
  0
SPLINE
  5
BD
330
1F
100
AcDbEntity
  8
Capa 1
 62
     7
420
 16777215
370
     5
100
AcDbSpline
210
0.0
220
0.0
230
1.0
 70
     8
 71
     3
 72
     8
 73
     4
 74
     0
 42
0.0000000001
 43
0.0000000001
 40
0.0
 40
0.0
 40
0.0
 40
0.0
 40
1.0
 40
1.0
 40
1.0
 40
1.0
 10
56.29992267472711
 20
-20.72845051565122
 30
0.0
 10
55.42745224308759
 20
-20.73258463023352
 30
0.0
 10
54.67917750369132
 20
-21.35046250551308
 30
0.0
 10
54.51140135355966
 20
-22.20656873359766
 30
0.0
  0
SPLINE
  5
BE
330
1F
100
AcDbEntity
  8
Capa 1
 62
     7
420
 16777215
370
     5
100
AcDbSpline
210
0.0
220
0.0
230
1.0
 70
     8
 71
     3
 72
     8
 73
     4
 74
     0
 42
0.0000000001
 43
0.0000000001
 40
0.0
 40
0.0
 40
0.0
 40
0.0
 40
1.0
 40
1.0
 40
1.0
 40
1.0
 10
86.31617836383762
 20
-39.39397785473484
 30
0.0
 10
88.45885550088876
 20
-38.82002494689222
 30
0.0
 10
90.25598956076934
 20
-37.36912298327925
 30
0.0
 10
91.26557479272181
 20
-35.3964613084252
 30
0.0
  0
POLYLINE
  5
BF
330
1F
100
AcDbEntity
  8
Capa 1
 62
     7
420
 16777215
370
     5
100
AcDb2dPolyline
 66
     1
 10
0.0
 20
0.0
 30
0.0
  0
VERTEX
  5
C0
330
BF
100
AcDbEntity
  8
Capa 1
 62
     7
420
 16777215
370
     5
100
AcDbVertex
100
AcDb2dVertex
 10
70.09821911224975
 20
-34.15915526489771
 30
0.0
  0
VERTEX
  5
C1
330
BF
100
AcDbEntity
  8
Capa 1
 62
     7
420
 16777215
370
     5
100
AcDbVertex
100
AcDb2dVertex
 10
69.80607501510056
 20
-34.15760497192935
 30
0.0
  0
SEQEND
  5
C2
330
BF
100
AcDbEntity
  8
Capa 1
370
     5
  0
POLYLINE
  5
C3
330
1F
100
AcDbEntity
  8
Capa 1
 62
     7
420
 16777215
370
     5
100
AcDb2dPolyline
 66
     1
 10
0.0
 20
0.0
 30
0.0
  0
VERTEX
  5
C4
330
C3
100
AcDbEntity
  8
Capa 1
 62
     7
420
 16777215
370
     5
100
AcDbVertex
100
AcDb2dVertex
 10
69.80607501510056
 20
-34.15760497192935
 30
0.0
  0
VERTEX
  5
C5
330
C3
100
AcDbEntity
  8
Capa 1
 62
     7
420
 16777215
370
     5
100
AcDbVertex
100
AcDb2dVertex
 10
69.51461993704844
 20
-34.15639918850951
 30
0.0
  0
SEQEND
  5
C6
330
C3
100
AcDbEntity
  8
Capa 1
370
     5
  0
POLYLINE
  5
C7
330
1F
100
AcDbEntity
  8
Capa 1
 62
     7
420
 16777215
370
     5
100
AcDb2dPolyline
 66
     1
 10
0.0
 20
0.0
 30
0.0
  0
VERTEX
  5
C8
330
C7
100
AcDbEntity
  8
Capa 1
 62
     7
420
 16777215
370
     5
100
AcDbVertex
100
AcDb2dVertex
 10
69.51461993704844
 20
-34.15639918850951
 30
0.0
  0
VERTEX
  5
C9
330
C7
100
AcDbEntity
  8
Capa 1
 62
     7
420
 16777215
370
     5
100
AcDbVertex
100
AcDb2dVertex
 10
69.219030744414
 20
-34.15484889554115
 30
0.0
  0
SEQEND
  5
CA
330
C7
100
AcDbEntity
  8
Capa 1
370
     5
  0
POLYLINE
  5
CB
330
1F
100
AcDbEntity
  8
Capa 1
 62
     7
420
 16777215
370
     5
100
AcDb2dPolyline
 66
     1
 10
0.0
 20
0.0
 30
0.0
  0
VERTEX
  5
CC
330
CB
100
AcDbEntity
  8
Capa 1
 62
     7
420
 16777215
370
     5
100
AcDbVertex
100
AcDb2dVertex
 10
69.219030744414
 20
-34.15484889554115
 30
0.0
  0
VERTEX
  5
CD
330
CB
100
AcDbEntity
  8
Capa 1
 62
     7
420
 16777215
370
     5
100
AcDbVertex
100
AcDb2dVertex
 10
68.92757566636186
 20
-34.15329860257279
 30
0.0
  0
SEQEND
  5
CE
330
CB
100
AcDbEntity
  8
Capa 1
370
     5
  0
POLYLINE
  5
CF
330
1F
100
AcDbEntity
  8
Capa 1
 62
     7
420
 16777215
370
     5
100
AcDb2dPolyline
 66
     1
 10
0.0
 20
0.0
 30
0.0
  0
VERTEX
  5
D0
330
CF
100
AcDbEntity
  8
Capa 1
 62
     7
420
 16777215
370
     5
100
AcDbVertex
100
AcDb2dVertex
 10
68.92757566636186
 20
-34.15329860257279
 30
0.0
  0
VERTEX
  5
D1
330
CF
100
AcDbEntity
  8
Capa 1
 62
     7
420
 16777215
370
     5
100
AcDbVertex
100
AcDb2dVertex
 10
68.63543156921267
 20
-34.15192056437868
 30
0.0
  0
SEQEND
  5
D2
330
CF
100
AcDbEntity
  8
Capa 1
370
     5
  0
POLYLINE
  5
D3
330
1F
100
AcDbEntity
  8
Capa 1
 62
     7
420
 16777215
370
     5
100
AcDb2dPolyline
 66
     1
 10
0.0
 20
0.0
 30
0.0
  0
VERTEX
  5
D4
330
D3
100
AcDbEntity
  8
Capa 1
 62
     7
420
 16777215
370
     5
100
AcDbVertex
100
AcDb2dVertex
 10
68.63543156921267
 20
-34.15192056437868
 30
0.0
  0
VERTEX
  5
D5
330
D3
100
AcDbEntity
  8
Capa 1
 62
     7
420
 16777215
370
     5
100
AcDbVertex
100
AcDb2dVertex
 10
68.34328747206348
 20
-34.15192056437868
 30
0.0
  0
SEQEND
  5
D6
330
D3
100
AcDbEntity
  8
Capa 1
370
     5
  0
POLYLINE
  5
D7
330
1F
100
AcDbEntity
  8
Capa 1
 62
     7
420
 16777215
370
     5
100
AcDb2dPolyline
 66
     1
 10
0.0
 20
0.0
 30
0.0
  0
VERTEX
  5
D8
330
D7
100
AcDbEntity
  8
Capa 1
 62
     7
420
 16777215
370
     5
100
AcDbVertex
100
AcDb2dVertex
 10
68.34328747206348
 20
-34.15192056437868
 30
0.0
  0
VERTEX
  5
D9
330
D7
100
AcDbEntity
  8
Capa 1
 62
     7
420
 16777215
370
     5
100
AcDbVertex
100
AcDb2dVertex
 10
68.05131562968856
 20
-34.15071478095885
 30
0.0
  0
SEQEND
  5
DA
330
D7
100
AcDbEntity
  8
Capa 1
370
     5
  0
POLYLINE
  5
DB
330
1F
100
AcDbEntity
  8
Capa 1
 62
     7
420
 16777215
370
     5
100
AcDb2dPolyline
 66
     1
 10
0.0
 20
0.0
 30
0.0
  0
VERTEX
  5
DC
330
DB
100
AcDbEntity
  8
Capa 1
 62
     7
420
 16777215
370
     5
100
AcDbVertex
100
AcDb2dVertex
 10
68.05131562968856
 20
-34.15071478095885
 30
0.0
  0
VERTEX
  5
DD
330
DB
100
AcDbEntity
  8
Capa 1
 62
     7
420
 16777215
370
     5
100
AcDbVertex
100
AcDb2dVertex
 10
67.7567599656997
 20
-34.14916448799049
 30
0.0
  0
SEQEND
  5
DE
330
DB
100
AcDbEntity
  8
Capa 1
370
     5
  0
POLYLINE
  5
DF
330
1F
100
AcDbEntity
  8
Capa 1
 62
     7
420
 16777215
370
     5
100
AcDb2dPolyline
 66
     1
 10
0.0
 20
0.0
 30
0.0
  0
VERTEX
  5
E0
330
DF
100
AcDbEntity
  8
Capa 1
 62
     7
420
 16777215
370
     5
100
AcDbVertex
100
AcDb2dVertex
 10
67.7567599656997
 20
-34.14916448799049
 30
0.0
  0
VERTEX
  5
E1
330
DF
100
AcDbEntity
  8
Capa 1
 62
     7
420
 16777215
370
     5
100
AcDbVertex
100
AcDb2dVertex
 10
67.46409910422773
 20
-34.14761419502213
 30
0.0
  0
SEQEND
  5
E2
330
DF
100
AcDbEntity
  8
Capa 1
370
     5
  0
POLYLINE
  5
E3
330
1F
100
AcDbEntity
  8
Capa 1
 62
     7
420
 16777215
370
     5
100
AcDb2dPolyline
 66
     1
 10
0.0
 20
0.0
 30
0.0
  0
VERTEX
  5
E4
330
E3
100
AcDbEntity
  8
Capa 1
 62
     7
420
 16777215
370
     5
100
AcDbVertex
100
AcDb2dVertex
 10
67.46409910422773
 20
-34.14761419502213
 30
0.0
  0
VERTEX
  5
E5
330
E3
100
AcDbEntity
  8
Capa 1
 62
     7
420
 16777215
370
     5
100
AcDbVertex
100
AcDb2dVertex
 10
67.17333304527264
 20
-34.14606390205376
 30
0.0
  0
SEQEND
  5
E6
330
E3
100
AcDbEntity
  8
Capa 1
370
     5
  0
POLYLINE
  5
E7
330
1F
100
AcDbEntity
  8
Capa 1
 62
     7
420
 16777215
370
     5
100
AcDb2dPolyline
 66
     1
 10
0.0
 20
0.0
 30
0.0
  0
VERTEX
  5
E8
330
E7
100
AcDbEntity
  8
Capa 1
 62
     7
420
 16777215
370
     5
100
AcDbVertex
100
AcDb2dVertex
 10
67.17333304527264
 20
-34.14606390205376
 30
0.0
  0
VERTEX
  5
E9
330
E7
100
AcDbEntity
  8
Capa 1
 62
     7
420
 16777215
370
     5
100
AcDbVertex
100
AcDb2dVertex
 10
66.88360051496313
 20
-34.14485811863393
 30
0.0
  0
SEQEND
  5
EA
330
E7
100
AcDbEntity
  8
Capa 1
370
     5
  0
POLYLINE
  5
EB
330
1F
100
AcDbEntity
  8
Capa 1
 62
     7
420
 16777215
370
     5
100
AcDb2dPolyline
 66
     1
 10
0.0
 20
0.0
 30
0.0
  0
VERTEX
  5
EC
330
EB
100
AcDbEntity
  8
Capa 1
 62
     7
420
 16777215
370
     5
100
AcDbVertex
100
AcDb2dVertex
 10
66.88360051496313
 20
-34.14485811863393
 30
0.0
  0
VERTEX
  5
ED
330
EB
100
AcDbEntity
  8
Capa 1
 62
     7
420
 16777215
370
     5
100
AcDbVertex
100
AcDb2dVertex
 10
66.58921710574853
 20
-34.14348008043983
 30
0.0
  0
SEQEND
  5
EE
330
EB
100
AcDbEntity
  8
Capa 1
370
     5
  0
POLYLINE
  5
EF
330
1F
100
AcDbEntity
  8
Capa 1
 62
     7
420
 16777215
370
     5
100
AcDb2dPolyline
 66
     1
 10
0.0
 20
0.0
 30
0.0
  0
VERTEX
  5
F0
330
EF
100
AcDbEntity
  8
Capa 1
 62
     7
420
 16777215
370
     5
100
AcDbVertex
100
AcDb2dVertex
 10
66.58921710574853
 20
-34.14348008043983
 30
0.0
  0
VERTEX
  5
F1
330
EF
100
AcDbEntity
  8
Capa 1
 62
     7
420
 16777215
370
     5
100
AcDbVertex
100
AcDb2dVertex
 10
66.28570419349802
 20
-34.14348008043983
 30
0.0
  0
SEQEND
  5
F2
330
EF
100
AcDbEntity
  8
Capa 1
370
     5
  0
POLYLINE
  5
F3
330
1F
100
AcDbEntity
  8
Capa 1
 62
     7
420
 16777215
370
     5
100
AcDb2dPolyline
 66
     1
 10
0.0
 20
0.0
 30
0.0
  0
VERTEX
  5
F4
330
F3
100
AcDbEntity
  8
Capa 1
 62
     7
420
 16777215
370
     5
100
AcDbVertex
100
AcDb2dVertex
 10
66.28570419349802
 20
-34.14348008043983
 30
0.0
  0
VERTEX
  5
F5
330
F3
100
AcDbEntity
  8
Capa 1
 62
     7
420
 16777215
370
     5
100
AcDbVertex
100
AcDb2dVertex
 10
66.0020005802877
 20
-34.14192978747146
 30
0.0
  0
SEQEND
  5
F6
330
F3
100
AcDbEntity
  8
Capa 1
370
     5
  0
POLYLINE
  5
F7
330
1F
100
AcDbEntity
  8
Capa 1
 62
     7
420
 16777215
370
     5
100
AcDb2dPolyline
 66
     1
 10
0.0
 20
0.0
 30
0.0
  0
VERTEX
  5
F8
330
F7
100
AcDbEntity
  8
Capa 1
 62
     7
420
 16777215
370
     5
100
AcDbVertex
100
AcDb2dVertex
 10
66.0020005802877
 20
-34.14192978747146
 30
0.0
  0
VERTEX
  5
F9
330
F7
100
AcDbEntity
  8
Capa 1
 62
     7
420
 16777215
370
     5
100
AcDbVertex
100
AcDb2dVertex
 10
65.74671900483068
 20
-34.1403794945031
 30
0.0
  0
SEQEND
  5
FA
330
F7
100
AcDbEntity
  8
Capa 1
370
     5
  0
POLYLINE
  5
FB
330
1F
100
AcDbEntity
  8
Capa 1
 62
     7
420
 16777215
370
     5
100
AcDb2dPolyline
 66
     1
 10
0.0
 20
0.0
 30
0.0
  0
VERTEX
  5
FC
330
FB
100
AcDbEntity
  8
Capa 1
 62
     7
420
 16777215
370
     5
100
AcDbVertex
100
AcDb2dVertex
 10
65.74671900483068
 20
-34.1403794945031
 30
0.0
  0
VERTEX
  5
FD
330
FB
100
AcDbEntity
  8
Capa 1
 62
     7
420
 16777215
370
     5
100
AcDbVertex
100
AcDb2dVertex
 10
65.4154730739239
 20
-34.13917371108327
 30
0.0
  0
SEQEND
  5
FE
330
FB
100
AcDbEntity
  8
Capa 1
370
     5
  0
POLYLINE
  5
FF
330
1F
100
AcDbEntity
  8
Capa 1
 62
     7
420
 16777215
370
     5
100
AcDb2dPolyline
 66
     1
 10
0.0
 20
0.0
 30
0.0
  0
VERTEX
  5
100
330
FF
100
AcDbEntity
  8
Capa 1
 62
     7
420
 16777215
370
     5
100
AcDbVertex
100
AcDb2dVertex
 10
65.4154730739239
 20
-34.13917371108327
 30
0.0
  0
VERTEX
  5
101
330
FF
100
AcDbEntity
  8
Capa 1
 62
     7
420
 16777215
370
     5
100
AcDbVertex
100
AcDb2dVertex
 10
64.91093884010907
 20
-34.1376234181149
 30
0.0
  0
SEQEND
  5
102
330
FF
100
AcDbEntity
  8
Capa 1
370
     5
  0
POLYLINE
  5
103
330
1F
100
AcDbEntity
  8
Capa 1
 62
     7
420
 16777215
370
     5
100
AcDb2dPolyline
 66
     1
 10
0.0
 20
0.0
 30
0.0
  0
VERTEX
  5
104
330
103
100
AcDbEntity
  8
Capa 1
 62
     7
420
 16777215
370
     5
100
AcDbVertex
100
AcDb2dVertex
 10
64.91093884010907
 20
-34.1376234181149
 30
0.0
  0
VERTEX
  5
105
330
103
100
AcDbEntity
  8
Capa 1
 62
     7
420
 16777215
370
     5
100
AcDbVertex
100
AcDb2dVertex
 10
64.2472411948757
 20
-34.13469508695244
 30
0.0
  0
SEQEND
  5
106
330
103
100
AcDbEntity
  8
Capa 1
370
     5
  0
SPLINE
  5
107
330
1F
100
AcDbEntity
  8
Capa 1
 62
     7
420
 16777215
370
     5
100
AcDbSpline
210
0.0
220
0.0
230
1.0
 70
    24
 71
     3
 72
    38
 73
    34
 74
     0
 42
0.0000000001
 43
0.0000000001
 40
0.0
 40
0.0
 40
0.0
 40
0.0
 40
1.0
 40
1.0
 40
1.0
 40
2.0
 40
2.0
 40
2.0
 40
3.0
 40
3.0
 40
3.0
 40
4.0
 40
4.0
 40
4.0
 40
5.0
 40
5.0
 40
5.0
 40
6.0
 40
6.0
 40
6.0
 40
7.0
 40
7.0
 40
7.0
 40
8.0
 40
8.0
 40
8.0
 40
9.0
 40
9.0
 40
9.0
 40
10.0
 40
10.0
 40
10.0
 40
11.0
 40
11.0
 40
11.0
 40
11.0
 10
91.0042643001656
 20
-34.15484889554115
 30
0.0
 10
90.6644056305457
 20
-34.15484889554115
 30
0.0
 10
90.32661401821696
 20
-34.15484889554115
 30
0.0
 10
89.98916691543674
 20
-34.15484889554115
 30
0.0
 10
89.67239038556802
 20
-34.15484889554115
 30
0.0
 10
89.35992022505586
 20
-34.15484889554115
 30
0.0
 10
89.04900035751206
 20
-34.15484889554115
 30
0.0
 10
88.77942163579127
 20
-34.15484889554115
 30
0.0
 10
88.50967065929619
 20
-34.15484889554115
 30
0.0
 10
88.2428480139636
 20
-34.15484889554115
 30
0.0
 10
88.01667749535694
 20
-34.15484889554115
 30
0.0
 10
87.79567461997817
 20
-34.15484889554115
 30
0.0
 10
87.57243243253397
 20
-34.15484889554115
 30
0.0
 10
87.393287467301
 20
-34.15484889554115
 30
0.0
 10
87.21758759755325
 20
-34.15484889554115
 30
0.0
 10
87.0391316514173
 20
-34.15484889554115
 30
0.0
 10
86.88823646916336
 20
-34.15484889554115
 30
0.0
 10
86.74147540149171
 20
-34.15484889554115
 30
0.0
 10
86.59126923833483
 20
-34.15484889554115
 30
0.0
 10
86.3613091146944
 20
-34.15484889554115
 30
0.0
 10
86.13152124582824
 20
-34.15484889554115
 30
0.0
 10
85.90225014128485
 20
-34.15484889554115
 30
0.0
 10
85.607694477296
 20
-34.15484889554115
 30
0.0
 10
85.31021048214467
 20
-34.15484889554115
 30
0.0
 10
85.01513805383303
 20
-34.15484889554115
 30
0.0
 10
84.6547810660759
 20
-34.15484889554115
 30
0.0
 10
84.29218476625334
 20
-34.15484889554115
 30
0.0
 10
83.93251679759327
 20
-34.15484889554115
 30
0.0
 10
83.50411917400244
 20
-34.15484889554115
 30
0.0
 10
83.07933890067115
 20
-34.15484889554115
 30
0.0
 10
82.65455862733984
 20
-34.15484889554115
 30
0.0
 10
82.16087644430354
 20
-34.15484889554115
 30
0.0
 10
81.67081161152674
 20
-34.15484889554115
 30
0.0
 10
81.18023001442717
 20
-34.15484889554115
 30
0.0
  0
SPLINE
  5
108
330
1F
100
AcDbEntity
  8
Capa 1
 62
     7
420
 16777215
370
     5
100
AcDbSpline
210
0.0
220
0.0
230
1.0
 70
     8
 71
     3
 72
    38
 73
    34
 74
     0
 42
0.0000000001
 43
0.0000000001
 40
0.0
 40
0.0
 40
0.0
 40
0.0
 40
1.0
 40
1.0
 40
1.0
 40
2.0
 40
2.0
 40
2.0
 40
3.0
 40
3.0
 40
3.0
 40
4.0
 40
4.0
 40
4.0
 40
5.0
 40
5.0
 40
5.0
 40
6.0
 40
6.0
 40
6.0
 40
7.0
 40
7.0
 40
7.0
 40
8.0
 40
8.0
 40
8.0
 40
9.0
 40
9.0
 40
9.0
 40
10.0
 40
10.0
 40
10.0
 40
11.0
 40
11.0
 40
11.0
 40
11.0
 10
81.18023001442717
 20
-34.15484889554115
 30
0.0
 10
80.77835962607277
 20
-34.15484889554115
 30
0.0
 10
80.37528345429854
 20
-34.15639918850951
 30
0.0
 10
79.9727240468471
 20
-34.15639918850951
 30
0.0
 10
79.62166881690014
 20
-34.15639918850951
 30
0.0
 10
79.27044133217892
 20
-34.15639918850951
 30
0.0
 10
78.9192138474577
 20
-34.15639918850951
 30
0.0
 10
78.61811250204687
 20
-34.15639918850951
 30
0.0
 10
78.31752792095881
 20
-34.15639918850951
 30
0.0
 10
78.01711559464503
 20
-34.15639918850951
 30
0.0
 10
77.7678629362872
 20
-34.15639918850951
 30
0.0
 10
77.51568194676692
 20
-34.15639918850951
 30
0.0
 10
77.26574026931205
 20
-34.15639918850951
 30
0.0
 10
77.06540796684476
 20
-34.15639918850951
 30
0.0
 10
76.86628144779732
 20
-34.15639918850951
 30
0.0
 10
76.66836071216972
 20
-34.15639918850951
 30
0.0
 10
76.49765623087559
 20
-34.15760497192935
 30
0.0
 10
76.33349743100344
 20
-34.15760497192935
 30
0.0
 10
76.1633097140321
 20
-34.15760497192935
 30
0.0
 10
75.90802813857508
 20
-34.15760497192935
 30
0.0
 10
75.64740666511592
 20
-34.15760497192935
 30
0.0
 10
75.39212508965892
 20
-34.15760497192935
 30
0.0
 10
75.06087915875214
 20
-34.15760497192935
 30
0.0
 10
74.72894420874832
 20
-34.15760497192935
 30
0.0
 10
74.3970092587445
 20
-34.15760497192935
 30
0.0
 10
73.99221053922764
 20
-34.15760497192935
 30
0.0
 10
73.59016789609899
 20
-34.15760497192935
 30
0.0
 10
73.1841633931623
 20
-34.15760497192935
 30
0.0
 10
72.70563963026109
 20
-34.15760497192935
 30
0.0
 10
72.22952743419957
 20
-34.15760497192935
 30
0.0
 10
71.75100367129836
 20
-34.15760497192935
 30
0.0
 10
71.19996064843265
 20
-34.15760497192935
 30
0.0
 10
70.64788409692136
 20
-34.15915526489771
 30
0.0
 10
70.09821911224975
 20
-34.15915526489771
 30
0.0
  0
SPLINE
  5
109
330
1F
100
AcDbEntity
  8
Capa 1
 62
     7
420
 16777215
370
     5
100
AcDbSpline
210
0.0
220
0.0
230
1.0
 70
     8
 71
     3
 72
    29
 73
    25
 74
     0
 42
0.0000000001
 43
0.0000000001
 40
0.0
 40
0.0
 40
0.0
 40
0.0
 40
1.0
 40
1.0
 40
1.0
 40
2.0
 40
2.0
 40
2.0
 40
3.0
 40
3.0
 40
3.0
 40
4.0
 40
4.0
 40
4.0
 40
5.0
 40
5.0
 40
5.0
 40
6.0
 40
6.0
 40
6.0
 40
7.0
 40
7.0
 40
7.0
 40
8.0
 40
8.0
 40
8.0
 40
8.0
 10
91.52016734908177
 20
-34.84093966142866
 30
0.0
 10
91.52619626618096
 20
-34.82078585283995
 30
0.0
 10
91.52929685211768
 20
-34.80803899954452
 30
0.0
 10
91.53170841895735
 20
-34.79667018444319
 30
0.0
 10
91.53773733605654
 20
-34.76704236327004
 30
0.0
 10
91.53945988379917
 20
-34.7360365039028
 30
0.0
 10
91.53945988379917
 20
-34.70606417318113
 30
0.0
 10
91.54256046973589
 20
-34.65662705296779
 30
0.0
 10
91.53773733605654
 20
-34.60529513023756
 30
0.0
 10
91.5232679350185
 20
-34.55585801002423
 30
0.0
 10
91.5117268651429
 20
-34.51176078781303
 30
0.0
 10
91.49484589726518
 20
-34.46955836811873
 30
0.0
 10
91.47193601228827
 20
-34.42976751526409
 30
0.0
 10
91.44661456047169
 20
-34.38722058602125
 30
0.0
 10
91.41750350362132
 20
-34.34760198794088
 30
0.0
 10
91.38443058696292
 20
-34.31349554263691
 30
0.0
 10
91.34395071501123
 20
-34.27525498275063
 30
0.0
 10
91.30174829531693
 20
-34.24269883041502
 30
0.0
 10
91.25351695852343
 20
-34.21737737859844
 30
0.0
 10
91.2021850357932
 20
-34.19050563381349
 30
0.0
 10
91.14913056532036
 20
-34.17052407999904
 30
0.0
 10
91.09176972549095
 20
-34.16328937948001
 30
0.0
 10
91.06403670683468
 20
-34.15915526489771
 30
0.0
 10
91.0332031022417
 20
-34.15915526489771
 30
0.0
 10
91.0042643001656
 20
-34.16208359606018
 30
0.0
  0
SPLINE
  5
10A
330
1F
100
AcDbEntity
  8
Capa 1
 62
     7
420
 16777215
370
     5
100
AcDbSpline
210
0.0
220
0.0
230
1.0
 70
     8
 71
     3
 72
    80
 73
    76
 74
     0
 42
0.0000000001
 43
0.0000000001
 40
0.0
 40
0.0
 40
0.0
 40
0.0
 40
1.0
 40
1.0
 40
1.0
 40
2.0
 40
2.0
 40
2.0
 40
3.0
 40
3.0
 40
3.0
 40
4.0
 40
4.0
 40
4.0
 40
5.0
 40
5.0
 40
5.0
 40
6.0
 40
6.0
 40
6.0
 40
7.0
 40
7.0
 40
7.0
 40
8.0
 40
8.0
 40
8.0
 40
9.0
 40
9.0
 40
9.0
 40
10.0
 40
10.0
 40
10.0
 40
11.0
 40
11.0
 40
11.0
 40
12.0
 40
12.0
 40
12.0
 40
13.0
 40
13.0
 40
13.0
 40
14.0
 40
14.0
 40
14.0
 40
15.0
 40
15.0
 40
15.0
 40
16.0
 40
16.0
 40
16.0
 40
17.0
 40
17.0
 40
17.0
 40
18.0
 40
18.0
 40
18.0
 40
19.0
 40
19.0
 40
19.0
 40
20.0
 40
20.0
 40
20.0
 40
21.0
 40
21.0
 40
21.0
 40
22.0
 40
22.0
 40
22.0
 40
23.0
 40
23.0
 40
23.0
 40
24.0
 40
24.0
 40
24.0
 40
25.0
 40
25.0
 40
25.0
 40
25.0
 10
73.47682425463427
 20
-19.15524766231188
 30
0.0
 10
73.03688556116786
 20
-19.15524766231188
 30
0.0
 10
72.5981526511213
 20
-19.15524766231188
 30
0.0
 10
72.16062552449456
 20
-19.15524766231188
 30
0.0
 10
71.2965955767939
 20
-19.15524766231188
 30
0.0
 10
70.4318766099962
 20
-19.15524766231188
 30
0.0
 10
69.56715764319848
 20
-19.15524766231188
 30
0.0
 10
68.78632675146662
 20
-19.15524766231188
 30
0.0
 10
68.00360105721785
 20
-19.15524766231188
 30
0.0
 10
67.2203585986463
 20
-19.15524766231188
 30
0.0
 10
66.52100421514058
 20
-19.15524766231188
 30
0.0
 10
65.82164983163487
 20
-19.15524766231188
 30
0.0
 10
65.12040064561226
 20
-19.15524766231188
 30
0.0
 10
64.62740748167302
 20
-19.15524766231188
 30
0.0
 10
64.1337252986367
 20
-19.15524766231188
 30
0.0
 10
63.64073213469746
 20
-19.15524766231188
 30
0.0
 10
63.19958765781121
 20
-19.15524766231188
 30
0.0
 10
62.75672063318235
 20
-19.15524766231188
 30
0.0
 10
62.31505939197332
 20
-19.15524766231188
 30
0.0
 10
61.92042370413795
 20
-19.15524766231188
 30
0.0
 10
61.52699379972242
 20
-19.15524766231188
 30
0.0
 10
61.12994654504737
 20
-19.15524766231188
 30
0.0
 10
60.74185653863398
 20
-19.15524766231188
 30
0.0
 10
60.35376653222059
 20
-19.15524766231188
 30
0.0
 10
59.96223143032194
 20
-19.15524766231188
 30
0.0
 10
59.57052407364904
 20
-19.15524766231188
 30
0.0
 10
59.17468260239383
 20
-19.15524766231188
 30
0.0
 10
58.78004691455846
 20
-19.15524766231188
 30
0.0
 10
58.38127711214079
 20
-19.15524766231188
 30
0.0
 10
57.97820094036656
 20
-19.15524766231188
 30
0.0
 10
57.57495251381807
 20
-19.15524766231188
 30
0.0
 10
57.02046439546711
 20
-19.15524766231188
 30
0.0
 10
56.46477049369631
 20
-19.15524766231188
 30
0.0
 10
55.9095933562483
 20
-19.15524766231188
 30
0.0
 10
55.34235838460192
 20
-19.15524766231188
 30
0.0
 10
54.77564017727831
 20
-19.15524766231188
 30
0.0
 10
54.20840520563193
 20
-19.15524766231188
 30
0.0
 10
53.62738985204454
 20
-19.15524766231188
 30
0.0
 10
53.04930282961962
 20
-19.15524766231188
 30
0.0
 10
52.46811522125797
 20
-19.15524766231188
 30
0.0
 10
51.87865938373173
 20
-19.15679795528025
 30
0.0
 10
51.28903129143121
 20
-19.15679795528025
 30
0.0
 10
50.69940319913071
 20
-19.15679795528025
 30
0.0
 10
50.08152532385115
 20
-19.15524766231188
 30
0.0
 10
49.46657577973405
 20
-19.15524766231188
 30
0.0
 10
48.85179849039122
 20
-19.15679795528025
 30
0.0
 10
48.431669095965
 20
-19.15679795528025
 30
0.0
 10
48.01842989250928
 20
-19.15817599347434
 30
0.0
 10
47.60140108401979
 20
-19.15524766231188
 30
0.0
 10
47.16215140965043
 20
-19.15404187889204
 30
0.0
 10
46.72583006644354
 20
-19.14715168792155
 30
0.0
 10
46.28658039207419
 20
-19.15679795528025
 30
0.0
 10
45.84664169860778
 20
-19.16678873218747
 30
0.0
 10
45.41100937449794
 20
-19.19503851516652
 30
0.0
 10
44.973999012194
 20
-19.25446641228708
 30
0.0
 10
44.49788681613248
 20
-19.31992322650683
 30
0.0
 10
44.02780353717014
 20
-19.42310383629006
 30
0.0
 10
43.56495495872682
 20
-19.55660128634349
 30
0.0
 10
43.2343980469171
 20
-19.65271945038196
 30
0.0
 10
42.91090358085214
 20
-19.7650295632011
 30
0.0
 10
42.59343803188636
 20
-19.89198133183256
 30
0.0
 10
42.25564641955762
 20
-20.02840711304846
 30
0.0
 10
41.93025715097577
 20
-20.18136935259355
 30
0.0
 10
41.60986327084753
 20
-20.35276285298473
 30
0.0
 10
41.27792832084371
 20
-20.53173556344345
 30
0.0
 10
40.9551228738758
 20
-20.72845051565122
 30
0.0
 10
40.64316947768643
 20
-20.94376898347934
 30
0.0
 10
40.32036403071852
 20
-21.16494411363238
 30
0.0
 10
40.00841063452915
 20
-21.4073065810197
 30
0.0
 10
39.71385497054029
 20
-21.66517197809065
 30
0.0
 10
39.40982529396699
 20
-21.93044433045489
 30
0.0
 10
39.12129854707732
 20
-22.21345892456817
 30
0.0
 10
38.8522365896793
 20
-22.51524928907605
 30
0.0
 10
38.71581080846341
 20
-22.66872829294393
 30
0.0
 10
38.58851453028343
 20
-22.82720268526542
 30
0.0
 10
38.46362981894312
 20
-22.99015570171774
 30
0.0
  0
SPLINE
  5
10B
330
1F
100
AcDbEntity
  8
Capa 1
 62
     7
420
 16777215
370
     5
100
AcDbSpline
210
0.0
220
0.0
230
1.0
 70
    24
 71
     3
 72
    17
 73
    13
 74
     0
 42
0.0000000001
 43
0.0000000001
 40
0.0
 40
0.0
 40
0.0
 40
0.0
 40
1.0
 40
1.0
 40
1.0
 40
2.0
 40
2.0
 40
2.0
 40
3.0
 40
3.0
 40
3.0
 40
4.0
 40
4.0
 40
4.0
 40
4.0
 10
60.65383434898585
 20
-34.13469508695244
 30
0.0
 10
61.18661836577974
 20
-34.13469508695244
 30
0.0
 10
61.83291827881261
 20
-34.13469508695244
 30
0.0
 10
62.4960991597232
 20
-34.13469508695244
 30
0.0
 10
62.83096244088949
 20
-34.13469508695244
 30
0.0
 10
63.16772052457266
 20
-34.13469508695244
 30
0.0
 10
63.49414332180008
 20
-34.13469508695244
 30
0.0
 10
63.65830212167224
 20
-34.13469508695244
 30
0.0
 10
63.82004935470471
 20
-34.13469508695244
 30
0.0
 10
63.96474336508521
 20
-34.13469508695244
 30
0.0
 10
64.10599227998046
 20
-34.13469508695244
 30
0.0
 10
64.25327011197489
 20
-34.13469508695244
 30
0.0
 10
64.25327011197489
 20
-34.13469508695244
 30
0.0
  0
SPLINE
  5
10C
330
1F
100
AcDbEntity
  8
Capa 1
 62
     7
420
 16777215
370
     5
100
AcDbSpline
210
0.0
220
0.0
230
1.0
 70
     8
 71
     3
 72
     8
 73
     4
 74
     0
 42
0.0000000001
 43
0.0000000001
 40
0.0
 40
0.0
 40
0.0
 40
0.0
 40
1.0
 40
1.0
 40
1.0
 40
1.0
 10
91.49725746410486
 20
-34.90312363493742
 30
0.0
 10
91.49725746410486
 20
-34.90312363493742
 30
0.0
 10
91.4350734905961
 20
-35.07021076597204
 30
0.0
 10
91.26557479272181
 20
-35.3964613084252
 30
0.0
  0
SPLINE
  5
10D
330
1F
100
AcDbEntity
  8
Capa 1
 62
     7
420
 16777215
370
     5
100
AcDbSpline
210
0.0
220
0.0
230
1.0
 70
     8
 71
     3
 72
    14
 73
    10
 74
     0
 42
0.0000000001
 43
0.0000000001
 40
0.0
 40
0.0
 40
0.0
 40
0.0
 40
1.0
 40
1.0
 40
1.0
 40
2.0
 40
2.0
 40
2.0
 40
3.0
 40
3.0
 40
3.0
 40
3.0
 10
50.34817571440949
 20
-52.18682317488732
 30
0.0
 10
51.03685030191093
 20
-51.23304848979591
 30
0.0
 10
51.74826251961502
 20
-50.25705293882463
 30
0.0
 10
52.4849961891357
 20
-49.31585285225437
 30
0.0
 10
53.22793103052982
 20
-48.37327472749001
 30
0.0
 10
53.99842663580595
 20
-47.4567070736393
 30
0.0
 10
54.83489581962461
 20
-46.59646673097242
 30
0.0
 10
56.50456134655094
 20
-44.87426349789602
 30
0.0
 10
58.40901013079706
 20
-43.38081460504021
 30
0.0
 10
60.65383434898585
 20
-42.43823648027586
 30
0.0
  0
SPLINE
  5
10E
330
1F
100
AcDbEntity
  8
Capa 1
 62
     7
420
 16777215
370
     5
100
AcDbSpline
210
0.0
220
0.0
230
1.0
 70
     8
 71
     3
 72
     8
 73
     4
 74
     0
 42
0.0000000001
 43
0.0000000001
 40
0.0
 40
0.0
 40
0.0
 40
0.0
 40
1.0
 40
1.0
 40
1.0
 40
1.0
 10
60.65383434898585
 20
-42.43823648027586
 30
0.0
 10
62.17863361075743
 20
-41.79882675821349
 30
0.0
 10
63.76561684603777
 20
-41.46344671272442
 30
0.0
 10
65.42460257695983
 20
-41.46344671272442
 30
0.0
  0
SPLINE
  5
10F
330
1F
100
AcDbEntity
  8
Capa 1
 62
     7
420
 16777215
370
     5
100
AcDbSpline
210
0.0
220
0.0
230
1.0
 70
     8
 71
     3
 72
    20
 73
    16
 74
     0
 42
0.0000000001
 43
0.0000000001
 40
0.0
 40
0.0
 40
0.0
 40
0.0
 40
1.0
 40
1.0
 40
1.0
 40
2.0
 40
2.0
 40
2.0
 40
3.0
 40
3.0
 40
3.0
 40
4.0
 40
4.0
 40
4.0
 40
5.0
 40
5.0
 40
5.0
 40
5.0
 10
66.2572821557447
 20
-41.46344671272442
 30
0.0
 10
65.60564234470971
 20
-41.46344671272442
 30
0.0
 10
64.93402097986025
 20
-41.52442490281334
 30
0.0
 10
64.29013263366706
 20
-41.64465873524856
 30
0.0
 10
63.64676105179664
 20
-41.76506482245804
 30
0.0
 10
63.01751436141576
 20
-41.94214273039988
 30
0.0
 10
62.4079047153008
 20
-42.17727049726818
 30
0.0
 10
61.18661836577974
 20
-42.64649250235921
 30
0.0
 10
60.05266518680975
 20
-43.34257404515394
 30
0.0
 10
59.07753090970979
 20
-44.21952310092428
 30
0.0
 10
58.10308565170687
 20
-45.09819470443726
 30
0.0
 10
57.29796683680398
 20
-46.14998235608403
 30
0.0
 10
56.70007051533887
 20
-47.32183158539176
 30
0.0
 10
56.10148517477671
 20
-48.49523110766786
 30
0.0
 10
55.72734780507858
 20
-49.75648056481783
 30
0.0
 10
55.59212780728252
 20
-51.07164576631195
 30
0.0
  0
SPLINE
  5
110
330
1F
100
AcDbEntity
  8
Capa 1
 62
     7
420
 16777215
370
     5
100
AcDbSpline
210
0.0
220
0.0
230
1.0
 70
     8
 71
     3
 72
    11
 73
     7
 74
     0
 42
0.0000000001
 43
0.0000000001
 40
0.0
 40
0.0
 40
0.0
 40
0.0
 40
1.0
 40
1.0
 40
1.0
 40
2.0
 40
2.0
 40
2.0
 40
2.0
 10
55.21506210642193
 20
-54.64886066342112
 30
0.0
 10
55.21747367326161
 20
-54.63439126238307
 30
0.0
 10
55.21747367326161
 20
-54.62198891863617
 30
0.0
 10
55.21747367326161
 20
-54.60889755579223
 30
0.0
 10
55.34235838460192
 20
-53.42981362596547
 30
0.0
 10
55.46724309594222
 20
-52.25072969613871
 30
0.0
 10
55.59212780728252
 20
-51.07164576631195
 30
0.0
  0
SPLINE
  5
111
330
1F
100
AcDbEntity
  8
Capa 1
 62
     7
420
 16777215
370
     5
100
AcDbSpline
210
0.0
220
0.0
230
1.0
 70
    24
 71
     3
 72
    11
 73
     7
 74
     0
 42
0.0000000001
 43
0.0000000001
 40
0.0
 40
0.0
 40
0.0
 40
0.0
 40
1.0
 40
1.0
 40
1.0
 40
2.0
 40
2.0
 40
2.0
 40
2.0
 10
49.19751382233604
 20
-65.32452255311331
 30
0.0
 10
50.6034572898665
 20
-65.32452255311331
 30
0.0
 10
51.86711831385614
 20
-65.32452255311331
 30
0.0
 10
52.73734943343025
 20
-65.32452255311331
 30
0.0
 10
53.6074082982301
 20
-65.32452255311331
 30
0.0
 10
54.09264999732753
 20
-65.32452255311331
 30
0.0
 10
54.09506156416721
 20
-65.32452255311331
 30
0.0
  0
SPLINE
  5
112
330
1F
100
AcDbEntity
  8
Capa 1
 62
     7
420
 16777215
370
     5
100
AcDbSpline
210
0.0
220
0.0
230
1.0
 70
     8
 71
     3
 72
    11
 73
     7
 74
     0
 42
0.0000000001
 43
0.0000000001
 40
0.0
 40
0.0
 40
0.0
 40
0.0
 40
1.0
 40
1.0
 40
1.0
 40
2.0
 40
2.0
 40
2.0
 40
2.0
 10
52.88152667948795
 20
-22.18245306520091
 30
0.0
 10
53.10597465035198
 20
-21.7361409450868
 30
0.0
 10
53.67320962199837
 20
-21.22712808714114
 30
0.0
 10
54.14019231502398
 20
-21.03730332590387
 30
0.0
 10
54.61148137740616
 20
-20.84730630989234
 30
0.0
 10
55.55767685243003
 20
-20.72845051565122
 30
0.0
 10
56.18106688048599
 20
-20.72845051565122
 30
0.0
  0
SPLINE
  5
113
330
1F
100
AcDbEntity
  8
Capa 1
 62
     7
420
 16777215
370
     5
100
AcDbSpline
210
0.0
220
0.0
230
1.0
 70
     8
 71
     3
 72
    17
 73
    13
 74
     0
 42
0.0000000001
 43
0.0000000001
 40
0.0
 40
0.0
 40
0.0
 40
0.0
 40
1.0
 40
1.0
 40
1.0
 40
2.0
 40
2.0
 40
2.0
 40
3.0
 40
3.0
 40
3.0
 40
4.0
 40
4.0
 40
4.0
 40
4.0
 10
38.24572752950107
 20
-25.91228569230665
 30
0.0
 10
38.24572752950107
 20
-25.91228569230665
 30
0.0
 10
38.29344210197178
 20
-26.10796711586884
 30
0.0
 10
38.34477402470201
 20
-26.4369737347102
 30
0.0
 10
38.39834525949764
 20
-26.7658080987773
 30
0.0
 10
38.44364826512867
 20
-27.23037922496324
 30
0.0
 10
38.44364826512867
 20
-27.69805093708591
 30
0.0
 10
38.44364826512867
 20
-28.16727294217693
 30
0.0
 10
38.39834525949764
 20
-28.63184406836287
 30
0.0
 10
38.34477402470201
 20
-28.9637790183667
 30
0.0
 10
38.29344210197178
 20
-29.29536945882199
 30
0.0
 10
38.24572752950107
 20
-29.48674451302762
 30
0.0
 10
38.24572752950107
 20
-29.48674451302762
 30
0.0
  0
POLYLINE
  5
114
330
1F
100
AcDbEntity
  8
Capa 1
 62
     7
420
 16777215
370
     5
100
AcDb2dPolyline
 66
     1
 10
0.0
 20
0.0
 30
0.0
  0
VERTEX
  5
115
330
114
100
AcDbEntity
  8
Capa 1
 62
     7
420
 16777215
370
     5
100
AcDbVertex
100
AcDb2dVertex
 10
90.79790308059914
 20
-34.60684542320593
 30
0.0
  0
VERTEX
  5
116
330
114
100
AcDbEntity
  8
Capa 1
 62
     7
420
 16777215
370
     5
100
AcDbVertex
100
AcDb2dVertex
 10
90.31576196743842
 20
-34.60684542320593
 30
0.0
  0
SEQEND
  5
117
330
114
100
AcDbEntity
  8
Capa 1
370
     5
  0
POLYLINE
  5
118
330
1F
100
AcDbEntity
  8
Capa 1
 62
     7
420
 16777215
370
     5
100
AcDb2dPolyline
 66
     1
 10
0.0
 20
0.0
 30
0.0
  0
VERTEX
  5
119
330
118
100
AcDbEntity
  8
Capa 1
 62
     7
420
 16777215
370
     5
100
AcDbVertex
100
AcDb2dVertex
 10
90.31576196743842
 20
-34.60684542320593
 30
0.0
  0
VERTEX
  5
11A
330
118
100
AcDbEntity
  8
Capa 1
 62
     7
420
 16777215
370
     5
100
AcDbVertex
100
AcDb2dVertex
 10
89.83654918544018
 20
-34.60684542320593
 30
0.0
  0
SEQEND
  5
11B
330
118
100
AcDbEntity
  8
Capa 1
370
     5
  0
POLYLINE
  5
11C
330
1F
100
AcDbEntity
  8
Capa 1
 62
     7
420
 16777215
370
     5
100
AcDb2dPolyline
 66
     1
 10
0.0
 20
0.0
 30
0.0
  0
VERTEX
  5
11D
330
11C
100
AcDbEntity
  8
Capa 1
 62
     7
420
 16777215
370
     5
100
AcDbVertex
100
AcDb2dVertex
 10
89.83654918544018
 20
-34.60684542320593
 30
0.0
  0
VERTEX
  5
11E
330
11C
100
AcDbEntity
  8
Capa 1
 62
     7
420
 16777215
370
     5
100
AcDbVertex
100
AcDb2dVertex
 10
89.35440807227945
 20
-34.60684542320593
 30
0.0
  0
SEQEND
  5
11F
330
11C
100
AcDbEntity
  8
Capa 1
370
     5
  0
POLYLINE
  5
120
330
1F
100
AcDbEntity
  8
Capa 1
 62
     7
420
 16777215
370
     5
100
AcDb2dPolyline
 66
     1
 10
0.0
 20
0.0
 30
0.0
  0
VERTEX
  5
121
330
120
100
AcDbEntity
  8
Capa 1
 62
     7
420
 16777215
370
     5
100
AcDbVertex
100
AcDb2dVertex
 10
89.35440807227945
 20
-34.60684542320593
 30
0.0
  0
VERTEX
  5
122
330
120
100
AcDbEntity
  8
Capa 1
 62
     7
420
 16777215
370
     5
100
AcDbVertex
100
AcDb2dVertex
 10
88.87226695911875
 20
-34.60684542320593
 30
0.0
  0
SEQEND
  5
123
330
120
100
AcDbEntity
  8
Capa 1
370
     5
  0
POLYLINE
  5
124
330
1F
100
AcDbEntity
  8
Capa 1
 62
     7
420
 16777215
370
     5
100
AcDb2dPolyline
 66
     1
 10
0.0
 20
0.0
 30
0.0
  0
VERTEX
  5
125
330
124
100
AcDbEntity
  8
Capa 1
 62
     7
420
 16777215
370
     5
100
AcDbVertex
100
AcDb2dVertex
 10
88.87226695911875
 20
-34.60684542320593
 30
0.0
  0
VERTEX
  5
126
330
124
100
AcDbEntity
  8
Capa 1
 62
     7
420
 16777215
370
     5
100
AcDbVertex
100
AcDb2dVertex
 10
88.39081486505508
 20
-34.60684542320593
 30
0.0
  0
SEQEND
  5
127
330
124
100
AcDbEntity
  8
Capa 1
370
     5
  0
POLYLINE
  5
128
330
1F
100
AcDbEntity
  8
Capa 1
 62
     7
420
 16777215
370
     5
100
AcDb2dPolyline
 66
     1
 10
0.0
 20
0.0
 30
0.0
  0
VERTEX
  5
129
330
128
100
AcDbEntity
  8
Capa 1
 62
     7
420
 16777215
370
     5
100
AcDbVertex
100
AcDb2dVertex
 10
88.39081486505508
 20
-34.60684542320593
 30
0.0
  0
VERTEX
  5
12A
330
128
100
AcDbEntity
  8
Capa 1
 62
     7
420
 16777215
370
     5
100
AcDbVertex
100
AcDb2dVertex
 10
87.91229110215387
 20
-34.60684542320593
 30
0.0
  0
SEQEND
  5
12B
330
128
100
AcDbEntity
  8
Capa 1
370
     5
  0
POLYLINE
  5
12C
330
1F
100
AcDbEntity
  8
Capa 1
 62
     7
420
 16777215
370
     5
100
AcDb2dPolyline
 66
     1
 10
0.0
 20
0.0
 30
0.0
  0
VERTEX
  5
12D
330
12C
100
AcDbEntity
  8
Capa 1
 62
     7
420
 16777215
370
     5
100
AcDbVertex
100
AcDb2dVertex
 10
87.91229110215387
 20
-34.60684542320593
 30
0.0
  0
VERTEX
  5
12E
330
12C
100
AcDbEntity
  8
Capa 1
 62
     7
420
 16777215
370
     5
100
AcDbVertex
100
AcDb2dVertex
 10
87.43307832015563
 20
-34.60684542320593
 30
0.0
  0
SEQEND
  5
12F
330
12C
100
AcDbEntity
  8
Capa 1
370
     5
  0
POLYLINE
  5
130
330
1F
100
AcDbEntity
  8
Capa 1
 62
     7
420
 16777215
370
     5
100
AcDb2dPolyline
 66
     1
 10
0.0
 20
0.0
 30
0.0
  0
VERTEX
  5
131
330
130
100
AcDbEntity
  8
Capa 1
 62
     7
420
 16777215
370
     5
100
AcDbVertex
100
AcDb2dVertex
 10
87.43307832015563
 20
-34.60684542320593
 30
0.0
  0
VERTEX
  5
132
330
130
100
AcDbEntity
  8
Capa 1
 62
     7
420
 16777215
370
     5
100
AcDbVertex
100
AcDb2dVertex
 10
86.95162622609196
 20
-34.60684542320593
 30
0.0
  0
SEQEND
  5
133
330
130
100
AcDbEntity
  8
Capa 1
370
     5
  0
POLYLINE
  5
134
330
1F
100
AcDbEntity
  8
Capa 1
 62
     7
420
 16777215
370
     5
100
AcDb2dPolyline
 66
     1
 10
0.0
 20
0.0
 30
0.0
  0
VERTEX
  5
135
330
134
100
AcDbEntity
  8
Capa 1
 62
     7
420
 16777215
370
     5
100
AcDbVertex
100
AcDb2dVertex
 10
86.95162622609196
 20
-34.60684542320593
 30
0.0
  0
VERTEX
  5
136
330
134
100
AcDbEntity
  8
Capa 1
 62
     7
420
 16777215
370
     5
100
AcDbVertex
100
AcDb2dVertex
 10
86.47000187725403
 20
-34.60684542320593
 30
0.0
  0
SEQEND
  5
137
330
134
100
AcDbEntity
  8
Capa 1
370
     5
  0
POLYLINE
  5
138
330
1F
100
AcDbEntity
  8
Capa 1
 62
     7
420
 16777215
370
     5
100
AcDb2dPolyline
 66
     1
 10
0.0
 20
0.0
 30
0.0
  0
VERTEX
  5
139
330
138
100
AcDbEntity
  8
Capa 1
 62
     7
420
 16777215
370
     5
100
AcDbVertex
100
AcDb2dVertex
 10
86.47000187725403
 20
-34.60684542320593
 30
0.0
  0
VERTEX
  5
13A
330
138
100
AcDbEntity
  8
Capa 1
 62
     7
420
 16777215
370
     5
100
AcDbVertex
100
AcDb2dVertex
 10
85.98734399977053
 20
-34.60684542320593
 30
0.0
  0
SEQEND
  5
13B
330
138
100
AcDbEntity
  8
Capa 1
370
     5
  0
POLYLINE
  5
13C
330
1F
100
AcDbEntity
  8
Capa 1
 62
     7
420
 16777215
370
     5
100
AcDb2dPolyline
 66
     1
 10
0.0
 20
0.0
 30
0.0
  0
VERTEX
  5
13D
330
13C
100
AcDbEntity
  8
Capa 1
 62
     7
420
 16777215
370
     5
100
AcDbVertex
100
AcDb2dVertex
 10
85.98734399977053
 20
-34.60684542320593
 30
0.0
  0
VERTEX
  5
13E
330
13C
100
AcDbEntity
  8
Capa 1
 62
     7
420
 16777215
370
     5
100
AcDbVertex
100
AcDb2dVertex
 10
85.511231803709
 20
-34.60684542320593
 30
0.0
  0
SEQEND
  5
13F
330
13C
100
AcDbEntity
  8
Capa 1
370
     5
  0
POLYLINE
  5
140
330
1F
100
AcDbEntity
  8
Capa 1
 62
     7
420
 16777215
370
     5
100
AcDb2dPolyline
 66
     1
 10
0.0
 20
0.0
 30
0.0
  0
VERTEX
  5
141
330
140
100
AcDbEntity
  8
Capa 1
 62
     7
420
 16777215
370
     5
100
AcDbVertex
100
AcDb2dVertex
 10
85.511231803709
 20
-34.60684542320593
 30
0.0
  0
VERTEX
  5
142
330
140
100
AcDbEntity
  8
Capa 1
 62
     7
420
 16777215
370
     5
100
AcDbVertex
100
AcDb2dVertex
 10
85.02599010461157
 20
-34.60684542320593
 30
0.0
  0
SEQEND
  5
143
330
140
100
AcDbEntity
  8
Capa 1
370
     5
  0
POLYLINE
  5
144
330
1F
100
AcDbEntity
  8
Capa 1
 62
     7
420
 16777215
370
     5
100
AcDb2dPolyline
 66
     1
 10
0.0
 20
0.0
 30
0.0
  0
VERTEX
  5
145
330
144
100
AcDbEntity
  8
Capa 1
 62
     7
420
 16777215
370
     5
100
AcDbVertex
100
AcDb2dVertex
 10
85.02599010461157
 20
-34.60684542320593
 30
0.0
  0
VERTEX
  5
146
330
144
100
AcDbEntity
  8
Capa 1
 62
     7
420
 16777215
370
     5
100
AcDbVertex
100
AcDb2dVertex
 10
84.52989635473558
 20
-34.60684542320593
 30
0.0
  0
SEQEND
  5
147
330
144
100
AcDbEntity
  8
Capa 1
370
     5
  0
POLYLINE
  5
148
330
1F
100
AcDbEntity
  8
Capa 1
 62
     7
420
 16777215
370
     5
100
AcDb2dPolyline
 66
     1
 10
0.0
 20
0.0
 30
0.0
  0
VERTEX
  5
149
330
148
100
AcDbEntity
  8
Capa 1
 62
     7
420
 16777215
370
     5
100
AcDbVertex
100
AcDb2dVertex
 10
84.52989635473558
 20
-34.60684542320593
 30
0.0
  0
VERTEX
  5
14A
330
148
100
AcDbEntity
  8
Capa 1
 62
     7
420
 16777215
370
     5
100
AcDbVertex
100
AcDb2dVertex
 10
84.06532522854964
 20
-34.60684542320593
 30
0.0
  0
SEQEND
  5
14B
330
148
100
AcDbEntity
  8
Capa 1
370
     5
  0
POLYLINE
  5
14C
330
1F
100
AcDbEntity
  8
Capa 1
 62
     7
420
 16777215
370
     5
100
AcDb2dPolyline
 66
     1
 10
0.0
 20
0.0
 30
0.0
  0
VERTEX
  5
14D
330
14C
100
AcDbEntity
  8
Capa 1
 62
     7
420
 16777215
370
     5
100
AcDbVertex
100
AcDb2dVertex
 10
84.06532522854964
 20
-34.60684542320593
 30
0.0
  0
VERTEX
  5
14E
330
14C
100
AcDbEntity
  8
Capa 1
 62
     7
420
 16777215
370
     5
100
AcDbVertex
100
AcDb2dVertex
 10
83.6434732863808
 20
-34.60684542320593
 30
0.0
  0
SEQEND
  5
14F
330
14C
100
AcDbEntity
  8
Capa 1
370
     5
  0
POLYLINE
  5
150
330
1F
100
AcDbEntity
  8
Capa 1
 62
     7
420
 16777215
370
     5
100
AcDb2dPolyline
 66
     1
 10
0.0
 20
0.0
 30
0.0
  0
VERTEX
  5
151
330
150
100
AcDbEntity
  8
Capa 1
 62
     7
420
 16777215
370
     5
100
AcDbVertex
100
AcDb2dVertex
 10
83.6434732863808
 20
-34.60684542320593
 30
0.0
  0
VERTEX
  5
152
330
150
100
AcDbEntity
  8
Capa 1
 62
     7
420
 16777215
370
     5
100
AcDbVertex
100
AcDb2dVertex
 10
83.10224878564806
 20
-34.60684542320593
 30
0.0
  0
SEQEND
  5
153
330
150
100
AcDbEntity
  8
Capa 1
370
     5
  0
POLYLINE
  5
154
330
1F
100
AcDbEntity
  8
Capa 1
 62
     7
420
 16777215
370
     5
100
AcDb2dPolyline
 66
     1
 10
0.0
 20
0.0
 30
0.0
  0
VERTEX
  5
155
330
154
100
AcDbEntity
  8
Capa 1
 62
     7
420
 16777215
370
     5
100
AcDbVertex
100
AcDb2dVertex
 10
83.10224878564806
 20
-34.60684542320593
 30
0.0
  0
VERTEX
  5
156
330
154
100
AcDbEntity
  8
Capa 1
 62
     7
420
 16777215
370
     5
100
AcDbVertex
100
AcDb2dVertex
 10
82.26819116866906
 20
-34.60684542320593
 30
0.0
  0
SEQEND
  5
157
330
154
100
AcDbEntity
  8
Capa 1
370
     5
  0
POLYLINE
  5
158
330
1F
100
AcDbEntity
  8
Capa 1
 62
     7
420
 16777215
370
     5
100
AcDb2dPolyline
 66
     1
 10
0.0
 20
0.0
 30
0.0
  0
VERTEX
  5
159
330
158
100
AcDbEntity
  8
Capa 1
 62
     7
420
 16777215
370
     5
100
AcDbVertex
100
AcDb2dVertex
 10
82.26819116866906
 20
-34.60684542320593
 30
0.0
  0
VERTEX
  5
15A
330
158
100
AcDbEntity
  8
Capa 1
 62
     7
420
 16777215
370
     5
100
AcDbVertex
100
AcDb2dVertex
 10
81.18023001442717
 20
-34.60684542320593
 30
0.0
  0
SEQEND
  5
15B
330
158
100
AcDbEntity
  8
Capa 1
370
     5
  0
SPLINE
  5
15C
330
1F
100
AcDbEntity
  8
Capa 1
 62
     7
420
 16777215
370
     5
100
AcDbSpline
210
0.0
220
0.0
230
1.0
 70
     8
 71
     3
 72
    23
 73
    19
 74
     0
 42
0.0000000001
 43
0.0000000001
 40
0.0
 40
0.0
 40
0.0
 40
0.0
 40
1.0
 40
1.0
 40
1.0
 40
2.0
 40
2.0
 40
2.0
 40
3.0
 40
3.0
 40
3.0
 40
4.0
 40
4.0
 40
4.0
 40
5.0
 40
5.0
 40
5.0
 40
6.0
 40
6.0
 40
6.0
 40
6.0
 10
91.26557479272181
 20
-35.3964613084252
 30
0.0
 10
91.29330781137807
 20
-35.34116752588693
 30
0.0
 10
91.31311711041825
 20
-35.28036159057227
 30
0.0
 10
91.32155759435712
 20
-35.21938340048335
 30
0.0
 10
91.32948131397319
 20
-35.15685491742607
 30
0.0
 10
91.32706974713352
 20
-35.0932929057232
 30
0.0
 10
91.31621769635498
 20
-35.03231471563429
 30
0.0
 10
91.30467662647939
 20
-34.97288681851372
 30
0.0
 10
91.28245576059953
 20
-34.91345892139316
 30
0.0
 10
91.24800480574703
 20
-34.86057670569458
 30
0.0
 10
91.21665443683126
 20
-34.80958929251288
 30
0.0
 10
91.17445201713694
 20
-34.76256373913922
 30
0.0
 10
91.12914901150592
 20
-34.72483994357574
 30
0.0
 10
91.0833292415521
 20
-34.68763291233504
 30
0.0
 10
91.03010251630498
 20
-34.65817734593615
 30
0.0
 10
90.97291393124983
 20
-34.63785128257318
 30
0.0
 10
90.91968720600272
 20
-34.61838649308152
 30
0.0
 10
90.85629744907412
 20
-34.60684542320593
 30
0.0
 10
90.79790308059914
 20
-34.60684542320593
 30
0.0
  0
SPLINE
  5
15D
330
1F
100
AcDbEntity
  8
Capa 1
 62
     7
420
 16777215
370
     5
100
AcDbSpline
210
0.0
220
0.0
230
1.0
 70
     8
 71
     3
 72
    14
 73
    10
 74
     0
 42
0.0000000001
 43
0.0000000001
 40
0.0
 40
0.0
 40
0.0
 40
0.0
 40
1.0
 40
1.0
 40
1.0
 40
2.0
 40
2.0
 40
2.0
 40
3.0
 40
3.0
 40
3.0
 40
3.0
 10
81.18023001442717
 20
-34.60684542320593
 30
0.0
 10
80.25642766005743
 20
-34.59564886287887
 30
0.0
 10
79.32952471975095
 20
-34.58428004777754
 30
0.0
 10
78.40572236538121
 20
-34.57273897790196
 30
0.0
 10
77.48123099191442
 20
-34.56154241757489
 30
0.0
 10
76.555017070705
 20
-34.55017360247357
 30
0.0
 10
75.6305256972382
 20
-34.53897704214651
 30
0.0
 10
73.78826088650085
 20
-34.51606715716959
 30
0.0
 10
71.93979490389006
 20
-34.49332952696695
 30
0.0
 10
70.09821911224975
 20
-34.47110866108709
 30
0.0
  0
SPLINE
  5
15E
330
1F
100
AcDbEntity
  8
Capa 1
 62
     7
420
 16777215
370
     5
100
AcDbSpline
210
0.0
220
0.0
230
1.0
 70
     8
 71
     3
 72
    14
 73
    10
 74
     0
 42
0.0000000001
 43
0.0000000001
 40
0.0
 40
0.0
 40
0.0
 40
0.0
 40
1.0
 40
1.0
 40
1.0
 40
2.0
 40
2.0
 40
2.0
 40
3.0
 40
3.0
 40
3.0
 40
3.0
 10
70.09821911224975
 20
-34.47110866108709
 30
0.0
 10
69.30464136722246
 20
-34.44664848314181
 30
0.0
 10
68.51347518903484
 20
-34.42253281474506
 30
0.0
 10
67.72248126562147
 20
-34.39858940112258
 30
0.0
 10
66.92942028491696
 20
-34.37309569453173
 30
0.0
 10
66.13532577556687
 20
-34.34915228090924
 30
0.0
 10
65.34484861647628
 20
-34.32331406476987
 30
0.0
 10
63.78267006868975
 20
-34.27525498275063
 30
0.0
 10
62.21842446361207
 20
-34.2258178625373
 30
0.0
 10
60.65383434898585
 20
-34.17603623277544
 30
0.0
  0
SPLINE
  5
15F
330
1F
100
AcDbEntity
  8
Capa 1
 62
     7
420
 16777215
370
     5
100
AcDbSpline
210
0.0
220
0.0
230
1.0
 70
    24
 71
     3
 72
     8
 73
     4
 74
     0
 42
0.0000000001
 43
0.0000000001
 40
0.0
 40
0.0
 40
0.0
 40
0.0
 40
1.0
 40
1.0
 40
1.0
 40
1.0
 10
59.37019177118176
 20
-34.13469508695244
 30
0.0
 10
59.59102239178628
 20
-34.13469508695244
 30
0.0
 10
59.9822129841364
 20
-34.13469508695244
 30
0.0
 10
60.65383434898585
 20
-34.13469508695244
 30
0.0
  0
SPLINE
  5
160
330
1F
100
AcDbEntity
  8
Capa 1
 62
     7
420
 16777215
370
     5
100
AcDbSpline
210
0.0
220
0.0
230
1.0
 70
     8
 71
     3
 72
    11
 73
     7
 74
     0
 42
0.0000000001
 43
0.0000000001
 40
0.0
 40
0.0
 40
0.0
 40
0.0
 40
1.0
 40
1.0
 40
1.0
 40
2.0
 40
2.0
 40
2.0
 40
2.0
 10
60.65383434898585
 20
-34.17603623277544
 30
0.0
 10
60.48657496317697
 20
-34.17052407999904
 30
0.0
 10
60.31948783214235
 20
-34.16483967244837
 30
0.0
 10
60.15222844633347
 20
-34.15915526489771
 30
0.0
 10
59.89109020855154
 20
-34.15192056437868
 30
0.0
 10
59.63098549941517
 20
-34.14348008043983
 30
0.0
 10
59.37019177118176
 20
-34.13469508695244
 30
0.0
  0
SPLINE
  5
161
330
1F
100
AcDbEntity
  8
Capa 1
 62
     7
420
 16777215
370
     5
100
AcDbSpline
210
0.0
220
0.0
230
1.0
 70
     8
 71
     3
 72
    11
 73
     7
 74
     0
 42
0.0000000001
 43
0.0000000001
 40
0.0
 40
0.0
 40
0.0
 40
0.0
 40
1.0
 40
1.0
 40
1.0
 40
2.0
 40
2.0
 40
2.0
 40
2.0
 10
53.7322930095704
 20
-19.3113104877937
 30
0.0
 10
54.02133652078286
 20
-19.260323074612
 30
0.0
 10
54.48056774896666
 20
-19.22914496047049
 30
0.0
 10
55.04780272061305
 20
-19.21071369962441
 30
0.0
 10
55.6138319088396
 20
-19.19228243877832
 30
0.0
 10
56.28373072594643
 20
-19.18659803122766
 30
0.0
 10
56.9631035556377
 20
-19.18780381464749
 30
0.0
  0
SPLINE
  5
162
330
1F
100
AcDbEntity
  8
Capa 1
 62
     7
420
 16777215
370
     5
100
AcDbSpline
210
0.0
220
0.0
230
1.0
 70
     8
 71
     3
 72
    29
 73
    25
 74
     0
 42
0.0000000001
 43
0.0000000001
 40
0.0
 40
0.0
 40
0.0
 40
0.0
 40
1.0
 40
1.0
 40
1.0
 40
2.0
 40
2.0
 40
2.0
 40
3.0
 40
3.0
 40
3.0
 40
4.0
 40
4.0
 40
4.0
 40
5.0
 40
5.0
 40
5.0
 40
6.0
 40
6.0
 40
6.0
 40
7.0
 40
7.0
 40
7.0
 40
8.0
 40
8.0
 40
8.0
 40
8.0
 10
38.24572752950107
 20
-23.26214599027821
 30
0.0
 10
38.24813909634074
 20
-23.26076795208412
 30
0.0
 10
38.41763779421504
 20
-23.0413153696737
 30
0.0
 10
38.71581080846341
 20
-22.73246255942105
 30
0.0
 10
39.01088323677506
 20
-22.42343749439414
 30
0.0
 10
39.4327351789439
 20
-22.02949082565582
 30
0.0
 10
39.95776773089597
 20
-21.64949679363276
 30
0.0
 10
40.47849391349149
 20
-21.27122530935234
 30
0.0
 10
41.11928167374796
 20
-20.89278157029764
 30
0.0
 10
41.8506754452665
 20
-20.57807209772007
 30
0.0
 10
42.58206921678504
 20
-20.26491291811086
 30
0.0
 10
43.4268066297683
 20
-20.01445447633319
 30
0.0
 10
44.31925861522227
 20
-19.87234428756664
 30
0.0
 10
44.76470946146507
 20
-19.80154757534475
 30
0.0
 10
45.22325167055183
 20
-19.75624456971372
 30
0.0
 10
45.69402396861122
 20
-19.74056938525583
 30
0.0
 10
46.16462401189634
 20
-19.72523871034647
 30
0.0
 10
46.64142522705492
 20
-19.74780408577486
 30
0.0
 10
47.10530733414382
 20
-19.75503878629388
 30
0.0
 10
48.04375134432587
 20
-19.76899142300914
 30
0.0
 10
48.97065428463234
 20
-19.75934515565044
 30
0.0
 10
49.820903850392
 20
-19.72248263395827
 30
0.0
 10
51.51589082913492
 20
-19.64858533579966
 30
0.0
 10
52.93337536654096
 20
-19.4560044981742
 30
0.0
 10
53.7322930095704
 20
-19.3113104877937
 30
0.0
  0
SPLINE
  5
163
330
1F
100
AcDbEntity
  8
Capa 1
 62
     7
420
 16777215
370
     5
100
AcDbSpline
210
0.0
220
0.0
230
1.0
 70
     8
 71
     3
 72
     8
 73
     4
 74
     0
 42
0.0000000001
 43
0.0000000001
 40
0.0
 40
0.0
 40
0.0
 40
0.0
 40
1.0
 40
1.0
 40
1.0
 40
1.0
 10
36.81084525989451
 20
-58.13788111610789
 30
0.0
 10
36.93262938529809
 20
-58.26242131789967
 30
0.0
 10
37.12882757318307
 20
-58.27964679532592
 30
0.0
 10
37.26990423330405
 20
-58.17887775238237
 30
0.0
  0
SPLINE
  5
164
330
1F
100
AcDbEntity
  8
Capa 1
 62
     7
420
 16777215
370
     5
100
AcDbSpline
210
0.0
220
0.0
230
1.0
 70
     8
 71
     3
 72
     8
 73
     4
 74
     0
 42
0.0000000001
 43
0.0000000001
 40
0.0
 40
0.0
 40
0.0
 40
0.0
 40
1.0
 40
1.0
 40
1.0
 40
1.0
 10
36.75469020348494
 20
-53.68785127781068
 30
0.0
 10
34.83215466794127
 20
-54.63439126238307
 30
0.0
 10
33.09841036498928
 20
-55.91837834973568
 30
0.0
 10
31.62959390485302
 20
-57.47866209500534
 30
0.0
  0
SPLINE
  5
165
330
1F
100
AcDbEntity
  8
Capa 1
 62
     7
420
 16777215
370
     5
100
AcDbSpline
210
0.0
220
0.0
230
1.0
 70
     8
 71
     3
 72
     8
 73
     4
 74
     0
 42
0.0000000001
 43
0.0000000001
 40
0.0
 40
0.0
 40
0.0
 40
0.0
 40
1.0
 40
1.0
 40
1.0
 40
1.0
 10
38.55716416136765
 20
-54.14983858238269
 30
0.0
 10
38.15460475391621
 20
-53.57175155995776
 30
0.0
 10
37.38652071547976
 20
-53.37469209820147
 30
0.0
 10
36.75469020348494
 20
-53.68785127781068
 30
0.0
  0
SPLINE
  5
166
330
1F
100
AcDbEntity
  8
Capa 1
 62
     7
420
 16777215
370
     5
100
AcDbSpline
210
0.0
220
0.0
230
1.0
 70
     8
 71
     3
 72
     8
 73
     4
 74
     0
 42
0.0000000001
 43
0.0000000001
 40
0.0
 40
0.0
 40
0.0
 40
0.0
 40
1.0
 40
1.0
 40
1.0
 40
1.0
 10
36.85666502984834
 20
-58.17767196896253
 30
0.0
 10
36.39743380166453
 20
-57.76064316047304
 30
0.0
 10
35.75716280573085
 20
-57.6119872902845
 30
0.0
 10
35.16150579633116
 20
-57.78217500725584
 30
0.0
  0
SPLINE
  5
167
330
1F
100
AcDbEntity
  8
Capa 1
 62
     7
420
 16777215
370
     5
100
AcDbSpline
210
0.0
220
0.0
230
1.0
 70
     8
 71
     3
 72
     8
 73
     4
 74
     0
 42
0.0000000001
 43
0.0000000001
 40
0.0
 40
0.0
 40
0.0
 40
0.0
 40
1.0
 40
1.0
 40
1.0
 40
1.0
 10
32.48294405654941
 20
-59.21326767182863
 30
0.0
 10
32.54874538031768
 20
-59.16830917574612
 30
0.0
 10
32.60713974879266
 20
-59.1197333294041
 30
0.0
 10
32.67052950572126
 20
-59.0701239544165
 30
0.0
  0
SPLINE
  5
168
330
1F
100
AcDbEntity
  8
Capa 1
 62
     7
420
 16777215
370
     5
100
AcDbSpline
210
0.0
220
0.0
230
1.0
 70
     8
 71
     3
 72
     8
 73
     4
 74
     0
 42
0.0000000001
 43
0.0000000001
 40
0.0
 40
0.0
 40
0.0
 40
0.0
 40
1.0
 40
1.0
 40
1.0
 40
1.0
 10
35.16150579633116
 20
-57.78217500725584
 30
0.0
 10
34.25458440983913
 20
-58.042796480715
 30
0.0
 10
33.4074354300162
 20
-58.48066811689025
 30
0.0
 10
32.67052950572126
 20
-59.0701239544165
 30
0.0
  0
SPLINE
  5
169
330
1F
100
AcDbEntity
  8
Capa 1
 62
     7
420
 16777215
370
     5
100
AcDbSpline
210
0.0
220
0.0
230
1.0
 70
     8
 71
     3
 72
     8
 73
     4
 74
     0
 42
0.0000000001
 43
0.0000000001
 40
0.0
 40
0.0
 40
0.0
 40
0.0
 40
1.0
 40
1.0
 40
1.0
 40
1.0
 10
38.6929009234865
 20
-54.35671656627193
 30
0.0
 10
38.64828693695252
 20
-54.28695338269563
 30
0.0
 10
38.60298393132148
 20
-54.21787921821637
 30
0.0
 10
38.55716416136765
 20
-54.14983858238269
 30
0.0
  0
SPLINE
  5
16A
330
1F
100
AcDbEntity
  8
Capa 1
 62
     7
420
 16777215
370
     5
100
AcDbSpline
210
0.0
220
0.0
230
1.0
 70
     8
 71
     3
 72
     8
 73
     4
 74
     0
 42
0.0000000001
 43
0.0000000001
 40
0.0
 40
0.0
 40
0.0
 40
0.0
 40
1.0
 40
1.0
 40
1.0
 40
1.0
 10
31.62959390485302
 20
-57.47866209500534
 30
0.0
 10
31.22169459939944
 20
-57.91515569298649
 30
0.0
 10
31.1763915937684
 20
-58.58143715983381
 30
0.0
 10
31.52761907848963
 20
-59.0659898398342
 30
0.0
  0
SPLINE
  5
16B
330
1F
100
AcDbEntity
  8
Capa 1
 62
     7
420
 16777215
370
     5
100
AcDbSpline
210
0.0
220
0.0
230
1.0
 70
     8
 71
     3
 72
     8
 73
     4
 74
     0
 42
0.0000000001
 43
0.0000000001
 40
0.0
 40
0.0
 40
0.0
 40
0.0
 40
1.0
 40
1.0
 40
1.0
 40
1.0
 10
31.52761907848963
 20
-59.0659898398342
 30
0.0
 10
31.743109801092
 20
-59.37070853550455
 30
0.0
 10
32.16857909352036
 20
-59.44012720953233
 30
0.0
 10
32.47502033693333
 20
-59.22188041054176
 30
0.0
  0
POLYLINE
  5
16C
330
1F
100
AcDbEntity
  8
Capa 1
 62
     7
420
 16777215
370
     5
100
AcDb2dPolyline
 66
     1
 10
0.0
 20
0.0
 30
0.0
  0
VERTEX
  5
16D
330
16C
100
AcDbEntity
  8
Capa 1
 62
     7
420
 16777215
370
     5
100
AcDbVertex
100
AcDb2dVertex
 10
37.26990423330405
 20
-58.17887775238237
 30
0.0
  0
VERTEX
  5
16E
330
16C
100
AcDbEntity
  8
Capa 1
 62
     7
420
 16777215
370
     5
100
AcDbVertex
100
AcDb2dVertex
 10
38.6929009234865
 20
-57.18255613804811
 30
0.0
  0
SEQEND
  5
16F
330
16C
100
AcDbEntity
  8
Capa 1
370
     5
  0
POLYLINE
  5
170
330
1F
100
AcDbEntity
  8
Capa 1
 62
     7
420
 16777215
370
     5
100
AcDb2dPolyline
 66
     1
 10
0.0
 20
0.0
 30
0.0
  0
VERTEX
  5
171
330
170
100
AcDbEntity
  8
Capa 1
 62
     7
420
 16777215
370
     5
100
AcDbVertex
100
AcDb2dVertex
 10
37.5649766616157
 20
-57.97199976849311
 30
0.0
  0
VERTEX
  5
172
330
170
100
AcDbEntity
  8
Capa 1
 62
     7
420
 16777215
370
     5
100
AcDbVertex
100
AcDb2dVertex
 10
38.6929009234865
 20
-59.5830986721702
 30
0.0
  0
SEQEND
  5
173
330
170
100
AcDbEntity
  8
Capa 1
370
     5
  0
POLYLINE
  5
174
330
1F
100
AcDbEntity
  8
Capa 1
 62
     7
420
 16777215
370
     5
100
AcDb2dPolyline
 66
     1
 10
0.0
 20
0.0
 30
0.0
  0
VERTEX
  5
175
330
174
100
AcDbEntity
  8
Capa 1
 62
     7
420
 16777215
370
     5
100
AcDbVertex
100
AcDb2dVertex
 10
47.5669501291673
 20
-78.81155461354365
 30
0.0
  0
VERTEX
  5
176
330
174
100
AcDbEntity
  8
Capa 1
 62
     7
420
 16777215
370
     5
100
AcDbVertex
100
AcDb2dVertex
 10
47.5669501291673
 20
-80.74046357573502
 30
0.0
  0
SEQEND
  5
177
330
174
100
AcDbEntity
  8
Capa 1
370
     5
  0
POLYLINE
  5
178
330
1F
100
AcDbEntity
  8
Capa 1
 62
     7
420
 16777215
370
     5
100
AcDb2dPolyline
 66
     1
 10
0.0
 20
0.0
 30
0.0
  0
VERTEX
  5
179
330
178
100
AcDbEntity
  8
Capa 1
 62
     7
420
 16777215
370
     5
100
AcDbVertex
100
AcDb2dVertex
 10
51.14175345943679
 20
-78.81155461354365
 30
0.0
  0
VERTEX
  5
17A
330
178
100
AcDbEntity
  8
Capa 1
 62
     7
420
 16777215
370
     5
100
AcDbVertex
100
AcDb2dVertex
 10
51.14175345943679
 20
-80.74046357573502
 30
0.0
  0
SEQEND
  5
17B
330
178
100
AcDbEntity
  8
Capa 1
370
     5
  0
POLYLINE
  5
17C
330
1F
100
AcDbEntity
  8
Capa 1
 62
     7
420
 16777215
370
     5
100
AcDb2dPolyline
 66
     1
 10
0.0
 20
0.0
 30
0.0
  0
VERTEX
  5
17D
330
17C
100
AcDbEntity
  8
Capa 1
 62
     7
420
 16777215
370
     5
100
AcDbVertex
100
AcDb2dVertex
 10
51.14175345943679
 20
-82.17000594733945
 30
0.0
  0
VERTEX
  5
17E
330
17C
100
AcDbEntity
  8
Capa 1
 62
     7
420
 16777215
370
     5
100
AcDbVertex
100
AcDb2dVertex
 10
51.14175345943679
 20
-92.51872827548144
 30
0.0
  0
SEQEND
  5
17F
330
17C
100
AcDbEntity
  8
Capa 1
370
     5
  0
POLYLINE
  5
180
330
1F
100
AcDbEntity
  8
Capa 1
 62
     7
420
 16777215
370
     5
100
AcDb2dPolyline
 66
     1
 10
0.0
 20
0.0
 30
0.0
  0
VERTEX
  5
181
330
180
100
AcDbEntity
  8
Capa 1
 62
     7
420
 16777215
370
     5
100
AcDbVertex
100
AcDb2dVertex
 10
47.5669501291673
 20
-82.17000594733945
 30
0.0
  0
VERTEX
  5
182
330
180
100
AcDbEntity
  8
Capa 1
 62
     7
420
 16777215
370
     5
100
AcDbVertex
100
AcDb2dVertex
 10
47.5669501291673
 20
-93.51763371142962
 30
0.0
  0
SEQEND
  5
183
330
180
100
AcDbEntity
  8
Capa 1
370
     5
  0
POLYLINE
  5
184
330
1F
100
AcDbEntity
  8
Capa 1
 62
     7
420
 16777215
370
     5
100
AcDb2dPolyline
 66
     1
 10
0.0
 20
0.0
 30
0.0
  0
VERTEX
  5
185
330
184
100
AcDbEntity
  8
Capa 1
 62
     7
420
 16777215
370
     5
100
AcDbVertex
100
AcDb2dVertex
 10
51.14175345943679
 20
-70.68698593067896
 30
0.0
  0
VERTEX
  5
186
330
184
100
AcDbEntity
  8
Capa 1
 62
     7
420
 16777215
370
     5
100
AcDbVertex
100
AcDb2dVertex
 10
51.14175345943679
 20
-73.1896755459387
 30
0.0
  0
SEQEND
  5
187
330
184
100
AcDbEntity
  8
Capa 1
370
     5
  0
POLYLINE
  5
188
330
1F
100
AcDbEntity
  8
Capa 1
 62
     7
420
 16777215
370
     5
100
AcDb2dPolyline
 66
     1
 10
0.0
 20
0.0
 30
0.0
  0
VERTEX
  5
189
330
188
100
AcDbEntity
  8
Capa 1
 62
     7
420
 16777215
370
     5
100
AcDbVertex
100
AcDb2dVertex
 10
51.49900986125719
 20
-74.57425942146061
 30
0.0
  0
VERTEX
  5
18A
330
188
100
AcDbEntity
  8
Capa 1
 62
     7
420
 16777215
370
     5
100
AcDbVertex
100
AcDb2dVertex
 10
51.49900986125719
 20
-75.15544702982226
 30
0.0
  0
SEQEND
  5
18B
330
188
100
AcDbEntity
  8
Capa 1
370
     5
  0
SPLINE
  5
18C
330
1F
100
AcDbEntity
  8
Capa 1
 62
     7
420
 16777215
370
     5
100
AcDbSpline
210
0.0
220
0.0
230
1.0
 70
     8
 71
     3
 72
     8
 73
     4
 74
     0
 42
0.0000000001
 43
0.0000000001
 40
0.0
 40
0.0
 40
0.0
 40
0.0
 40
1.0
 40
1.0
 40
1.0
 40
1.0
 10
51.49900986125719
 20
-74.57425942146061
 30
0.0
 10
51.49900986125719
 20
-74.08970674146022
 30
0.0
 10
51.37705348107935
 20
-73.61325003585016
 30
0.0
 10
51.14175345943679
 20
-73.1896755459387
 30
0.0
  0
POLYLINE
  5
18D
330
1F
100
AcDbEntity
  8
Capa 1
 62
     7
420
 16777215
370
     5
100
AcDb2dPolyline
 66
     1
 10
0.0
 20
0.0
 30
0.0
  0
VERTEX
  5
18E
330
18D
100
AcDbEntity
  8
Capa 1
 62
     7
420
 16777215
370
     5
100
AcDbVertex
100
AcDb2dVertex
 10
50.87510306887845
 20
-70.68698593067896
 30
0.0
  0
VERTEX
  5
18F
330
18D
100
AcDbEntity
  8
Capa 1
 62
     7
420
 16777215
370
     5
100
AcDbVertex
100
AcDb2dVertex
 10
50.87510306887845
 20
-73.1896755459387
 30
0.0
  0
SEQEND
  5
190
330
18D
100
AcDbEntity
  8
Capa 1
370
     5
  0
POLYLINE
  5
191
330
1F
100
AcDbEntity
  8
Capa 1
 62
     7
420
 16777215
370
     5
100
AcDb2dPolyline
 66
     1
 10
0.0
 20
0.0
 30
0.0
  0
VERTEX
  5
192
330
191
100
AcDbEntity
  8
Capa 1
 62
     7
420
 16777215
370
     5
100
AcDbVertex
100
AcDb2dVertex
 10
49.80092229657755
 20
-70.68698593067896
 30
0.0
  0
VERTEX
  5
193
330
191
100
AcDbEntity
  8
Capa 1
 62
     7
420
 16777215
370
     5
100
AcDbVertex
100
AcDb2dVertex
 10
49.80092229657755
 20
-73.1896755459387
 30
0.0
  0
SEQEND
  5
194
330
191
100
AcDbEntity
  8
Capa 1
370
     5
  0
POLYLINE
  5
195
330
1F
100
AcDbEntity
  8
Capa 1
 62
     7
420
 16777215
370
     5
100
AcDb2dPolyline
 66
     1
 10
0.0
 20
0.0
 30
0.0
  0
VERTEX
  5
196
330
195
100
AcDbEntity
  8
Capa 1
 62
     7
420
 16777215
370
     5
100
AcDbVertex
100
AcDb2dVertex
 10
48.90847031112358
 20
-70.68698593067896
 30
0.0
  0
VERTEX
  5
197
330
195
100
AcDbEntity
  8
Capa 1
 62
     7
420
 16777215
370
     5
100
AcDbVertex
100
AcDb2dVertex
 10
48.90847031112358
 20
-73.1896755459387
 30
0.0
  0
SEQEND
  5
198
330
195
100
AcDbEntity
  8
Capa 1
370
     5
  0
POLYLINE
  5
199
330
1F
100
AcDbEntity
  8
Capa 1
 62
     7
420
 16777215
370
     5
100
AcDb2dPolyline
 66
     1
 10
0.0
 20
0.0
 30
0.0
  0
VERTEX
  5
19A
330
199
100
AcDbEntity
  8
Capa 1
 62
     7
420
 16777215
370
     5
100
AcDbVertex
100
AcDb2dVertex
 10
50.24861245488577
 20
-70.68698593067896
 30
0.0
  0
VERTEX
  5
19B
330
199
100
AcDbEntity
  8
Capa 1
 62
     7
420
 16777215
370
     5
100
AcDbVertex
100
AcDb2dVertex
 10
50.24861245488577
 20
-73.1896755459387
 30
0.0
  0
SEQEND
  5
19C
330
199
100
AcDbEntity
  8
Capa 1
370
     5
  0
SPLINE
  5
19D
330
1F
100
AcDbEntity
  8
Capa 1
 62
     7
420
 16777215
370
     5
100
AcDbSpline
210
0.0
220
0.0
230
1.0
 70
     8
 71
     3
 72
    11
 73
     7
 74
     0
 42
0.0000000001
 43
0.0000000001
 40
0.0
 40
0.0
 40
0.0
 40
0.0
 40
1.0
 40
1.0
 40
1.0
 40
2.0
 40
2.0
 40
2.0
 40
2.0
 10
50.24861245488577
 20
-73.1896755459387
 30
0.0
 10
50.24861245488577
 20
-73.43617212790832
 30
0.0
 10
50.38813882203839
 20
-73.63598766605281
 30
0.0
 10
50.5607381058494
 20
-73.63598766605281
 30
0.0
 10
50.73333738966042
 20
-73.63598766605281
 30
0.0
 10
50.87510306887845
 20
-73.43617212790832
 30
0.0
 10
50.87510306887845
 20
-73.1896755459387
 30
0.0
  0
SPLINE
  5
19E
330
1F
100
AcDbEntity
  8
Capa 1
 62
     7
420
 16777215
370
     5
100
AcDbSpline
210
0.0
220
0.0
230
1.0
 70
     8
 71
     3
 72
    11
 73
     7
 74
     0
 42
0.0000000001
 43
0.0000000001
 40
0.0
 40
0.0
 40
0.0
 40
0.0
 40
1.0
 40
1.0
 40
1.0
 40
2.0
 40
2.0
 40
2.0
 40
2.0
 10
48.90847031112358
 20
-73.1896755459387
 30
0.0
 10
48.90847031112358
 20
-73.43617212790832
 30
0.0
 10
49.10690781107397
 20
-73.63598766605281
 30
0.0
 10
49.35616046943179
 20
-73.63598766605281
 30
0.0
 10
49.60007322978748
 20
-73.63598766605281
 30
0.0
 10
49.80092229657755
 20
-73.43617212790832
 30
0.0
 10
49.80092229657755
 20
-73.1896755459387
 30
0.0
  0
POLYLINE
  5
19F
330
1F
100
AcDbEntity
  8
Capa 1
 62
     7
420
 16777215
370
     5
100
AcDb2dPolyline
 66
     1
 10
0.0
 20
0.0
 30
0.0
  0
VERTEX
  5
1A0
330
19F
100
AcDbEntity
  8
Capa 1
 62
     7
420
 16777215
370
     5
100
AcDbVertex
100
AcDb2dVertex
 10
47.21038274644393
 20
-74.57425942146061
 30
0.0
  0
VERTEX
  5
1A1
330
19F
100
AcDbEntity
  8
Capa 1
 62
     7
420
 16777215
370
     5
100
AcDbVertex
100
AcDb2dVertex
 10
47.21038274644393
 20
-75.15544702982226
 30
0.0
  0
SEQEND
  5
1A2
330
19F
100
AcDbEntity
  8
Capa 1
370
     5
  0
POLYLINE
  5
1A3
330
1F
100
AcDbEntity
  8
Capa 1
 62
     7
420
 16777215
370
     5
100
AcDb2dPolyline
 66
     1
 10
0.0
 20
0.0
 30
0.0
  0
VERTEX
  5
1A4
330
1A3
100
AcDbEntity
  8
Capa 1
 62
     7
420
 16777215
370
     5
100
AcDbVertex
100
AcDb2dVertex
 10
47.21038274644393
 20
-75.15544702982226
 30
0.0
  0
VERTEX
  5
1A5
330
1A3
100
AcDbEntity
  8
Capa 1
 62
     7
420
 16777215
370
     5
100
AcDbVertex
100
AcDb2dVertex
 10
47.83136120766022
 20
-75.15544702982226
 30
0.0
  0
SEQEND
  5
1A6
330
1A3
100
AcDbEntity
  8
Capa 1
370
     5
  0
POLYLINE
  5
1A7
330
1F
100
AcDbEntity
  8
Capa 1
 62
     7
420
 16777215
370
     5
100
AcDb2dPolyline
 66
     1
 10
0.0
 20
0.0
 30
0.0
  0
VERTEX
  5
1A8
330
1A7
100
AcDbEntity
  8
Capa 1
 62
     7
420
 16777215
370
     5
100
AcDbVertex
100
AcDb2dVertex
 10
51.14175345943679
 20
-77.73875187943685
 30
0.0
  0
VERTEX
  5
1A9
330
1A7
100
AcDbEntity
  8
Capa 1
 62
     7
420
 16777215
370
     5
100
AcDbVertex
100
AcDb2dVertex
 10
51.14175345943679
 20
-75.15544702982226
 30
0.0
  0
SEQEND
  5
1AA
330
1A7
100
AcDbEntity
  8
Capa 1
370
     5
  0
POLYLINE
  5
1AB
330
1F
100
AcDbEntity
  8
Capa 1
 62
     7
420
 16777215
370
     5
100
AcDb2dPolyline
 66
     1
 10
0.0
 20
0.0
 30
0.0
  0
VERTEX
  5
1AC
330
1AB
100
AcDbEntity
  8
Capa 1
 62
     7
420
 16777215
370
     5
100
AcDbVertex
100
AcDb2dVertex
 10
47.5669501291673
 20
-77.73875187943685
 30
0.0
  0
VERTEX
  5
1AD
330
1AB
100
AcDbEntity
  8
Capa 1
 62
     7
420
 16777215
370
     5
100
AcDbVertex
100
AcDb2dVertex
 10
47.5669501291673
 20
-75.15544702982226
 30
0.0
  0
SEQEND
  5
1AE
330
1AB
100
AcDbEntity
  8
Capa 1
370
     5
  0
POLYLINE
  5
1AF
330
1F
100
AcDbEntity
  8
Capa 1
 62
     7
420
 16777215
370
     5
100
AcDb2dPolyline
 66
     1
 10
0.0
 20
0.0
 30
0.0
  0
VERTEX
  5
1B0
330
1AF
100
AcDbEntity
  8
Capa 1
 62
     7
420
 16777215
370
     5
100
AcDbVertex
100
AcDb2dVertex
 10
47.5669501291673
 20
-108.32896047639
 30
0.0
  0
VERTEX
  5
1B1
330
1AF
100
AcDbEntity
  8
Capa 1
 62
     7
420
 16777215
370
     5
100
AcDbVertex
100
AcDb2dVertex
 10
47.5669501291673
 20
-107.9713595650211
 30
0.0
  0
SEQEND
  5
1B2
330
1AF
100
AcDbEntity
  8
Capa 1
370
     5
  0
SPLINE
  5
1B3
330
1F
100
AcDbEntity
  8
Capa 1
 62
     7
420
 16777215
370
     5
100
AcDbSpline
210
0.0
220
0.0
230
1.0
 70
     8
 71
     3
 72
    11
 73
     7
 74
     0
 42
0.0000000001
 43
0.0000000001
 40
0.0
 40
0.0
 40
0.0
 40
0.0
 40
1.0
 40
1.0
 40
1.0
 40
2.0
 40
2.0
 40
2.0
 40
2.0
 10
50.96312525852658
 20
-107.7932481284336
 30
0.0
 10
51.28300237433203
 20
-107.7687879504884
 30
0.0
 10
51.52140298191132
 20
-107.4911132543772
 30
0.0
 10
51.49900986125719
 20
-107.1710638837975
 30
0.0
 10
51.49298094415801
 20
-107.0956162926705
 30
0.0
 10
51.47127684260094
 20
-107.0232692874803
 30
0.0
 10
51.43630912342564
 20
-106.9550563968724
 30
0.0
  0
SPLINE
  5
1B4
330
1F
100
AcDbEntity
  8
Capa 1
 62
     7
420
 16777215
370
     5
100
AcDbSpline
210
0.0
220
0.0
230
1.0
 70
     8
 71
     3
 72
    11
 73
     7
 74
     0
 42
0.0000000001
 43
0.0000000001
 40
0.0
 40
0.0
 40
0.0
 40
0.0
 40
1.0
 40
1.0
 40
1.0
 40
2.0
 40
2.0
 40
2.0
 40
2.0
 10
47.27015515311302
 20
-106.9550563968724
 30
0.0
 10
47.12838947389499
 20
-107.2416883412451
 30
0.0
 10
47.24483370129644
 20
-107.5903320043524
 30
0.0
 10
47.53077662657217
 20
-107.7329589574418
 30
0.0
 10
47.59898951718012
 20
-107.7674099122943
 30
0.0
 10
47.67271456056447
 20
-107.7873914661087
 30
0.0
 10
47.74626734917454
 20
-107.7932481284336
 30
0.0
  0
POLYLINE
  5
1B5
330
1F
100
AcDbEntity
  8
Capa 1
 62
     7
420
 16777215
370
     5
100
AcDb2dPolyline
 66
     1
 10
0.0
 20
0.0
 30
0.0
  0
VERTEX
  5
1B6
330
1B5
100
AcDbEntity
  8
Capa 1
 62
     7
420
 16777215
370
     5
100
AcDbVertex
100
AcDb2dVertex
 10
47.21038274644393
 20
-101.8945556385889
 30
0.0
  0
VERTEX
  5
1B7
330
1B5
100
AcDbEntity
  8
Capa 1
 62
     7
420
 16777215
370
     5
100
AcDbVertex
100
AcDb2dVertex
 10
51.49900986125719
 20
-101.8945556385889
 30
0.0
  0
SEQEND
  5
1B8
330
1B5
100
AcDbEntity
  8
Capa 1
370
     5
  0
POLYLINE
  5
1B9
330
1F
100
AcDbEntity
  8
Capa 1
 62
     7
420
 16777215
370
     5
100
AcDb2dPolyline
 66
     1
 10
0.0
 20
0.0
 30
0.0
  0
VERTEX
  5
1BA
330
1B9
100
AcDbEntity
  8
Capa 1
 62
     7
420
 16777215
370
     5
100
AcDbVertex
100
AcDb2dVertex
 10
51.14175345943679
 20
-106.3631889925064
 30
0.0
  0
VERTEX
  5
1BB
330
1B9
100
AcDbEntity
  8
Capa 1
 62
     7
420
 16777215
370
     5
100
AcDbVertex
100
AcDb2dVertex
 10
51.14175345943679
 20
-103.8603271224724
 30
0.0
  0
SEQEND
  5
1BC
330
1B9
100
AcDbEntity
  8
Capa 1
370
     5
  0
POLYLINE
  5
1BD
330
1F
100
AcDbEntity
  8
Capa 1
 62
     7
420
 16777215
370
     5
100
AcDb2dPolyline
 66
     1
 10
0.0
 20
0.0
 30
0.0
  0
VERTEX
  5
1BE
330
1BD
100
AcDbEntity
  8
Capa 1
 62
     7
420
 16777215
370
     5
100
AcDbVertex
100
AcDb2dVertex
 10
51.49900986125719
 20
-102.4759155017248
 30
0.0
  0
VERTEX
  5
1BF
330
1BD
100
AcDbEntity
  8
Capa 1
 62
     7
420
 16777215
370
     5
100
AcDbVertex
100
AcDb2dVertex
 10
51.49900986125719
 20
-101.8945556385889
 30
0.0
  0
SEQEND
  5
1C0
330
1BD
100
AcDbEntity
  8
Capa 1
370
     5
  0
SPLINE
  5
1C1
330
1F
100
AcDbEntity
  8
Capa 1
 62
     7
420
 16777215
370
     5
100
AcDbSpline
210
0.0
220
0.0
230
1.0
 70
     8
 71
     3
 72
     8
 73
     4
 74
     0
 42
0.0000000001
 43
0.0000000001
 40
0.0
 40
0.0
 40
0.0
 40
0.0
 40
1.0
 40
1.0
 40
1.0
 40
1.0
 10
51.14175345943679
 20
-103.8603271224724
 30
0.0
 10
51.37705348107935
 20
-103.4364081230124
 30
0.0
 10
51.49900986125719
 20
-102.9606404364994
 30
0.0
 10
51.49900986125719
 20
-102.4759155017248
 30
0.0
  0
POLYLINE
  5
1C2
330
1F
100
AcDbEntity
  8
Capa 1
 62
     7
420
 16777215
370
     5
100
AcDb2dPolyline
 66
     1
 10
0.0
 20
0.0
 30
0.0
  0
VERTEX
  5
1C3
330
1C2
100
AcDbEntity
  8
Capa 1
 62
     7
420
 16777215
370
     5
100
AcDbVertex
100
AcDb2dVertex
 10
51.14175345943679
 20
-106.3631889925064
 30
0.0
  0
VERTEX
  5
1C4
330
1C2
100
AcDbEntity
  8
Capa 1
 62
     7
420
 16777215
370
     5
100
AcDbVertex
100
AcDb2dVertex
 10
51.43630912342564
 20
-106.9550563968724
 30
0.0
  0
SEQEND
  5
1C5
330
1C2
100
AcDbEntity
  8
Capa 1
370
     5
  0
POLYLINE
  5
1C6
330
1F
100
AcDbEntity
  8
Capa 1
 62
     7
420
 16777215
370
     5
100
AcDb2dPolyline
 66
     1
 10
0.0
 20
0.0
 30
0.0
  0
VERTEX
  5
1C7
330
1C6
100
AcDbEntity
  8
Capa 1
 62
     7
420
 16777215
370
     5
100
AcDbVertex
100
AcDb2dVertex
 10
50.87510306887845
 20
-106.3631889925064
 30
0.0
  0
VERTEX
  5
1C8
330
1C6
100
AcDbEntity
  8
Capa 1
 62
     7
420
 16777215
370
     5
100
AcDbVertex
100
AcDb2dVertex
 10
50.87510306887845
 20
-103.8603271224724
 30
0.0
  0
SEQEND
  5
1C9
330
1C6
100
AcDbEntity
  8
Capa 1
370
     5
  0
POLYLINE
  5
1CA
330
1F
100
AcDbEntity
  8
Capa 1
 62
     7
420
 16777215
370
     5
100
AcDb2dPolyline
 66
     1
 10
0.0
 20
0.0
 30
0.0
  0
VERTEX
  5
1CB
330
1CA
100
AcDbEntity
  8
Capa 1
 62
     7
420
 16777215
370
     5
100
AcDbVertex
100
AcDb2dVertex
 10
49.80092229657755
 20
-106.3631889925064
 30
0.0
  0
VERTEX
  5
1CC
330
1CA
100
AcDbEntity
  8
Capa 1
 62
     7
420
 16777215
370
     5
100
AcDbVertex
100
AcDb2dVertex
 10
49.80092229657755
 20
-103.8603271224724
 30
0.0
  0
SEQEND
  5
1CD
330
1CA
100
AcDbEntity
  8
Capa 1
370
     5
  0
POLYLINE
  5
1CE
330
1F
100
AcDbEntity
  8
Capa 1
 62
     7
420
 16777215
370
     5
100
AcDb2dPolyline
 66
     1
 10
0.0
 20
0.0
 30
0.0
  0
VERTEX
  5
1CF
330
1CE
100
AcDbEntity
  8
Capa 1
 62
     7
420
 16777215
370
     5
100
AcDbVertex
100
AcDb2dVertex
 10
48.90847031112358
 20
-106.3631889925064
 30
0.0
  0
VERTEX
  5
1D0
330
1CE
100
AcDbEntity
  8
Capa 1
 62
     7
420
 16777215
370
     5
100
AcDbVertex
100
AcDb2dVertex
 10
48.90847031112358
 20
-103.8603271224724
 30
0.0
  0
SEQEND
  5
1D1
330
1CE
100
AcDbEntity
  8
Capa 1
370
     5
  0
POLYLINE
  5
1D2
330
1F
100
AcDbEntity
  8
Capa 1
 62
     7
420
 16777215
370
     5
100
AcDb2dPolyline
 66
     1
 10
0.0
 20
0.0
 30
0.0
  0
VERTEX
  5
1D3
330
1D2
100
AcDbEntity
  8
Capa 1
 62
     7
420
 16777215
370
     5
100
AcDbVertex
100
AcDb2dVertex
 10
50.24861245488577
 20
-106.3631889925064
 30
0.0
  0
VERTEX
  5
1D4
330
1D2
100
AcDbEntity
  8
Capa 1
 62
     7
420
 16777215
370
     5
100
AcDbVertex
100
AcDb2dVertex
 10
50.24861245488577
 20
-103.8603271224724
 30
0.0
  0
SEQEND
  5
1D5
330
1D2
100
AcDbEntity
  8
Capa 1
370
     5
  0
SPLINE
  5
1D6
330
1F
100
AcDbEntity
  8
Capa 1
 62
     7
420
 16777215
370
     5
100
AcDbSpline
210
0.0
220
0.0
230
1.0
 70
     8
 71
     3
 72
    11
 73
     7
 74
     0
 42
0.0000000001
 43
0.0000000001
 40
0.0
 40
0.0
 40
0.0
 40
0.0
 40
1.0
 40
1.0
 40
1.0
 40
2.0
 40
2.0
 40
2.0
 40
2.0
 10
48.90847031112358
 20
-106.3631889925064
 30
0.0
 10
48.90847031112358
 20
-106.6095133197018
 30
0.0
 10
49.10690781107397
 20
-106.8093288578463
 30
0.0
 10
49.35616046943179
 20
-106.8093288578463
 30
0.0
 10
49.60007322978748
 20
-106.8093288578463
 30
0.0
 10
49.80092229657755
 20
-106.6095133197018
 30
0.0
 10
49.80092229657755
 20
-106.3631889925064
 30
0.0
  0
SPLINE
  5
1D7
330
1F
100
AcDbEntity
  8
Capa 1
 62
     7
420
 16777215
370
     5
100
AcDbSpline
210
0.0
220
0.0
230
1.0
 70
     8
 71
     3
 72
    11
 73
     7
 74
     0
 42
0.0000000001
 43
0.0000000001
 40
0.0
 40
0.0
 40
0.0
 40
0.0
 40
1.0
 40
1.0
 40
1.0
 40
2.0
 40
2.0
 40
2.0
 40
2.0
 10
50.24861245488577
 20
-106.3631889925064
 30
0.0
 10
50.24861245488577
 20
-106.6095133197018
 30
0.0
 10
50.38813882203839
 20
-106.8093288578463
 30
0.0
 10
50.5607381058494
 20
-106.8093288578463
 30
0.0
 10
50.73333738966042
 20
-106.8093288578463
 30
0.0
 10
50.87510306887845
 20
-106.6095133197018
 30
0.0
 10
50.87510306887845
 20
-106.3631889925064
 30
0.0
  0
SPLINE
  5
1D8
330
1F
100
AcDbEntity
  8
Capa 1
 62
     7
420
 16777215
370
     5
100
AcDbSpline
210
0.0
220
0.0
230
1.0
 70
     8
 71
     3
 72
    11
 73
     7
 74
     0
 42
0.0000000001
 43
0.0000000001
 40
0.0
 40
0.0
 40
0.0
 40
0.0
 40
1.0
 40
1.0
 40
1.0
 40
2.0
 40
2.0
 40
2.0
 40
2.0
 10
50.87510306887845
 20
-103.8603271224724
 30
0.0
 10
50.87510306887845
 20
-103.6138305405028
 30
0.0
 10
50.73333738966042
 20
-103.4136704928098
 30
0.0
 10
50.5607381058494
 20
-103.4136704928098
 30
0.0
 10
50.38813882203839
 20
-103.4136704928098
 30
0.0
 10
50.24861245488577
 20
-103.6138305405028
 30
0.0
 10
50.24861245488577
 20
-103.8603271224724
 30
0.0
  0
SPLINE
  5
1D9
330
1F
100
AcDbEntity
  8
Capa 1
 62
     7
420
 16777215
370
     5
100
AcDbSpline
210
0.0
220
0.0
230
1.0
 70
     8
 71
     3
 72
    11
 73
     7
 74
     0
 42
0.0000000001
 43
0.0000000001
 40
0.0
 40
0.0
 40
0.0
 40
0.0
 40
1.0
 40
1.0
 40
1.0
 40
2.0
 40
2.0
 40
2.0
 40
2.0
 10
49.80092229657755
 20
-103.8603271224724
 30
0.0
 10
49.80092229657755
 20
-103.6138305405028
 30
0.0
 10
49.60007322978748
 20
-103.4136704928098
 30
0.0
 10
49.35616046943179
 20
-103.4136704928098
 30
0.0
 10
49.10690781107397
 20
-103.4136704928098
 30
0.0
 10
48.90847031112358
 20
-103.6138305405028
 30
0.0
 10
48.90847031112358
 20
-103.8603271224724
 30
0.0
  0
POLYLINE
  5
1DA
330
1F
100
AcDbEntity
  8
Capa 1
 62
     7
420
 16777215
370
     5
100
AcDb2dPolyline
 66
     1
 10
0.0
 20
0.0
 30
0.0
  0
VERTEX
  5
1DB
330
1DA
100
AcDbEntity
  8
Capa 1
 62
     7
420
 16777215
370
     5
100
AcDbVertex
100
AcDb2dVertex
 10
47.21038274644393
 20
-102.4759155017248
 30
0.0
  0
VERTEX
  5
1DC
330
1DA
100
AcDbEntity
  8
Capa 1
 62
     7
420
 16777215
370
     5
100
AcDbVertex
100
AcDb2dVertex
 10
47.21038274644393
 20
-101.8945556385889
 30
0.0
  0
SEQEND
  5
1DD
330
1DA
100
AcDbEntity
  8
Capa 1
370
     5
  0
SPLINE
  5
1DE
330
1F
100
AcDbEntity
  8
Capa 1
 62
     7
420
 16777215
370
     5
100
AcDbSpline
210
0.0
220
0.0
230
1.0
 70
     8
 71
     3
 72
     8
 73
     4
 74
     0
 42
0.0000000001
 43
0.0000000001
 40
0.0
 40
0.0
 40
0.0
 40
0.0
 40
1.0
 40
1.0
 40
1.0
 40
1.0
 10
47.21038274644393
 20
-102.4759155017248
 30
0.0
 10
47.21038274644393
 20
-102.9606404364994
 30
0.0
 10
47.33233912662178
 20
-103.4364081230124
 30
0.0
 10
47.5669501291673
 20
-103.8603271224724
 30
0.0
  0
POLYLINE
  5
1DF
330
1F
100
AcDbEntity
  8
Capa 1
 62
     7
420
 16777215
370
     5
100
AcDb2dPolyline
 66
     1
 10
0.0
 20
0.0
 30
0.0
  0
VERTEX
  5
1E0
330
1DF
100
AcDbEntity
  8
Capa 1
 62
     7
420
 16777215
370
     5
100
AcDbVertex
100
AcDb2dVertex
 10
47.5669501291673
 20
-106.3631889925064
 30
0.0
  0
VERTEX
  5
1E1
330
1DF
100
AcDbEntity
  8
Capa 1
 62
     7
420
 16777215
370
     5
100
AcDbVertex
100
AcDb2dVertex
 10
47.27015515311302
 20
-106.9550563968724
 30
0.0
  0
SEQEND
  5
1E2
330
1DF
100
AcDbEntity
  8
Capa 1
370
     5
  0
POLYLINE
  5
1E3
330
1F
100
AcDbEntity
  8
Capa 1
 62
     7
420
 16777215
370
     5
100
AcDb2dPolyline
 66
     1
 10
0.0
 20
0.0
 30
0.0
  0
VERTEX
  5
1E4
330
1E3
100
AcDbEntity
  8
Capa 1
 62
     7
420
 16777215
370
     5
100
AcDbVertex
100
AcDb2dVertex
 10
47.83670110566236
 20
-106.3631889925064
 30
0.0
  0
VERTEX
  5
1E5
330
1E3
100
AcDbEntity
  8
Capa 1
 62
     7
420
 16777215
370
     5
100
AcDbVertex
100
AcDb2dVertex
 10
47.83670110566236
 20
-103.8603271224724
 30
0.0
  0
SEQEND
  5
1E6
330
1E3
100
AcDbEntity
  8
Capa 1
370
     5
  0
POLYLINE
  5
1E7
330
1F
100
AcDbEntity
  8
Capa 1
 62
     7
420
 16777215
370
     5
100
AcDb2dPolyline
 66
     1
 10
0.0
 20
0.0
 30
0.0
  0
VERTEX
  5
1E8
330
1E7
100
AcDbEntity
  8
Capa 1
 62
     7
420
 16777215
370
     5
100
AcDbVertex
100
AcDb2dVertex
 10
48.46009113371831
 20
-106.3631889925064
 30
0.0
  0
VERTEX
  5
1E9
330
1E7
100
AcDbEntity
  8
Capa 1
 62
     7
420
 16777215
370
     5
100
AcDbVertex
100
AcDb2dVertex
 10
48.46009113371831
 20
-103.8603271224724
 30
0.0
  0
SEQEND
  5
1EA
330
1E7
100
AcDbEntity
  8
Capa 1
370
     5
  0
SPLINE
  5
1EB
330
1F
100
AcDbEntity
  8
Capa 1
 62
     7
420
 16777215
370
     5
100
AcDbSpline
210
0.0
220
0.0
230
1.0
 70
     8
 71
     3
 72
    11
 73
     7
 74
     0
 42
0.0000000001
 43
0.0000000001
 40
0.0
 40
0.0
 40
0.0
 40
0.0
 40
1.0
 40
1.0
 40
1.0
 40
2.0
 40
2.0
 40
2.0
 40
2.0
 10
47.83670110566236
 20
-106.3631889925064
 30
0.0
 10
47.83670110566236
 20
-106.6095133197018
 30
0.0
 10
47.97553845371792
 20
-106.8093288578463
 30
0.0
 10
48.14882675662599
 20
-106.8093288578463
 30
0.0
 10
48.32125378566275
 20
-106.8093288578463
 30
0.0
 10
48.46009113371831
 20
-106.6095133197018
 30
0.0
 10
48.46009113371831
 20
-106.3631889925064
 30
0.0
  0
SPLINE
  5
1EC
330
1F
100
AcDbEntity
  8
Capa 1
 62
     7
420
 16777215
370
     5
100
AcDbSpline
210
0.0
220
0.0
230
1.0
 70
     8
 71
     3
 72
    11
 73
     7
 74
     0
 42
0.0000000001
 43
0.0000000001
 40
0.0
 40
0.0
 40
0.0
 40
0.0
 40
1.0
 40
1.0
 40
1.0
 40
2.0
 40
2.0
 40
2.0
 40
2.0
 10
48.46009113371831
 20
-103.8603271224724
 30
0.0
 10
48.46009113371831
 20
-103.6138305405028
 30
0.0
 10
48.32125378566275
 20
-103.4136704928098
 30
0.0
 10
48.14882675662599
 20
-103.4136704928098
 30
0.0
 10
47.97553845371792
 20
-103.4136704928098
 30
0.0
 10
47.83670110566236
 20
-103.6138305405028
 30
0.0
 10
47.83670110566236
 20
-103.8603271224724
 30
0.0
  0
POLYLINE
  5
1ED
330
1F
100
AcDbEntity
  8
Capa 1
 62
     7
420
 16777215
370
     5
100
AcDb2dPolyline
 66
     1
 10
0.0
 20
0.0
 30
0.0
  0
VERTEX
  5
1EE
330
1ED
100
AcDbEntity
  8
Capa 1
 62
     7
420
 16777215
370
     5
100
AcDbVertex
100
AcDb2dVertex
 10
47.5669501291673
 20
-106.3631889925064
 30
0.0
  0
VERTEX
  5
1EF
330
1ED
100
AcDbEntity
  8
Capa 1
 62
     7
420
 16777215
370
     5
100
AcDbVertex
100
AcDb2dVertex
 10
47.5669501291673
 20
-103.8603271224724
 30
0.0
  0
SEQEND
  5
1F0
330
1ED
100
AcDbEntity
  8
Capa 1
370
     5
  0
POLYLINE
  5
1F1
330
1F
100
AcDbEntity
  8
Capa 1
 62
     7
420
 16777215
370
     5
100
AcDb2dPolyline
 66
     1
 10
0.0
 20
0.0
 30
0.0
  0
VERTEX
  5
1F2
330
1F1
100
AcDbEntity
  8
Capa 1
 62
     7
420
 16777215
370
     5
100
AcDbVertex
100
AcDb2dVertex
 10
47.74626734917454
 20
-107.7932481284336
 30
0.0
  0
VERTEX
  5
1F3
330
1F1
100
AcDbEntity
  8
Capa 1
 62
     7
420
 16777215
370
     5
100
AcDbVertex
100
AcDb2dVertex
 10
50.96312525852658
 20
-107.7932481284336
 30
0.0
  0
SEQEND
  5
1F4
330
1F1
100
AcDbEntity
  8
Capa 1
370
     5
  0
POLYLINE
  5
1F5
330
1F
100
AcDbEntity
  8
Capa 1
 62
     7
420
 16777215
370
     5
100
AcDb2dPolyline
 66
     1
 10
0.0
 20
0.0
 30
0.0
  0
VERTEX
  5
1F6
330
1F5
100
AcDbEntity
  8
Capa 1
 62
     7
420
 16777215
370
     5
100
AcDbVertex
100
AcDb2dVertex
 10
46.67449814371332
 20
-108.32896047639
 30
0.0
  0
VERTEX
  5
1F7
330
1F5
100
AcDbEntity
  8
Capa 1
 62
     7
420
 16777215
370
     5
100
AcDbVertex
100
AcDb2dVertex
 10
52.03730603082748
 20
-108.32896047639
 30
0.0
  0
SEQEND
  5
1F8
330
1F5
100
AcDbEntity
  8
Capa 1
370
     5
  0
POLYLINE
  5
1F9
330
1F
100
AcDbEntity
  8
Capa 1
 62
     7
420
 16777215
370
     5
100
AcDb2dPolyline
 66
     1
 10
0.0
 20
0.0
 30
0.0
  0
VERTEX
  5
1FA
330
1F9
100
AcDbEntity
  8
Capa 1
 62
     7
420
 16777215
370
     5
100
AcDbVertex
100
AcDb2dVertex
 10
51.14175345943679
 20
-108.32896047639
 30
0.0
  0
VERTEX
  5
1FB
330
1F9
100
AcDbEntity
  8
Capa 1
 62
     7
420
 16777215
370
     5
100
AcDbVertex
100
AcDb2dVertex
 10
51.14175345943679
 20
-107.9713595650211
 30
0.0
  0
SEQEND
  5
1FC
330
1F9
100
AcDbEntity
  8
Capa 1
370
     5
  0
SPLINE
  5
1FD
330
1F
100
AcDbEntity
  8
Capa 1
 62
     7
420
 16777215
370
     5
100
AcDbSpline
210
0.0
220
0.0
230
1.0
 70
     8
 71
     3
 72
     8
 73
     4
 74
     0
 42
0.0000000001
 43
0.0000000001
 40
0.0
 40
0.0
 40
0.0
 40
0.0
 40
1.0
 40
1.0
 40
1.0
 40
1.0
 10
51.14175345943679
 20
-107.9713595650211
 30
0.0
 10
51.14175345943679
 20
-107.8721408150459
 30
0.0
 10
51.06217175372751
 20
-107.7932481284336
 30
0.0
 10
50.96312525852658
 20
-107.7932481284336
 30
0.0
  0
POLYLINE
  5
1FE
330
1F
100
AcDbEntity
  8
Capa 1
 62
     7
420
 16777215
370
     5
100
AcDb2dPolyline
 66
     1
 10
0.0
 20
0.0
 30
0.0
  0
VERTEX
  5
1FF
330
1FE
100
AcDbEntity
  8
Capa 1
 62
     7
420
 16777215
370
     5
100
AcDbVertex
100
AcDb2dVertex
 10
52.57077906671842
 20
-108.6390190700625
 30
0.0
  0
VERTEX
  5
200
330
1FE
100
AcDbEntity
  8
Capa 1
 62
     7
420
 16777215
370
     5
100
AcDbVertex
100
AcDb2dVertex
 10
52.57077906671842
 20
-111.5935329582127
 30
0.0
  0
SEQEND
  5
201
330
1FE
100
AcDbEntity
  8
Capa 1
370
     5
  0
POLYLINE
  5
202
330
1F
100
AcDbEntity
  8
Capa 1
 62
     7
420
 16777215
370
     5
100
AcDb2dPolyline
 66
     1
 10
0.0
 20
0.0
 30
0.0
  0
VERTEX
  5
203
330
202
100
AcDbEntity
  8
Capa 1
 62
     7
420
 16777215
370
     5
100
AcDbVertex
100
AcDb2dVertex
 10
52.03730603082748
 20
-111.9042805709823
 30
0.0
  0
VERTEX
  5
204
330
202
100
AcDbEntity
  8
Capa 1
 62
     7
420
 16777215
370
     5
100
AcDbVertex
100
AcDb2dVertex
 10
46.67449814371332
 20
-111.9042805709823
 30
0.0
  0
SEQEND
  5
205
330
202
100
AcDbEntity
  8
Capa 1
370
     5
  0
SPLINE
  5
206
330
1F
100
AcDbEntity
  8
Capa 1
 62
     7
420
 16777215
370
     5
100
AcDbSpline
210
0.0
220
0.0
230
1.0
 70
     8
 71
     3
 72
     8
 73
     4
 74
     0
 42
0.0000000001
 43
0.0000000001
 40
0.0
 40
0.0
 40
0.0
 40
0.0
 40
1.0
 40
1.0
 40
1.0
 40
1.0
 10
47.74626734917454
 20
-107.7932481284336
 30
0.0
 10
47.64670408965083
 20
-107.7932481284336
 30
0.0
 10
47.5669501291673
 20
-107.8721408150459
 30
0.0
 10
47.5669501291673
 20
-107.9713595650211
 30
0.0
  0
POLYLINE
  5
207
330
1F
100
AcDbEntity
  8
Capa 1
 62
     7
420
 16777215
370
     5
100
AcDb2dPolyline
 66
     1
 10
0.0
 20
0.0
 30
0.0
  0
VERTEX
  5
208
330
207
100
AcDbEntity
  8
Capa 1
 62
     7
420
 16777215
370
     5
100
AcDbVertex
100
AcDb2dVertex
 10
52.03730603082748
 20
-108.32896047639
 30
0.0
  0
VERTEX
  5
209
330
207
100
AcDbEntity
  8
Capa 1
 62
     7
420
 16777215
370
     5
100
AcDbVertex
100
AcDb2dVertex
 10
52.57077906671842
 20
-108.6390190700625
 30
0.0
  0
SEQEND
  5
20A
330
207
100
AcDbEntity
  8
Capa 1
370
     5
  0
POLYLINE
  5
20B
330
1F
100
AcDbEntity
  8
Capa 1
 62
     7
420
 16777215
370
     5
100
AcDb2dPolyline
 66
     1
 10
0.0
 20
0.0
 30
0.0
  0
VERTEX
  5
20C
330
20B
100
AcDbEntity
  8
Capa 1
 62
     7
420
 16777215
370
     5
100
AcDbVertex
100
AcDb2dVertex
 10
52.03730603082748
 20
-111.9042805709823
 30
0.0
  0
VERTEX
  5
20D
330
20B
100
AcDbEntity
  8
Capa 1
 62
     7
420
 16777215
370
     5
100
AcDbVertex
100
AcDb2dVertex
 10
52.57077906671842
 20
-111.5935329582127
 30
0.0
  0
SEQEND
  5
20E
330
20B
100
AcDbEntity
  8
Capa 1
370
     5
  0
POLYLINE
  5
20F
330
1F
100
AcDbEntity
  8
Capa 1
 62
     7
420
 16777215
370
     5
100
AcDb2dPolyline
 66
     1
 10
0.0
 20
0.0
 30
0.0
  0
VERTEX
  5
210
330
20F
100
AcDbEntity
  8
Capa 1
 62
     7
420
 16777215
370
     5
100
AcDbVertex
100
AcDb2dVertex
 10
47.5669501291673
 20
-108.6390190700625
 30
0.0
  0
VERTEX
  5
211
330
20F
100
AcDbEntity
  8
Capa 1
 62
     7
420
 16777215
370
     5
100
AcDbVertex
100
AcDb2dVertex
 10
47.5669501291673
 20
-111.5935329582127
 30
0.0
  0
SEQEND
  5
212
330
20F
100
AcDbEntity
  8
Capa 1
370
     5
  0
POLYLINE
  5
213
330
1F
100
AcDbEntity
  8
Capa 1
 62
     7
420
 16777215
370
     5
100
AcDb2dPolyline
 66
     1
 10
0.0
 20
0.0
 30
0.0
  0
VERTEX
  5
214
330
213
100
AcDbEntity
  8
Capa 1
 62
     7
420
 16777215
370
     5
100
AcDbVertex
100
AcDb2dVertex
 10
51.14175345943679
 20
-108.6390190700625
 30
0.0
  0
VERTEX
  5
215
330
213
100
AcDbEntity
  8
Capa 1
 62
     7
420
 16777215
370
     5
100
AcDbVertex
100
AcDb2dVertex
 10
51.14175345943679
 20
-111.5935329582127
 30
0.0
  0
SEQEND
  5
216
330
213
100
AcDbEntity
  8
Capa 1
370
     5
  0
SPLINE
  5
217
330
1F
100
AcDbEntity
  8
Capa 1
 62
     7
420
 16777215
370
     5
100
AcDbSpline
210
0.0
220
0.0
230
1.0
 70
     8
 71
     3
 72
     8
 73
     4
 74
     0
 42
0.0000000001
 43
0.0000000001
 40
0.0
 40
0.0
 40
0.0
 40
0.0
 40
1.0
 40
1.0
 40
1.0
 40
1.0
 10
51.14175345943679
 20
-108.6390190700625
 30
0.0
 10
49.98557941458694
 20
-108.225263102284
 30
0.0
 10
48.72140162627451
 20
-108.225263102284
 30
0.0
 10
47.5669501291673
 20
-108.6390190700625
 30
0.0
  0
SPLINE
  5
218
330
1F
100
AcDbEntity
  8
Capa 1
 62
     7
420
 16777215
370
     5
100
AcDbSpline
210
0.0
220
0.0
230
1.0
 70
     8
 71
     3
 72
     8
 73
     4
 74
     0
 42
0.0000000001
 43
0.0000000001
 40
0.0
 40
0.0
 40
0.0
 40
0.0
 40
1.0
 40
1.0
 40
1.0
 40
1.0
 10
47.5669501291673
 20
-111.5935329582127
 30
0.0
 10
48.72140162627451
 20
-112.0076334355398
 30
0.0
 10
49.98557941458694
 20
-112.0076334355398
 30
0.0
 10
51.14175345943679
 20
-111.5935329582127
 30
0.0
  0
SPLINE
  5
219
330
1F
100
AcDbEntity
  8
Capa 1
 62
     7
420
 16777215
370
     5
100
AcDbSpline
210
0.0
220
0.0
230
1.0
 70
     8
 71
     3
 72
     8
 73
     4
 74
     0
 42
0.0000000001
 43
0.0000000001
 40
0.0
 40
0.0
 40
0.0
 40
0.0
 40
1.0
 40
1.0
 40
1.0
 40
1.0
 10
46.67449814371332
 20
-111.9042805709823
 30
0.0
 10
46.99799260977828
 20
-111.9166829147292
 30
0.0
 10
47.32079805674619
 20
-111.8064398592012
 30
0.0
 10
47.5669501291673
 20
-111.5935329582127
 30
0.0
  0
SPLINE
  5
21A
330
1F
100
AcDbEntity
  8
Capa 1
 62
     7
420
 16777215
370
     5
100
AcDbSpline
210
0.0
220
0.0
230
1.0
 70
     8
 71
     3
 72
     8
 73
     4
 74
     0
 42
0.0000000001
 43
0.0000000001
 40
0.0
 40
0.0
 40
0.0
 40
0.0
 40
1.0
 40
1.0
 40
1.0
 40
1.0
 10
47.5669501291673
 20
-108.6390190700625
 30
0.0
 10
47.32079805674619
 20
-108.4264566786226
 30
0.0
 10
46.99799260977828
 20
-108.315869113546
 30
0.0
 10
46.67449814371332
 20
-108.32896047639
 30
0.0
  0
SPLINE
  5
21B
330
1F
100
AcDbEntity
  8
Capa 1
 62
     7
420
 16777215
370
     5
100
AcDbSpline
210
0.0
220
0.0
230
1.0
 70
     8
 71
     3
 72
     8
 73
     4
 74
     0
 42
0.0000000001
 43
0.0000000001
 40
0.0
 40
0.0
 40
0.0
 40
0.0
 40
1.0
 40
1.0
 40
1.0
 40
1.0
 10
52.03730603082748
 20
-108.32896047639
 30
0.0
 10
51.70898843108317
 20
-108.315869113546
 30
0.0
 10
51.39169513689166
 20
-108.4264566786226
 30
0.0
 10
51.14175345943679
 20
-108.6390190700625
 30
0.0
  0
SPLINE
  5
21C
330
1F
100
AcDbEntity
  8
Capa 1
 62
     7
420
 16777215
370
     5
100
AcDbSpline
210
0.0
220
0.0
230
1.0
 70
     8
 71
     3
 72
     8
 73
     4
 74
     0
 42
0.0000000001
 43
0.0000000001
 40
0.0
 40
0.0
 40
0.0
 40
0.0
 40
1.0
 40
1.0
 40
1.0
 40
1.0
 10
51.14175345943679
 20
-111.5935329582127
 30
0.0
 10
51.39169513689166
 20
-111.8064398592012
 30
0.0
 10
51.70898843108317
 20
-111.9166829147292
 30
0.0
 10
52.03730603082748
 20
-111.9042805709823
 30
0.0
  0
POLYLINE
  5
21D
330
1F
100
AcDbEntity
  8
Capa 1
 62
     7
420
 16777215
370
     5
100
AcDb2dPolyline
 66
     1
 10
0.0
 20
0.0
 30
0.0
  0
VERTEX
  5
21E
330
21D
100
AcDbEntity
  8
Capa 1
 62
     7
420
 16777215
370
     5
100
AcDbVertex
100
AcDb2dVertex
 10
46.13620197414303
 20
-108.6390190700625
 30
0.0
  0
VERTEX
  5
21F
330
21D
100
AcDbEntity
  8
Capa 1
 62
     7
420
 16777215
370
     5
100
AcDbVertex
100
AcDb2dVertex
 10
46.13620197414303
 20
-111.5935329582127
 30
0.0
  0
SEQEND
  5
220
330
21D
100
AcDbEntity
  8
Capa 1
370
     5
  0
POLYLINE
  5
221
330
1F
100
AcDbEntity
  8
Capa 1
 62
     7
420
 16777215
370
     5
100
AcDb2dPolyline
 66
     1
 10
0.0
 20
0.0
 30
0.0
  0
VERTEX
  5
222
330
221
100
AcDbEntity
  8
Capa 1
 62
     7
420
 16777215
370
     5
100
AcDbVertex
100
AcDb2dVertex
 10
46.67449814371332
 20
-108.32896047639
 30
0.0
  0
VERTEX
  5
223
330
221
100
AcDbEntity
  8
Capa 1
 62
     7
420
 16777215
370
     5
100
AcDbVertex
100
AcDb2dVertex
 10
46.13620197414303
 20
-108.6390190700625
 30
0.0
  0
SEQEND
  5
224
330
221
100
AcDbEntity
  8
Capa 1
370
     5
  0
POLYLINE
  5
225
330
1F
100
AcDbEntity
  8
Capa 1
 62
     7
420
 16777215
370
     5
100
AcDb2dPolyline
 66
     1
 10
0.0
 20
0.0
 30
0.0
  0
VERTEX
  5
226
330
225
100
AcDbEntity
  8
Capa 1
 62
     7
420
 16777215
370
     5
100
AcDbVertex
100
AcDb2dVertex
 10
46.67449814371332
 20
-111.9042805709823
 30
0.0
  0
VERTEX
  5
227
330
225
100
AcDbEntity
  8
Capa 1
 62
     7
420
 16777215
370
     5
100
AcDbVertex
100
AcDb2dVertex
 10
46.13620197414303
 20
-111.5935329582127
 30
0.0
  0
SEQEND
  5
228
330
225
100
AcDbEntity
  8
Capa 1
370
     5
  0
POLYLINE
  5
229
330
1F
100
AcDbEntity
  8
Capa 1
 62
     7
420
 16777215
370
     5
100
AcDb2dPolyline
 66
     1
 10
0.0
 20
0.0
 30
0.0
  0
VERTEX
  5
22A
330
229
100
AcDbEntity
  8
Capa 1
 62
     7
420
 16777215
370
     5
100
AcDbVertex
100
AcDb2dVertex
 10
51.14175345943679
 20
-101.8945556385889
 30
0.0
  0
VERTEX
  5
22B
330
229
100
AcDbEntity
  8
Capa 1
 62
     7
420
 16777215
370
     5
100
AcDbVertex
100
AcDb2dVertex
 10
51.14175345943679
 20
-96.80856117371454
 30
0.0
  0
SEQEND
  5
22C
330
229
100
AcDbEntity
  8
Capa 1
370
     5
  0
POLYLINE
  5
22D
330
1F
100
AcDbEntity
  8
Capa 1
 62
     7
420
 16777215
370
     5
100
AcDb2dPolyline
 66
     1
 10
0.0
 20
0.0
 30
0.0
  0
VERTEX
  5
22E
330
22D
100
AcDbEntity
  8
Capa 1
 62
     7
420
 16777215
370
     5
100
AcDbVertex
100
AcDb2dVertex
 10
47.5669501291673
 20
-97.76646997338825
 30
0.0
  0
VERTEX
  5
22F
330
22D
100
AcDbEntity
  8
Capa 1
 62
     7
420
 16777215
370
     5
100
AcDbVertex
100
AcDb2dVertex
 10
47.5669501291673
 20
-101.8945556385889
 30
0.0
  0
SEQEND
  5
230
330
22D
100
AcDbEntity
  8
Capa 1
370
     5
  0
POLYLINE
  5
231
330
1F
100
AcDbEntity
  8
Capa 1
 62
     7
420
 16777215
370
     5
100
AcDb2dPolyline
 66
     1
 10
0.0
 20
0.0
 30
0.0
  0
VERTEX
  5
232
330
231
100
AcDbEntity
  8
Capa 1
 62
     7
420
 16777215
370
     5
100
AcDbVertex
100
AcDb2dVertex
 10
76.4475300915652
 20
-110.4814561355741
 30
0.0
  0
VERTEX
  5
233
330
231
100
AcDbEntity
  8
Capa 1
 62
     7
420
 16777215
370
     5
100
AcDbVertex
100
AcDb2dVertex
 10
78.13045923610974
 20
-118.5364338896367
 30
0.0
  0
SEQEND
  5
234
330
231
100
AcDbEntity
  8
Capa 1
370
     5
  0
POLYLINE
  5
235
330
1F
100
AcDbEntity
  8
Capa 1
 62
     7
420
 16777215
370
     5
100
AcDb2dPolyline
 66
     1
 10
0.0
 20
0.0
 30
0.0
  0
VERTEX
  5
236
330
235
100
AcDbEntity
  8
Capa 1
 62
     7
420
 16777215
370
     5
100
AcDbVertex
100
AcDb2dVertex
 10
55.82381047866558
 20
-82.17000594733945
 30
0.0
  0
VERTEX
  5
237
330
235
100
AcDbEntity
  8
Capa 1
 62
     7
420
 16777215
370
     5
100
AcDbVertex
100
AcDb2dVertex
 10
39.23722601015597
 20
-82.17000594733945
 30
0.0
  0
SEQEND
  5
238
330
235
100
AcDbEntity
  8
Capa 1
370
     5
  0
POLYLINE
  5
239
330
1F
100
AcDbEntity
  8
Capa 1
 62
     7
420
 16777215
370
     5
100
AcDb2dPolyline
 66
     1
 10
0.0
 20
0.0
 30
0.0
  0
VERTEX
  5
23A
330
239
100
AcDbEntity
  8
Capa 1
 62
     7
420
 16777215
370
     5
100
AcDbVertex
100
AcDb2dVertex
 10
55.86067300035775
 20
-80.74046357573502
 30
0.0
  0
VERTEX
  5
23B
330
239
100
AcDbEntity
  8
Capa 1
 62
     7
420
 16777215
370
     5
100
AcDbVertex
100
AcDb2dVertex
 10
39.20346407440052
 20
-80.74046357573502
 30
0.0
  0
SEQEND
  5
23C
330
239
100
AcDbEntity
  8
Capa 1
370
     5
  0
POLYLINE
  5
23D
330
1F
100
AcDbEntity
  8
Capa 1
 62
     7
420
 16777215
370
     5
100
AcDb2dPolyline
 66
     1
 10
0.0
 20
0.0
 30
0.0
  0
VERTEX
  5
23E
330
23D
100
AcDbEntity
  8
Capa 1
 62
     7
420
 16777215
370
     5
100
AcDbVertex
100
AcDb2dVertex
 10
55.86067300035775
 20
-78.81155461354365
 30
0.0
  0
VERTEX
  5
23F
330
23D
100
AcDbEntity
  8
Capa 1
 62
     7
420
 16777215
370
     5
100
AcDbVertex
100
AcDb2dVertex
 10
39.20346407440052
 20
-78.81155461354365
 30
0.0
  0
SEQEND
  5
240
330
23D
100
AcDbEntity
  8
Capa 1
370
     5
  0
POLYLINE
  5
241
330
1F
100
AcDbEntity
  8
Capa 1
 62
     7
420
 16777215
370
     5
100
AcDb2dPolyline
 66
     1
 10
0.0
 20
0.0
 30
0.0
  0
VERTEX
  5
242
330
241
100
AcDbEntity
  8
Capa 1
 62
     7
420
 16777215
370
     5
100
AcDbVertex
100
AcDb2dVertex
 10
55.86067300035775
 20
-77.73875187943685
 30
0.0
  0
VERTEX
  5
243
330
241
100
AcDbEntity
  8
Capa 1
 62
     7
420
 16777215
370
     5
100
AcDbVertex
100
AcDb2dVertex
 10
39.20346407440052
 20
-77.73875187943685
 30
0.0
  0
SEQEND
  5
244
330
241
100
AcDbEntity
  8
Capa 1
370
     5
  0
SPLINE
  5
245
330
1F
100
AcDbEntity
  8
Capa 1
 62
     7
420
 16777215
370
     5
100
AcDbSpline
210
0.0
220
0.0
230
1.0
 70
     8
 71
     3
 72
     8
 73
     4
 74
     0
 42
0.0000000001
 43
0.0000000001
 40
0.0
 40
0.0
 40
0.0
 40
0.0
 40
1.0
 40
1.0
 40
1.0
 40
1.0
 10
39.12973903101618
 20
-82.06269122297391
 30
0.0
 10
39.12973903101618
 20
-82.12211912009447
 30
0.0
 10
39.18038193464935
 20
-82.17000594733945
 30
0.0
 10
39.23722601015597
 20
-82.17000594733945
 30
0.0
  0
SPLINE
  5
246
330
1F
100
AcDbEntity
  8
Capa 1
 62
     7
420
 16777215
370
     5
100
AcDbSpline
210
0.0
220
0.0
230
1.0
 70
     8
 71
     3
 72
     8
 73
     4
 74
     0
 42
0.0000000001
 43
0.0000000001
 40
0.0
 40
0.0
 40
0.0
 40
0.0
 40
1.0
 40
1.0
 40
1.0
 40
1.0
 10
39.20346407440052
 20
-80.74046357573502
 30
0.0
 10
39.16350096677163
 20
-80.74046357573502
 30
0.0
 10
39.12973903101618
 20
-80.77164168987653
 30
0.0
 10
39.12973903101618
 20
-80.81108803318264
 30
0.0
  0
SPLINE
  5
247
330
1F
100
AcDbEntity
  8
Capa 1
 62
     7
420
 16777215
370
     5
100
AcDbSpline
210
0.0
220
0.0
230
1.0
 70
     8
 71
     3
 72
     8
 73
     4
 74
     0
 42
0.0000000001
 43
0.0000000001
 40
0.0
 40
0.0
 40
0.0
 40
0.0
 40
1.0
 40
1.0
 40
1.0
 40
1.0
 10
39.12973903101618
 20
-78.73955211790192
 30
0.0
 10
39.12973903101618
 20
-78.77899846120803
 30
0.0
 10
39.16350096677163
 20
-78.81155461354365
 30
0.0
 10
39.20346407440052
 20
-78.81155461354365
 30
0.0
  0
POLYLINE
  5
248
330
1F
100
AcDbEntity
  8
Capa 1
 62
     7
420
 16777215
370
     5
100
AcDb2dPolyline
 66
     1
 10
0.0
 20
0.0
 30
0.0
  0
VERTEX
  5
249
330
248
100
AcDbEntity
  8
Capa 1
 62
     7
420
 16777215
370
     5
100
AcDbVertex
100
AcDb2dVertex
 10
39.12973903101618
 20
-78.73955211790192
 30
0.0
  0
VERTEX
  5
24A
330
248
100
AcDbEntity
  8
Capa 1
 62
     7
420
 16777215
370
     5
100
AcDbVertex
100
AcDb2dVertex
 10
39.12973903101618
 20
-77.80989310120725
 30
0.0
  0
SEQEND
  5
24B
330
248
100
AcDbEntity
  8
Capa 1
370
     5
  0
SPLINE
  5
24C
330
1F
100
AcDbEntity
  8
Capa 1
 62
     7
420
 16777215
370
     5
100
AcDbSpline
210
0.0
220
0.0
230
1.0
 70
     8
 71
     3
 72
     8
 73
     4
 74
     0
 42
0.0000000001
 43
0.0000000001
 40
0.0
 40
0.0
 40
0.0
 40
0.0
 40
1.0
 40
1.0
 40
1.0
 40
1.0
 10
39.20346407440052
 20
-77.73875187943685
 30
0.0
 10
39.16350096677163
 20
-77.73875187943685
 30
0.0
 10
39.12973903101618
 20
-77.77010224835261
 30
0.0
 10
39.12973903101618
 20
-77.80989310120725
 30
0.0
  0
POLYLINE
  5
24D
330
1F
100
AcDbEntity
  8
Capa 1
 62
     7
420
 16777215
370
     5
100
AcDb2dPolyline
 66
     1
 10
0.0
 20
0.0
 30
0.0
  0
VERTEX
  5
24E
330
24D
100
AcDbEntity
  8
Capa 1
 62
     7
420
 16777215
370
     5
100
AcDbVertex
100
AcDb2dVertex
 10
39.12973903101618
 20
-82.06269122297391
 30
0.0
  0
VERTEX
  5
24F
330
24D
100
AcDbEntity
  8
Capa 1
 62
     7
420
 16777215
370
     5
100
AcDbVertex
100
AcDb2dVertex
 10
39.12973903101618
 20
-80.81108803318264
 30
0.0
  0
SEQEND
  5
250
330
24D
100
AcDbEntity
  8
Capa 1
370
     5
  0
POLYLINE
  5
251
330
1F
100
AcDbEntity
  8
Capa 1
 62
     7
420
 16777215
370
     5
100
AcDb2dPolyline
 66
     1
 10
0.0
 20
0.0
 30
0.0
  0
VERTEX
  5
252
330
251
100
AcDbEntity
  8
Capa 1
 62
     7
420
 16777215
370
     5
100
AcDbVertex
100
AcDb2dVertex
 10
45.56362710449451
 20
-77.73875187943685
 30
0.0
  0
VERTEX
  5
253
330
251
100
AcDbEntity
  8
Capa 1
 62
     7
420
 16777215
370
     5
100
AcDbVertex
100
AcDb2dVertex
 10
45.56362710449451
 20
-69.61435545134641
 30
0.0
  0
SEQEND
  5
254
330
251
100
AcDbEntity
  8
Capa 1
370
     5
  0
POLYLINE
  5
255
330
1F
100
AcDbEntity
  8
Capa 1
 62
     7
420
 16777215
370
     5
100
AcDb2dPolyline
 66
     1
 10
0.0
 20
0.0
 30
0.0
  0
VERTEX
  5
256
330
255
100
AcDbEntity
  8
Capa 1
 62
     7
420
 16777215
370
     5
100
AcDbVertex
100
AcDb2dVertex
 10
42.88196477877604
 20
-77.73875187943685
 30
0.0
  0
VERTEX
  5
257
330
255
100
AcDbEntity
  8
Capa 1
 62
     7
420
 16777215
370
     5
100
AcDbVertex
100
AcDb2dVertex
 10
42.88196477877604
 20
-69.61435545134641
 30
0.0
  0
SEQEND
  5
258
330
255
100
AcDbEntity
  8
Capa 1
370
     5
  0
POLYLINE
  5
259
330
1F
100
AcDbEntity
  8
Capa 1
 62
     7
420
 16777215
370
     5
100
AcDb2dPolyline
 66
     1
 10
0.0
 20
0.0
 30
0.0
  0
VERTEX
  5
25A
330
259
100
AcDbEntity
  8
Capa 1
 62
     7
420
 16777215
370
     5
100
AcDbVertex
100
AcDb2dVertex
 10
45.56362710449451
 20
-80.74046357573502
 30
0.0
  0
VERTEX
  5
25B
330
259
100
AcDbEntity
  8
Capa 1
 62
     7
420
 16777215
370
     5
100
AcDbVertex
100
AcDb2dVertex
 10
45.56362710449451
 20
-78.81155461354365
 30
0.0
  0
SEQEND
  5
25C
330
259
100
AcDbEntity
  8
Capa 1
370
     5
  0
POLYLINE
  5
25D
330
1F
100
AcDbEntity
  8
Capa 1
 62
     7
420
 16777215
370
     5
100
AcDb2dPolyline
 66
     1
 10
0.0
 20
0.0
 30
0.0
  0
VERTEX
  5
25E
330
25D
100
AcDbEntity
  8
Capa 1
 62
     7
420
 16777215
370
     5
100
AcDbVertex
100
AcDb2dVertex
 10
42.88196477877604
 20
-80.74046357573502
 30
0.0
  0
VERTEX
  5
25F
330
25D
100
AcDbEntity
  8
Capa 1
 62
     7
420
 16777215
370
     5
100
AcDbVertex
100
AcDb2dVertex
 10
42.88196477877604
 20
-78.81155461354365
 30
0.0
  0
SEQEND
  5
260
330
25D
100
AcDbEntity
  8
Capa 1
370
     5
  0
SPLINE
  5
261
330
1F
100
AcDbEntity
  8
Capa 1
 62
     7
420
 16777215
370
     5
100
AcDbSpline
210
0.0
220
0.0
230
1.0
 70
     8
 71
     3
 72
     8
 73
     4
 74
     0
 42
0.0000000001
 43
0.0000000001
 40
0.0
 40
0.0
 40
0.0
 40
0.0
 40
1.0
 40
1.0
 40
1.0
 40
1.0
 10
55.82381047866558
 20
-82.17000594733945
 30
0.0
 10
55.88668347127139
 20
-82.17000594733945
 30
0.0
 10
55.93181422212816
 20
-82.12211912009447
 30
0.0
 10
55.93181422212816
 20
-82.06269122297391
 30
0.0
  0
SPLINE
  5
262
330
1F
100
AcDbEntity
  8
Capa 1
 62
     7
420
 16777215
370
     5
100
AcDbSpline
210
0.0
220
0.0
230
1.0
 70
     8
 71
     3
 72
     8
 73
     4
 74
     0
 42
0.0000000001
 43
0.0000000001
 40
0.0
 40
0.0
 40
0.0
 40
0.0
 40
1.0
 40
1.0
 40
1.0
 40
1.0
 10
55.93181422212816
 20
-80.81108803318264
 30
0.0
 10
55.93181422212816
 20
-80.77164168987653
 30
0.0
 10
55.90046385321239
 20
-80.74046357573502
 30
0.0
 10
55.86067300035775
 20
-80.74046357573502
 30
0.0
  0
SPLINE
  5
263
330
1F
100
AcDbEntity
  8
Capa 1
 62
     7
420
 16777215
370
     5
100
AcDbSpline
210
0.0
220
0.0
230
1.0
 70
     8
 71
     3
 72
     8
 73
     4
 74
     0
 42
0.0000000001
 43
0.0000000001
 40
0.0
 40
0.0
 40
0.0
 40
0.0
 40
1.0
 40
1.0
 40
1.0
 40
1.0
 10
55.86067300035775
 20
-78.81155461354365
 30
0.0
 10
55.90046385321239
 20
-78.81155461354365
 30
0.0
 10
55.93181422212816
 20
-78.77899846120803
 30
0.0
 10
55.93181422212816
 20
-78.73955211790192
 30
0.0
  0
POLYLINE
  5
264
330
1F
100
AcDbEntity
  8
Capa 1
 62
     7
420
 16777215
370
     5
100
AcDb2dPolyline
 66
     1
 10
0.0
 20
0.0
 30
0.0
  0
VERTEX
  5
265
330
264
100
AcDbEntity
  8
Capa 1
 62
     7
420
 16777215
370
     5
100
AcDbVertex
100
AcDb2dVertex
 10
55.93181422212816
 20
-78.73955211790192
 30
0.0
  0
VERTEX
  5
266
330
264
100
AcDbEntity
  8
Capa 1
 62
     7
420
 16777215
370
     5
100
AcDbVertex
100
AcDb2dVertex
 10
55.93181422212816
 20
-77.80989310120725
 30
0.0
  0
SEQEND
  5
267
330
264
100
AcDbEntity
  8
Capa 1
370
     5
  0
SPLINE
  5
268
330
1F
100
AcDbEntity
  8
Capa 1
 62
     7
420
 16777215
370
     5
100
AcDbSpline
210
0.0
220
0.0
230
1.0
 70
     8
 71
     3
 72
     8
 73
     4
 74
     0
 42
0.0000000001
 43
0.0000000001
 40
0.0
 40
0.0
 40
0.0
 40
0.0
 40
1.0
 40
1.0
 40
1.0
 40
1.0
 10
55.93181422212816
 20
-77.80989310120725
 30
0.0
 10
55.93181422212816
 20
-77.77010224835261
 30
0.0
 10
55.90046385321239
 20
-77.73875187943685
 30
0.0
 10
55.86067300035775
 20
-77.73875187943685
 30
0.0
  0
POLYLINE
  5
269
330
1F
100
AcDbEntity
  8
Capa 1
 62
     7
420
 16777215
370
     5
100
AcDb2dPolyline
 66
     1
 10
0.0
 20
0.0
 30
0.0
  0
VERTEX
  5
26A
330
269
100
AcDbEntity
  8
Capa 1
 62
     7
420
 16777215
370
     5
100
AcDbVertex
100
AcDb2dVertex
 10
55.93181422212816
 20
-82.06269122297391
 30
0.0
  0
VERTEX
  5
26B
330
269
100
AcDbEntity
  8
Capa 1
 62
     7
420
 16777215
370
     5
100
AcDbVertex
100
AcDb2dVertex
 10
55.93181422212816
 20
-80.81108803318264
 30
0.0
  0
SEQEND
  5
26C
330
269
100
AcDbEntity
  8
Capa 1
370
     5
  0
POLYLINE
  5
26D
330
1F
100
AcDbEntity
  8
Capa 1
 62
     7
420
 16777215
370
     5
100
AcDb2dPolyline
 66
     1
 10
0.0
 20
0.0
 30
0.0
  0
VERTEX
  5
26E
330
26D
100
AcDbEntity
  8
Capa 1
 62
     7
420
 16777215
370
     5
100
AcDbVertex
100
AcDb2dVertex
 10
46.65279404215624
 20
-98.01141626238952
 30
0.0
  0
VERTEX
  5
26F
330
26D
100
AcDbEntity
  8
Capa 1
 62
     7
420
 16777215
370
     5
100
AcDbVertex
100
AcDb2dVertex
 10
52.15306123913187
 20
-96.5363986303798
 30
0.0
  0
SEQEND
  5
270
330
26D
100
AcDbEntity
  8
Capa 1
370
     5
  0
POLYLINE
  5
271
330
1F
100
AcDbEntity
  8
Capa 1
 62
     7
420
 16777215
370
     5
100
AcDb2dPolyline
 66
     1
 10
0.0
 20
0.0
 30
0.0
  0
VERTEX
  5
272
330
271
100
AcDbEntity
  8
Capa 1
 62
     7
420
 16777215
370
     5
100
AcDbVertex
100
AcDb2dVertex
 10
52.05418699870521
 20
-92.26499699299278
 30
0.0
  0
VERTEX
  5
273
330
271
100
AcDbEntity
  8
Capa 1
 62
     7
420
 16777215
370
     5
100
AcDbVertex
100
AcDb2dVertex
 10
46.49897052873984
 20
-93.81666799954931
 30
0.0
  0
SEQEND
  5
274
330
271
100
AcDbEntity
  8
Capa 1
370
     5
  0
SPLINE
  5
275
330
1F
100
AcDbEntity
  8
Capa 1
 62
     7
420
 16777215
370
     5
100
AcDbSpline
210
0.0
220
0.0
230
1.0
 70
    11
 71
     3
 72
    20
 73
    16
 74
     0
 42
0.0000000001
 43
0.0000000001
 40
0.0
 40
0.0
 40
0.0
 40
0.0
 40
1.0
 40
1.0
 40
1.0
 40
2.0
 40
2.0
 40
2.0
 40
3.0
 40
3.0
 40
3.0
 40
4.0
 40
4.0
 40
4.0
 40
5.0
 40
5.0
 40
5.0
 40
5.0
 10
71.10160317232877
 20
-114.2621039210873
 30
0.0
 10
71.10160317232877
 20
-113.5703287476491
 30
0.0
 10
70.53988035345878
 20
-113.0108452408445
 30
0.0
 10
69.84827743479488
 20
-113.0108452408445
 30
0.0
 10
69.15736353522803
 20
-113.0108452408445
 30
0.0
 10
68.59564071635803
 20
-113.5703287476491
 30
0.0
 10
68.59564071635803
 20
-114.2621039210873
 30
0.0
 10
68.59564071635803
 20
-114.9538790945254
 30
0.0
 10
69.15736353522803
 20
-115.5140516204271
 30
0.0
 10
69.84827743479488
 20
-115.5140516204271
 30
0.0
 10
70.53988035345878
 20
-115.5140516204271
 30
0.0
 10
71.10160317232877
 20
-114.9538790945254
 30
0.0
 10
71.10160317232877
 20
-114.2621039210873
 30
0.0
 10
71.10160317232877
 20
-114.2621039210873
 30
0.0
 10
71.10160317232877
 20
-114.2621039210873
 30
0.0
 10
71.10160317232877
 20
-114.2621039210873
 30
0.0
  0
POLYLINE
  5
276
330
1F
100
AcDbEntity
  8
Capa 1
 62
     7
420
 16777215
370
     5
100
AcDb2dPolyline
 66
     1
 10
0.0
 20
0.0
 30
0.0
  0
VERTEX
  5
277
330
276
100
AcDbEntity
  8
Capa 1
 62
     7
420
 16777215
370
     5
100
AcDbVertex
100
AcDb2dVertex
 10
67.433437754409
 20
-113.5152072198851
 30
0.0
  0
VERTEX
  5
278
330
276
100
AcDbEntity
  8
Capa 1
 62
     7
420
 16777215
370
     5
100
AcDbVertex
100
AcDb2dVertex
 10
69.10000269539862
 20
-116.6771158562474
 30
0.0
  0
SEQEND
  5
279
330
276
100
AcDbEntity
  8
Capa 1
370
     5
  0
POLYLINE
  5
27A
330
1F
100
AcDbEntity
  8
Capa 1
 62
     7
420
 16777215
370
     5
100
AcDb2dPolyline
 66
     1
 10
0.0
 20
0.0
 30
0.0
  0
VERTEX
  5
27B
330
27A
100
AcDbEntity
  8
Capa 1
 62
     7
420
 16777215
370
     5
100
AcDbVertex
100
AcDb2dVertex
 10
70.59655217419115
 20
-111.8474364954756
 30
0.0
  0
VERTEX
  5
27C
330
27A
100
AcDbEntity
  8
Capa 1
 62
     7
420
 16777215
370
     5
100
AcDbVertex
100
AcDb2dVertex
 10
72.26328936995502
 20
-115.0103786604835
 30
0.0
  0
SEQEND
  5
27D
330
27A
100
AcDbEntity
  8
Capa 1
370
     5
  0
POLYLINE
  5
27E
330
1F
100
AcDbEntity
  8
Capa 1
 62
     7
420
 16777215
370
     5
100
AcDb2dPolyline
 66
     1
 10
0.0
 20
0.0
 30
0.0
  0
VERTEX
  5
27F
330
27E
100
AcDbEntity
  8
Capa 1
 62
     7
420
 16777215
370
     5
100
AcDbVertex
100
AcDb2dVertex
 10
67.433437754409
 20
-113.5152072198851
 30
0.0
  0
VERTEX
  5
280
330
27E
100
AcDbEntity
  8
Capa 1
 62
     7
420
 16777215
370
     5
100
AcDbVertex
100
AcDb2dVertex
 10
70.59655217419115
 20
-111.8474364954756
 30
0.0
  0
SEQEND
  5
281
330
27E
100
AcDbEntity
  8
Capa 1
370
     5
  0
POLYLINE
  5
282
330
1F
100
AcDbEntity
  8
Capa 1
 62
     7
420
 16777215
370
     5
100
AcDb2dPolyline
 66
     1
 10
0.0
 20
0.0
 30
0.0
  0
VERTEX
  5
283
330
282
100
AcDbEntity
  8
Capa 1
 62
     7
420
 16777215
370
     5
100
AcDbVertex
100
AcDb2dVertex
 10
69.10000269539862
 20
-116.6771158562474
 30
0.0
  0
VERTEX
  5
284
330
282
100
AcDbEntity
  8
Capa 1
 62
     7
420
 16777215
370
     5
100
AcDbVertex
100
AcDb2dVertex
 10
72.26328936995502
 20
-115.0103786604835
 30
0.0
  0
SEQEND
  5
285
330
282
100
AcDbEntity
  8
Capa 1
370
     5
  0
POLYLINE
  5
286
330
1F
100
AcDbEntity
  8
Capa 1
 62
     7
420
 16777215
370
     5
100
AcDb2dPolyline
 66
     1
 10
0.0
 20
0.0
 30
0.0
  0
VERTEX
  5
287
330
286
100
AcDbEntity
  8
Capa 1
 62
     7
420
 16777215
370
     5
100
AcDbVertex
100
AcDb2dVertex
 10
71.01116941584097
 20
-118.3793375355093
 30
0.0
  0
VERTEX
  5
288
330
286
100
AcDbEntity
  8
Capa 1
 62
     7
420
 16777215
370
     5
100
AcDbVertex
100
AcDb2dVertex
 10
72.59212373402211
 20
-117.5459689376274
 30
0.0
  0
SEQEND
  5
289
330
286
100
AcDbEntity
  8
Capa 1
370
     5
  0
POLYLINE
  5
28A
330
1F
100
AcDbEntity
  8
Capa 1
 62
     7
420
 16777215
370
     5
100
AcDb2dPolyline
 66
     1
 10
0.0
 20
0.0
 30
0.0
  0
VERTEX
  5
28B
330
28A
100
AcDbEntity
  8
Capa 1
 62
     7
420
 16777215
370
     5
100
AcDbVertex
100
AcDb2dVertex
 10
71.4757405420269
 20
-115.4268907046502
 30
0.0
  0
VERTEX
  5
28C
330
28A
100
AcDbEntity
  8
Capa 1
 62
     7
420
 16777215
370
     5
100
AcDbVertex
100
AcDb2dVertex
 10
72.59212373402211
 20
-117.5459689376274
 30
0.0
  0
SEQEND
  5
28D
330
28A
100
AcDbEntity
  8
Capa 1
370
     5
  0
POLYLINE
  5
28E
330
1F
100
AcDbEntity
  8
Capa 1
 62
     7
420
 16777215
370
     5
100
AcDb2dPolyline
 66
     1
 10
0.0
 20
0.0
 30
0.0
  0
VERTEX
  5
28F
330
28E
100
AcDbEntity
  8
Capa 1
 62
     7
420
 16777215
370
     5
100
AcDbVertex
100
AcDb2dVertex
 10
69.89426945952296
 20
-116.2609483216292
 30
0.0
  0
VERTEX
  5
290
330
28E
100
AcDbEntity
  8
Capa 1
 62
     7
420
 16777215
370
     5
100
AcDbVertex
100
AcDb2dVertex
 10
71.01116941584097
 20
-118.3793375355093
 30
0.0
  0
SEQEND
  5
291
330
28E
100
AcDbEntity
  8
Capa 1
370
     5
  0
POLYLINE
  5
292
330
1F
100
AcDbEntity
  8
Capa 1
 62
     7
420
 16777215
370
     5
100
AcDb2dPolyline
 66
     1
 10
0.0
 20
0.0
 30
0.0
  0
VERTEX
  5
293
330
292
100
AcDbEntity
  8
Capa 1
 62
     7
420
 16777215
370
     5
100
AcDbVertex
100
AcDb2dVertex
 10
64.88802895513216
 20
-113.5269205445349
 30
0.0
  0
VERTEX
  5
294
330
292
100
AcDbEntity
  8
Capa 1
 62
     7
420
 16777215
370
     5
100
AcDbVertex
100
AcDb2dVertex
 10
64.88802895513216
 20
-115.313891572734
 30
0.0
  0
SEQEND
  5
295
330
292
100
AcDbEntity
  8
Capa 1
370
     5
  0
POLYLINE
  5
296
330
1F
100
AcDbEntity
  8
Capa 1
 62
     7
420
 16777215
370
     5
100
AcDb2dPolyline
 66
     1
 10
0.0
 20
0.0
 30
0.0
  0
VERTEX
  5
297
330
296
100
AcDbEntity
  8
Capa 1
 62
     7
420
 16777215
370
     5
100
AcDbVertex
100
AcDb2dVertex
 10
77.0817721703997
 20
-113.5269205445349
 30
0.0
  0
VERTEX
  5
298
330
296
100
AcDbEntity
  8
Capa 1
 62
     7
420
 16777215
370
     5
100
AcDbVertex
100
AcDb2dVertex
 10
82.63509383784817
 20
-113.5269205445349
 30
0.0
  0
SEQEND
  5
299
330
296
100
AcDbEntity
  8
Capa 1
370
     5
  0
POLYLINE
  5
29A
330
1F
100
AcDbEntity
  8
Capa 1
 62
     7
420
 16777215
370
     5
100
AcDb2dPolyline
 66
     1
 10
0.0
 20
0.0
 30
0.0
  0
VERTEX
  5
29B
330
29A
100
AcDbEntity
  8
Capa 1
 62
     7
420
 16777215
370
     5
100
AcDbVertex
100
AcDb2dVertex
 10
77.45590954009784
 20
-115.313891572734
 30
0.0
  0
VERTEX
  5
29C
330
29A
100
AcDbEntity
  8
Capa 1
 62
     7
420
 16777215
370
     5
100
AcDbVertex
100
AcDb2dVertex
 10
82.63509383784817
 20
-115.313891572734
 30
0.0
  0
SEQEND
  5
29D
330
29A
100
AcDbEntity
  8
Capa 1
370
     5
  0
POLYLINE
  5
29E
330
1F
100
AcDbEntity
  8
Capa 1
 62
     7
420
 16777215
370
     5
100
AcDb2dPolyline
 66
     1
 10
0.0
 20
0.0
 30
0.0
  0
VERTEX
  5
29F
330
29E
100
AcDbEntity
  8
Capa 1
 62
     7
420
 16777215
370
     5
100
AcDbVertex
100
AcDb2dVertex
 10
71.51501463055875
 20
-113.5269205445349
 30
0.0
  0
VERTEX
  5
2A0
330
29E
100
AcDbEntity
  8
Capa 1
 62
     7
420
 16777215
370
     5
100
AcDbVertex
100
AcDb2dVertex
 10
74.59923636372866
 20
-113.5269205445349
 30
0.0
  0
SEQEND
  5
2A1
330
29E
100
AcDbEntity
  8
Capa 1
370
     5
  0
POLYLINE
  5
2A2
330
1F
100
AcDbEntity
  8
Capa 1
 62
     7
420
 16777215
370
     5
100
AcDb2dPolyline
 66
     1
 10
0.0
 20
0.0
 30
0.0
  0
VERTEX
  5
2A3
330
2A2
100
AcDbEntity
  8
Capa 1
 62
     7
420
 16777215
370
     5
100
AcDbVertex
100
AcDb2dVertex
 10
71.67607284449419
 20
-115.313891572734
 30
0.0
  0
VERTEX
  5
2A4
330
2A2
100
AcDbEntity
  8
Capa 1
 62
     7
420
 16777215
370
     5
100
AcDbVertex
100
AcDb2dVertex
 10
74.97268471432974
 20
-115.313891572734
 30
0.0
  0
SEQEND
  5
2A5
330
2A2
100
AcDbEntity
  8
Capa 1
370
     5
  0
POLYLINE
  5
2A6
330
1F
100
AcDbEntity
  8
Capa 1
 62
     7
420
 16777215
370
     5
100
AcDb2dPolyline
 66
     1
 10
0.0
 20
0.0
 30
0.0
  0
VERTEX
  5
2A7
330
2A6
100
AcDbEntity
  8
Capa 1
 62
     7
420
 16777215
370
     5
100
AcDbVertex
100
AcDb2dVertex
 10
73.96430526579712
 20
-110.4814561355741
 30
0.0
  0
VERTEX
  5
2A8
330
2A6
100
AcDbEntity
  8
Capa 1
 62
     7
420
 16777215
370
     5
100
AcDbVertex
100
AcDb2dVertex
 10
75.64740666511592
 20
-118.5364338896367
 30
0.0
  0
SEQEND
  5
2A9
330
2A6
100
AcDbEntity
  8
Capa 1
370
     5
  0
POLYLINE
  5
2AA
330
1F
100
AcDbEntity
  8
Capa 1
 62
     7
420
 16777215
370
     5
100
AcDb2dPolyline
 66
     1
 10
0.0
 20
0.0
 30
0.0
  0
VERTEX
  5
2AB
330
2AA
100
AcDbEntity
  8
Capa 1
 62
     7
420
 16777215
370
     5
100
AcDbVertex
100
AcDb2dVertex
 10
107.8407904461301
 20
-98.33077661387217
 30
0.0
  0
VERTEX
  5
2AC
330
2AA
100
AcDbEntity
  8
Capa 1
 62
     7
420
 16777215
370
     5
100
AcDbVertex
100
AcDb2dVertex
 10
107.8407904461301
 20
-101.9060967084644
 30
0.0
  0
SEQEND
  5
2AD
330
2AA
100
AcDbEntity
  8
Capa 1
370
     5
  0
POLYLINE
  5
2AE
330
1F
100
AcDbEntity
  8
Capa 1
 62
     7
420
 16777215
370
     5
100
AcDb2dPolyline
 66
     1
 10
0.0
 20
0.0
 30
0.0
  0
VERTEX
  5
2AF
330
2AE
100
AcDbEntity
  8
Capa 1
 62
     7
420
 16777215
370
     5
100
AcDbVertex
100
AcDb2dVertex
 10
95.6863213193944
 20
-98.33077661387217
 30
0.0
  0
VERTEX
  5
2B0
330
2AE
100
AcDbEntity
  8
Capa 1
 62
     7
420
 16777215
370
     5
100
AcDbVertex
100
AcDb2dVertex
 10
95.6863213193944
 20
-101.9060967084644
 30
0.0
  0
SEQEND
  5
2B1
330
2AE
100
AcDbEntity
  8
Capa 1
370
     5
  0
POLYLINE
  5
2B2
330
1F
100
AcDbEntity
  8
Capa 1
 62
     7
420
 16777215
370
     5
100
AcDb2dPolyline
 66
     1
 10
0.0
 20
0.0
 30
0.0
  0
VERTEX
  5
2B3
330
2B2
100
AcDbEntity
  8
Capa 1
 62
     7
420
 16777215
370
     5
100
AcDbVertex
100
AcDb2dVertex
 10
104.6237602820038
 20
-98.33077661387217
 30
0.0
  0
VERTEX
  5
2B4
330
2B2
100
AcDbEntity
  8
Capa 1
 62
     7
420
 16777215
370
     5
100
AcDbVertex
100
AcDb2dVertex
 10
104.6237602820038
 20
-101.9060967084644
 30
0.0
  0
SEQEND
  5
2B5
330
2B2
100
AcDbEntity
  8
Capa 1
370
     5
  0
POLYLINE
  5
2B6
330
1F
100
AcDbEntity
  8
Capa 1
 62
     7
420
 16777215
370
     5
100
AcDb2dPolyline
 66
     1
 10
0.0
 20
0.0
 30
0.0
  0
VERTEX
  5
2B7
330
2B6
100
AcDbEntity
  8
Capa 1
 62
     7
420
 16777215
370
     5
100
AcDbVertex
100
AcDb2dVertex
 10
98.90076766190676
 20
-98.33077661387217
 30
0.0
  0
VERTEX
  5
2B8
330
2B6
100
AcDbEntity
  8
Capa 1
 62
     7
420
 16777215
370
     5
100
AcDbVertex
100
AcDb2dVertex
 10
98.90076766190676
 20
-101.9060967084644
 30
0.0
  0
SEQEND
  5
2B9
330
2B6
100
AcDbEntity
  8
Capa 1
370
     5
  0
POLYLINE
  5
2BA
330
1F
100
AcDbEntity
  8
Capa 1
 62
     7
420
 16777215
370
     5
100
AcDb2dPolyline
 66
     1
 10
0.0
 20
0.0
 30
0.0
  0
VERTEX
  5
2BB
330
2BA
100
AcDbEntity
  8
Capa 1
 62
     7
420
 16777215
370
     5
100
AcDbVertex
100
AcDb2dVertex
 10
104.9804999195014
 20
-102.2645588937047
 30
0.0
  0
VERTEX
  5
2BC
330
2BA
100
AcDbEntity
  8
Capa 1
 62
     7
420
 16777215
370
     5
100
AcDbVertex
100
AcDb2dVertex
 10
107.4835340443097
 20
-102.2645588937047
 30
0.0
  0
SEQEND
  5
2BD
330
2BA
100
AcDbEntity
  8
Capa 1
370
     5
  0
POLYLINE
  5
2BE
330
1F
100
AcDbEntity
  8
Capa 1
 62
     7
420
 16777215
370
     5
100
AcDb2dPolyline
 66
     1
 10
0.0
 20
0.0
 30
0.0
  0
VERTEX
  5
2BF
330
2BE
100
AcDbEntity
  8
Capa 1
 62
     7
420
 16777215
370
     5
100
AcDbVertex
100
AcDb2dVertex
 10
104.9804999195014
 20
-97.97317570250324
 30
0.0
  0
VERTEX
  5
2C0
330
2BE
100
AcDbEntity
  8
Capa 1
 62
     7
420
 16777215
370
     5
100
AcDbVertex
100
AcDb2dVertex
 10
107.4835340443097
 20
-97.97317570250324
 30
0.0
  0
SEQEND
  5
2C1
330
2BE
100
AcDbEntity
  8
Capa 1
370
     5
  0
SPLINE
  5
2C2
330
1F
100
AcDbEntity
  8
Capa 1
 62
     7
420
 16777215
370
     5
100
AcDbSpline
210
0.0
220
0.0
230
1.0
 70
     8
 71
     3
 72
     8
 73
     4
 74
     0
 42
0.0000000001
 43
0.0000000001
 40
0.0
 40
0.0
 40
0.0
 40
0.0
 40
1.0
 40
1.0
 40
1.0
 40
1.0
 10
107.8407904461301
 20
-98.33077661387217
 30
0.0
 10
107.8407904461301
 20
-98.13337264256735
 30
0.0
 10
107.6814547799373
 20
-97.97317570250324
 30
0.0
 10
107.4835340443097
 20
-97.97317570250324
 30
0.0
  0
SPLINE
  5
2C3
330
1F
100
AcDbEntity
  8
Capa 1
 62
     7
420
 16777215
370
     5
100
AcDbSpline
210
0.0
220
0.0
230
1.0
 70
     8
 71
     3
 72
     8
 73
     4
 74
     0
 42
0.0000000001
 43
0.0000000001
 40
0.0
 40
0.0
 40
0.0
 40
0.0
 40
1.0
 40
1.0
 40
1.0
 40
1.0
 10
104.9804999195014
 20
-97.97317570250324
 30
0.0
 10
104.7849907507135
 20
-97.97317570250324
 30
0.0
 10
104.6237602820038
 20
-98.13337264256735
 30
0.0
 10
104.6237602820038
 20
-98.33077661387217
 30
0.0
  0
SPLINE
  5
2C4
330
1F
100
AcDbEntity
  8
Capa 1
 62
     7
420
 16777215
370
     5
100
AcDbSpline
210
0.0
220
0.0
230
1.0
 70
     8
 71
     3
 72
     8
 73
     4
 74
     0
 42
0.0000000001
 43
0.0000000001
 40
0.0
 40
0.0
 40
0.0
 40
0.0
 40
1.0
 40
1.0
 40
1.0
 40
1.0
 10
104.6237602820038
 20
-101.9060967084644
 30
0.0
 10
104.6237602820038
 20
-102.1031561702207
 30
0.0
 10
104.7849907507135
 20
-102.2645588937047
 30
0.0
 10
104.9804999195014
 20
-102.2645588937047
 30
0.0
  0
SPLINE
  5
2C5
330
1F
100
AcDbEntity
  8
Capa 1
 62
     7
420
 16777215
370
     5
100
AcDbSpline
210
0.0
220
0.0
230
1.0
 70
     8
 71
     3
 72
     8
 73
     4
 74
     0
 42
0.0000000001
 43
0.0000000001
 40
0.0
 40
0.0
 40
0.0
 40
0.0
 40
1.0
 40
1.0
 40
1.0
 40
1.0
 10
107.4835340443097
 20
-102.2645588937047
 30
0.0
 10
107.6814547799373
 20
-102.2645588937047
 30
0.0
 10
107.8407904461301
 20
-102.1031561702207
 30
0.0
 10
107.8407904461301
 20
-101.9060967084644
 30
0.0
  0
POLYLINE
  5
2C6
330
1F
100
AcDbEntity
  8
Capa 1
 62
     7
420
 16777215
370
     5
100
AcDb2dPolyline
 66
     1
 10
0.0
 20
0.0
 30
0.0
  0
VERTEX
  5
2C7
330
2C6
100
AcDbEntity
  8
Capa 1
 62
     7
420
 16777215
370
     5
100
AcDbVertex
100
AcDb2dVertex
 10
96.0435777212148
 20
-102.2645588937047
 30
0.0
  0
VERTEX
  5
2C8
330
2C6
100
AcDbEntity
  8
Capa 1
 62
     7
420
 16777215
370
     5
100
AcDbVertex
100
AcDb2dVertex
 10
98.54351126008635
 20
-102.2645588937047
 30
0.0
  0
SEQEND
  5
2C9
330
2C6
100
AcDbEntity
  8
Capa 1
370
     5
  0
POLYLINE
  5
2CA
330
1F
100
AcDbEntity
  8
Capa 1
 62
     7
420
 16777215
370
     5
100
AcDb2dPolyline
 66
     1
 10
0.0
 20
0.0
 30
0.0
  0
VERTEX
  5
2CB
330
2CA
100
AcDbEntity
  8
Capa 1
 62
     7
420
 16777215
370
     5
100
AcDbVertex
100
AcDb2dVertex
 10
96.0435777212148
 20
-97.97317570250324
 30
0.0
  0
VERTEX
  5
2CC
330
2CA
100
AcDbEntity
  8
Capa 1
 62
     7
420
 16777215
370
     5
100
AcDbVertex
100
AcDb2dVertex
 10
98.54351126008635
 20
-97.97317570250324
 30
0.0
  0
SEQEND
  5
2CD
330
2CA
100
AcDbEntity
  8
Capa 1
370
     5
  0
SPLINE
  5
2CE
330
1F
100
AcDbEntity
  8
Capa 1
 62
     7
420
 16777215
370
     5
100
AcDbSpline
210
0.0
220
0.0
230
1.0
 70
     8
 71
     3
 72
     8
 73
     4
 74
     0
 42
0.0000000001
 43
0.0000000001
 40
0.0
 40
0.0
 40
0.0
 40
0.0
 40
1.0
 40
1.0
 40
1.0
 40
1.0
 10
96.0435777212148
 20
-97.97317570250324
 30
0.0
 10
95.8456569855872
 20
-97.97317570250324
 30
0.0
 10
95.6863213193944
 20
-98.13337264256735
 30
0.0
 10
95.6863213193944
 20
-98.33077661387217
 30
0.0
  0
SPLINE
  5
2CF
330
1F
100
AcDbEntity
  8
Capa 1
 62
     7
420
 16777215
370
     5
100
AcDbSpline
210
0.0
220
0.0
230
1.0
 70
     8
 71
     3
 72
     8
 73
     4
 74
     0
 42
0.0000000001
 43
0.0000000001
 40
0.0
 40
0.0
 40
0.0
 40
0.0
 40
1.0
 40
1.0
 40
1.0
 40
1.0
 10
98.90076766190676
 20
-98.33077661387217
 30
0.0
 10
98.90076766190676
 20
-98.13337264256735
 30
0.0
 10
98.74143199571395
 20
-97.97317570250324
 30
0.0
 10
98.54351126008635
 20
-97.97317570250324
 30
0.0
  0
SPLINE
  5
2D0
330
1F
100
AcDbEntity
  8
Capa 1
 62
     7
420
 16777215
370
     5
100
AcDbSpline
210
0.0
220
0.0
230
1.0
 70
     8
 71
     3
 72
     8
 73
     4
 74
     0
 42
0.0000000001
 43
0.0000000001
 40
0.0
 40
0.0
 40
0.0
 40
0.0
 40
1.0
 40
1.0
 40
1.0
 40
1.0
 10
98.54351126008635
 20
-102.2645588937047
 30
0.0
 10
98.74143199571395
 20
-102.2645588937047
 30
0.0
 10
98.90076766190676
 20
-102.1031561702207
 30
0.0
 10
98.90076766190676
 20
-101.9060967084644
 30
0.0
  0
SPLINE
  5
2D1
330
1F
100
AcDbEntity
  8
Capa 1
 62
     7
420
 16777215
370
     5
100
AcDbSpline
210
0.0
220
0.0
230
1.0
 70
     8
 71
     3
 72
     8
 73
     4
 74
     0
 42
0.0000000001
 43
0.0000000001
 40
0.0
 40
0.0
 40
0.0
 40
0.0
 40
1.0
 40
1.0
 40
1.0
 40
1.0
 10
95.6863213193944
 20
-101.9060967084644
 30
0.0
 10
95.6863213193944
 20
-102.1031561702207
 30
0.0
 10
95.8456569855872
 20
-102.2645588937047
 30
0.0
 10
96.0435777212148
 20
-102.2645588937047
 30
0.0
  0
POLYLINE
  5
2D2
330
1F
100
AcDbEntity
  8
Capa 1
 62
     7
420
 16777215
370
     5
100
AcDb2dPolyline
 66
     1
 10
0.0
 20
0.0
 30
0.0
  0
VERTEX
  5
2D3
330
2D2
100
AcDbEntity
  8
Capa 1
 62
     7
420
 16777215
370
     5
100
AcDbVertex
100
AcDb2dVertex
 10
90.49973006635076
 20
-90.10802270967785
 30
0.0
  0
VERTEX
  5
2D4
330
2D2
100
AcDbEntity
  8
Capa 1
 62
     7
420
 16777215
370
     5
100
AcDbVertex
100
AcDb2dVertex
 10
113.0272094443994
 20
-90.10802270967785
 30
0.0
  0
SEQEND
  5
2D5
330
2D2
100
AcDbEntity
  8
Capa 1
370
     5
  0
POLYLINE
  5
2D6
330
1F
100
AcDbEntity
  8
Capa 1
 62
     7
420
 16777215
370
     5
100
AcDb2dPolyline
 66
     1
 10
0.0
 20
0.0
 30
0.0
  0
VERTEX
  5
2D7
330
2D6
100
AcDbEntity
  8
Capa 1
 62
     7
420
 16777215
370
     5
100
AcDbVertex
100
AcDb2dVertex
 10
93.895216176613
 20
-95.11340194019735
 30
0.0
  0
VERTEX
  5
2D8
330
2D6
100
AcDbEntity
  8
Capa 1
 62
     7
420
 16777215
370
     5
100
AcDbVertex
100
AcDb2dVertex
 10
109.6281059838777
 20
-95.11340194019735
 30
0.0
  0
SEQEND
  5
2D9
330
2D6
100
AcDbEntity
  8
Capa 1
370
     5
  0
POLYLINE
  5
2DA
330
1F
100
AcDbEntity
  8
Capa 1
 62
     7
420
 16777215
370
     5
100
AcDb2dPolyline
 66
     1
 10
0.0
 20
0.0
 30
0.0
  0
VERTEX
  5
2DB
330
2DA
100
AcDbEntity
  8
Capa 1
 62
     7
420
 16777215
370
     5
100
AcDbVertex
100
AcDb2dVertex
 10
109.6281059838777
 20
-95.11340194019735
 30
0.0
  0
VERTEX
  5
2DC
330
2DA
100
AcDbEntity
  8
Capa 1
 62
     7
420
 16777215
370
     5
100
AcDbVertex
100
AcDb2dVertex
 10
113.0272094443994
 20
-90.10802270967785
 30
0.0
  0
SEQEND
  5
2DD
330
2DA
100
AcDbEntity
  8
Capa 1
370
     5
  0
POLYLINE
  5
2DE
330
1F
100
AcDbEntity
  8
Capa 1
 62
     7
420
 16777215
370
     5
100
AcDb2dPolyline
 66
     1
 10
0.0
 20
0.0
 30
0.0
  0
VERTEX
  5
2DF
330
2DE
100
AcDbEntity
  8
Capa 1
 62
     7
420
 16777215
370
     5
100
AcDbVertex
100
AcDb2dVertex
 10
93.895216176613
 20
-95.11340194019735
 30
0.0
  0
VERTEX
  5
2E0
330
2DE
100
AcDbEntity
  8
Capa 1
 62
     7
420
 16777215
370
     5
100
AcDbVertex
100
AcDb2dVertex
 10
90.49973006635076
 20
-90.10802270967785
 30
0.0
  0
SEQEND
  5
2E1
330
2DE
100
AcDbEntity
  8
Capa 1
370
     5
  0
POLYLINE
  5
2E2
330
1F
100
AcDbEntity
  8
Capa 1
 62
     7
420
 16777215
370
     5
100
AcDb2dPolyline
 66
     1
 10
0.0
 20
0.0
 30
0.0
  0
VERTEX
  5
2E3
330
2E2
100
AcDbEntity
  8
Capa 1
 62
     7
420
 16777215
370
     5
100
AcDbVertex
100
AcDb2dVertex
 10
91.93116724047208
 20
-102.978727187797
 30
0.0
  0
VERTEX
  5
2E4
330
2E2
100
AcDbEntity
  8
Capa 1
 62
     7
420
 16777215
370
     5
100
AcDbVertex
100
AcDb2dVertex
 10
111.5959445250524
 20
-102.978727187797
 30
0.0
  0
SEQEND
  5
2E5
330
2E2
100
AcDbEntity
  8
Capa 1
370
     5
  0
POLYLINE
  5
2E6
330
1F
100
AcDbEntity
  8
Capa 1
 62
     7
420
 16777215
370
     5
100
AcDb2dPolyline
 66
     1
 10
0.0
 20
0.0
 30
0.0
  0
VERTEX
  5
2E7
330
2E6
100
AcDbEntity
  8
Capa 1
 62
     7
420
 16777215
370
     5
100
AcDbVertex
100
AcDb2dVertex
 10
108.9142821993339
 20
-95.11340194019735
 30
0.0
  0
VERTEX
  5
2E8
330
2E6
100
AcDbEntity
  8
Capa 1
 62
     7
420
 16777215
370
     5
100
AcDbVertex
100
AcDb2dVertex
 10
108.9142821993339
 20
-102.978727187797
 30
0.0
  0
SEQEND
  5
2E9
330
2E6
100
AcDbEntity
  8
Capa 1
370
     5
  0
POLYLINE
  5
2EA
330
1F
100
AcDbEntity
  8
Capa 1
 62
     7
420
 16777215
370
     5
100
AcDb2dPolyline
 66
     1
 10
0.0
 20
0.0
 30
0.0
  0
VERTEX
  5
2EB
330
2EA
100
AcDbEntity
  8
Capa 1
 62
     7
420
 16777215
370
     5
100
AcDbVertex
100
AcDb2dVertex
 10
94.61282956619054
 20
-95.11340194019735
 30
0.0
  0
VERTEX
  5
2EC
330
2EA
100
AcDbEntity
  8
Capa 1
 62
     7
420
 16777215
370
     5
100
AcDbVertex
100
AcDb2dVertex
 10
94.61282956619054
 20
-102.978727187797
 30
0.0
  0
SEQEND
  5
2ED
330
2EA
100
AcDbEntity
  8
Capa 1
370
     5
  0
POLYLINE
  5
2EE
330
1F
100
AcDbEntity
  8
Capa 1
 62
     7
420
 16777215
370
     5
100
AcDb2dPolyline
 66
     1
 10
0.0
 20
0.0
 30
0.0
  0
VERTEX
  5
2EF
330
2EE
100
AcDbEntity
  8
Capa 1
 62
     7
420
 16777215
370
     5
100
AcDbVertex
100
AcDb2dVertex
 10
91.93116724047208
 20
-105.4812445482825
 30
0.0
  0
VERTEX
  5
2F0
330
2EE
100
AcDbEntity
  8
Capa 1
 62
     7
420
 16777215
370
     5
100
AcDbVertex
100
AcDb2dVertex
 10
111.5959445250524
 20
-105.4812445482825
 30
0.0
  0
SEQEND
  5
2F1
330
2EE
100
AcDbEntity
  8
Capa 1
370
     5
  0
SPLINE
  5
2F2
330
1F
100
AcDbEntity
  8
Capa 1
 62
     7
420
 16777215
370
     5
100
AcDbSpline
210
0.0
220
0.0
230
1.0
 70
     8
 71
     3
 72
    11
 73
     7
 74
     0
 42
0.0000000001
 43
0.0000000001
 40
0.0
 40
0.0
 40
0.0
 40
0.0
 40
1.0
 40
1.0
 40
1.0
 40
2.0
 40
2.0
 40
2.0
 40
2.0
 10
111.5959445250524
 20
-105.4812445482825
 30
0.0
 10
112.2873751889421
 20
-105.4812445482825
 30
0.0
 10
112.8456529123268
 20
-104.9217610414779
 30
0.0
 10
112.8456529123268
 20
-104.230158122814
 30
0.0
 10
112.8456529123268
 20
-103.5399332423442
 30
0.0
 10
112.2873751889421
 20
-102.978727187797
 30
0.0
 10
111.5959445250524
 20
-102.978727187797
 30
0.0
  0
SPLINE
  5
2F3
330
1F
100
AcDbEntity
  8
Capa 1
 62
     7
420
 16777215
370
     5
100
AcDbSpline
210
0.0
220
0.0
230
1.0
 70
     8
 71
     3
 72
    11
 73
     7
 74
     0
 42
0.0000000001
 43
0.0000000001
 40
0.0
 40
0.0
 40
0.0
 40
0.0
 40
1.0
 40
1.0
 40
1.0
 40
2.0
 40
2.0
 40
2.0
 40
2.0
 10
91.93116724047208
 20
-102.978727187797
 30
0.0
 10
91.23956432180817
 20
-102.978727187797
 30
0.0
 10
90.68076983410064
 20
-103.5399332423442
 30
0.0
 10
90.68076983410064
 20
-104.230158122814
 30
0.0
 10
90.68076983410064
 20
-104.9217610414779
 30
0.0
 10
91.23956432180817
 20
-105.4812445482825
 30
0.0
 10
91.93116724047208
 20
-105.4812445482825
 30
0.0
  0
POLYLINE
  5
2F4
330
1F
100
AcDbEntity
  8
Capa 1
 62
     7
420
 16777215
370
     5
100
AcDb2dPolyline
 66
     1
 10
0.0
 20
0.0
 30
0.0
  0
VERTEX
  5
2F5
330
2F4
100
AcDbEntity
  8
Capa 1
 62
     7
420
 16777215
370
     5
100
AcDbVertex
100
AcDb2dVertex
 10
110.1645073509311
 20
-105.4812445482825
 30
0.0
  0
VERTEX
  5
2F6
330
2F4
100
AcDbEntity
  8
Capa 1
 62
     7
420
 16777215
370
     5
100
AcDbVertex
100
AcDb2dVertex
 10
110.1645073509311
 20
-119.0680121230108
 30
0.0
  0
SEQEND
  5
2F7
330
2F4
100
AcDbEntity
  8
Capa 1
370
     5
  0
POLYLINE
  5
2F8
330
1F
100
AcDbEntity
  8
Capa 1
 62
     7
420
 16777215
370
     5
100
AcDb2dPolyline
 66
     1
 10
0.0
 20
0.0
 30
0.0
  0
VERTEX
  5
2F9
330
2F8
100
AcDbEntity
  8
Capa 1
 62
     7
420
 16777215
370
     5
100
AcDbVertex
100
AcDb2dVertex
 10
93.36243215981912
 20
-105.4812445482825
 30
0.0
  0
VERTEX
  5
2FA
330
2F8
100
AcDbEntity
  8
Capa 1
 62
     7
420
 16777215
370
     5
100
AcDbVertex
100
AcDb2dVertex
 10
93.36243215981912
 20
-111.2028591301854
 30
0.0
  0
SEQEND
  5
2FB
330
2F8
100
AcDbEntity
  8
Capa 1
370
     5
  0
POLYLINE
  5
2FC
330
1F
100
AcDbEntity
  8
Capa 1
 62
     7
420
 16777215
370
     5
100
AcDb2dPolyline
 66
     1
 10
0.0
 20
0.0
 30
0.0
  0
VERTEX
  5
2FD
330
2FC
100
AcDbEntity
  8
Capa 1
 62
     7
420
 16777215
370
     5
100
AcDbVertex
100
AcDb2dVertex
 10
93.36243215981912
 20
-119.0680121230108
 30
0.0
  0
VERTEX
  5
2FE
330
2FC
100
AcDbEntity
  8
Capa 1
 62
     7
420
 16777215
370
     5
100
AcDbVertex
100
AcDb2dVertex
 10
110.1645073509311
 20
-119.0680121230108
 30
0.0
  0
SEQEND
  5
2FF
330
2FC
100
AcDbEntity
  8
Capa 1
370
     5
  0
POLYLINE
  5
300
330
1F
100
AcDbEntity
  8
Capa 1
 62
     7
420
 16777215
370
     5
100
AcDb2dPolyline
 66
     1
 10
0.0
 20
0.0
 30
0.0
  0
VERTEX
  5
301
330
300
100
AcDbEntity
  8
Capa 1
 62
     7
420
 16777215
370
     5
100
AcDbVertex
100
AcDb2dVertex
 10
94.61282956619054
 20
-124.4320257935448
 30
0.0
  0
VERTEX
  5
302
330
300
100
AcDbEntity
  8
Capa 1
 62
     7
420
 16777215
370
     5
100
AcDbVertex
100
AcDb2dVertex
 10
108.9142821993339
 20
-124.4320257935448
 30
0.0
  0
SEQEND
  5
303
330
300
100
AcDbEntity
  8
Capa 1
370
     5
  0
POLYLINE
  5
304
330
1F
100
AcDbEntity
  8
Capa 1
 62
     7
420
 16777215
370
     5
100
AcDb2dPolyline
 66
     1
 10
0.0
 20
0.0
 30
0.0
  0
VERTEX
  5
305
330
304
100
AcDbEntity
  8
Capa 1
 62
     7
420
 16777215
370
     5
100
AcDbVertex
100
AcDb2dVertex
 10
108.9142821993339
 20
-119.0680121230108
 30
0.0
  0
VERTEX
  5
306
330
304
100
AcDbEntity
  8
Capa 1
 62
     7
420
 16777215
370
     5
100
AcDbVertex
100
AcDb2dVertex
 10
108.9142821993339
 20
-124.4320257935448
 30
0.0
  0
SEQEND
  5
307
330
304
100
AcDbEntity
  8
Capa 1
370
     5
  0
POLYLINE
  5
308
330
1F
100
AcDbEntity
  8
Capa 1
 62
     7
420
 16777215
370
     5
100
AcDb2dPolyline
 66
     1
 10
0.0
 20
0.0
 30
0.0
  0
VERTEX
  5
309
330
308
100
AcDbEntity
  8
Capa 1
 62
     7
420
 16777215
370
     5
100
AcDbVertex
100
AcDb2dVertex
 10
94.61282956619054
 20
-119.0680121230108
 30
0.0
  0
VERTEX
  5
30A
330
308
100
AcDbEntity
  8
Capa 1
 62
     7
420
 16777215
370
     5
100
AcDbVertex
100
AcDb2dVertex
 10
94.61282956619054
 20
-124.4320257935448
 30
0.0
  0
SEQEND
  5
30B
330
308
100
AcDbEntity
  8
Capa 1
370
     5
  0
POLYLINE
  5
30C
330
1F
100
AcDbEntity
  8
Capa 1
 62
     7
420
 16777215
370
     5
100
AcDb2dPolyline
 66
     1
 10
0.0
 20
0.0
 30
0.0
  0
VERTEX
  5
30D
330
30C
100
AcDbEntity
  8
Capa 1
 62
     7
420
 16777215
370
     5
100
AcDbVertex
100
AcDb2dVertex
 10
87.63943953972209
 20
-117.6379529870836
 30
0.0
  0
VERTEX
  5
30E
330
30C
100
AcDbEntity
  8
Capa 1
 62
     7
420
 16777215
370
     5
100
AcDbVertex
100
AcDb2dVertex
 10
93.36243215981912
 20
-117.6379529870836
 30
0.0
  0
SEQEND
  5
30F
330
30C
100
AcDbEntity
  8
Capa 1
370
     5
  0
POLYLINE
  5
310
330
1F
100
AcDbEntity
  8
Capa 1
 62
     7
420
 16777215
370
     5
100
AcDb2dPolyline
 66
     1
 10
0.0
 20
0.0
 30
0.0
  0
VERTEX
  5
311
330
310
100
AcDbEntity
  8
Capa 1
 62
     7
420
 16777215
370
     5
100
AcDbVertex
100
AcDb2dVertex
 10
87.63943953972209
 20
-111.2028591301854
 30
0.0
  0
VERTEX
  5
312
330
310
100
AcDbEntity
  8
Capa 1
 62
     7
420
 16777215
370
     5
100
AcDbVertex
100
AcDb2dVertex
 10
93.36243215981912
 20
-111.2028591301854
 30
0.0
  0
SEQEND
  5
313
330
310
100
AcDbEntity
  8
Capa 1
370
     5
  0
POLYLINE
  5
314
330
1F
100
AcDbEntity
  8
Capa 1
 62
     7
420
 16777215
370
     5
100
AcDb2dPolyline
 66
     1
 10
0.0
 20
0.0
 30
0.0
  0
VERTEX
  5
315
330
314
100
AcDbEntity
  8
Capa 1
 62
     7
420
 16777215
370
     5
100
AcDbVertex
100
AcDb2dVertex
 10
93.36243215981912
 20
-117.6379529870836
 30
0.0
  0
VERTEX
  5
316
330
314
100
AcDbEntity
  8
Capa 1
 62
     7
420
 16777215
370
     5
100
AcDbVertex
100
AcDb2dVertex
 10
93.36243215981912
 20
-119.0680121230108
 30
0.0
  0
SEQEND
  5
317
330
314
100
AcDbEntity
  8
Capa 1
370
     5
  0
SPLINE
  5
318
330
1F
100
AcDbEntity
  8
Capa 1
 62
     7
420
 16777215
370
     5
100
AcDbSpline
210
0.0
220
0.0
230
1.0
 70
     8
 71
     3
 72
     8
 73
     4
 74
     0
 42
0.0000000001
 43
0.0000000001
 40
0.0
 40
0.0
 40
0.0
 40
0.0
 40
1.0
 40
1.0
 40
1.0
 40
1.0
 10
93.36243215981912
 20
-117.6379529870836
 30
0.0
 10
93.77636038237189
 20
-117.2076605609759
 30
0.0
 10
94.10226641527652
 20
-116.7012315246441
 30
0.0
 10
94.32309703588103
 20
-116.147260170616
 30
0.0
  0
SPLINE
  5
319
330
1F
100
AcDbEntity
  8
Capa 1
 62
     7
420
 16777215
370
     5
100
AcDbSpline
210
0.0
220
0.0
230
1.0
 70
     8
 71
     3
 72
     8
 73
     4
 74
     0
 42
0.0000000001
 43
0.0000000001
 40
0.0
 40
0.0
 40
0.0
 40
0.0
 40
1.0
 40
1.0
 40
1.0
 40
1.0
 10
94.58991968121363
 20
-115.2091606699824
 30
0.0
 10
94.84210067073393
 20
-113.7532633179159
 30
0.0
 10
94.38338620687291
 20
-112.2670491255791
 30
0.0
 10
93.36243215981912
 20
-111.2028591301854
 30
0.0
  0
POLYLINE
  5
31A
330
1F
100
AcDbEntity
  8
Capa 1
 62
     7
420
 16777215
370
     5
100
AcDb2dPolyline
 66
     1
 10
0.0
 20
0.0
 30
0.0
  0
VERTEX
  5
31B
330
31A
100
AcDbEntity
  8
Capa 1
 62
     7
420
 16777215
370
     5
100
AcDbVertex
100
AcDb2dVertex
 10
64.88802895513216
 20
-113.5269205445349
 30
0.0
  0
VERTEX
  5
31C
330
31A
100
AcDbEntity
  8
Capa 1
 62
     7
420
 16777215
370
     5
100
AcDbVertex
100
AcDb2dVertex
 10
67.78587102255007
 20
-113.5269205445349
 30
0.0
  0
SEQEND
  5
31D
330
31A
100
AcDbEntity
  8
Capa 1
370
     5
  0
POLYLINE
  5
31E
330
1F
100
AcDbEntity
  8
Capa 1
 62
     7
420
 16777215
370
     5
100
AcDb2dPolyline
 66
     1
 10
0.0
 20
0.0
 30
0.0
  0
VERTEX
  5
31F
330
31E
100
AcDbEntity
  8
Capa 1
 62
     7
420
 16777215
370
     5
100
AcDbVertex
100
AcDb2dVertex
 10
64.88802895513216
 20
-115.313891572734
 30
0.0
  0
VERTEX
  5
320
330
31E
100
AcDbEntity
  8
Capa 1
 62
     7
420
 16777215
370
     5
100
AcDbVertex
100
AcDb2dVertex
 10
68.40305987873258
 20
-115.313891572734
 30
0.0
  0
SEQEND
  5
321
330
31E
100
AcDbEntity
  8
Capa 1
370
     5
  0
POLYLINE
  5
322
330
1F
100
AcDbEntity
  8
Capa 1
 62
     7
420
 16777215
370
     5
100
AcDb2dPolyline
 66
     1
 10
0.0
 20
0.0
 30
0.0
  0
VERTEX
  5
323
330
322
100
AcDbEntity
  8
Capa 1
 62
     7
420
 16777215
370
     5
100
AcDbVertex
100
AcDb2dVertex
 10
51.49900986125719
 20
-75.15544702982226
 30
0.0
  0
VERTEX
  5
324
330
322
100
AcDbEntity
  8
Capa 1
 62
     7
420
 16777215
370
     5
100
AcDbVertex
100
AcDb2dVertex
 10
47.83136120766022
 20
-75.15544702982226
 30
0.0
  0
SEQEND
  5
325
330
322
100
AcDbEntity
  8
Capa 1
370
     5
  0
POLYLINE
  5
326
330
1F
100
AcDbEntity
  8
Capa 1
 62
     7
420
 16777215
370
     5
100
AcDb2dPolyline
 66
     1
 10
0.0
 20
0.0
 30
0.0
  0
VERTEX
  5
327
330
326
100
AcDbEntity
  8
Capa 1
 62
     7
420
 16777215
370
     5
100
AcDbVertex
100
AcDb2dVertex
 10
55.19439153351043
 20
-88.39305417712049
 30
0.0
  0
VERTEX
  5
328
330
326
100
AcDbEntity
  8
Capa 1
 62
     7
420
 16777215
370
     5
100
AcDbVertex
100
AcDb2dVertex
 10
68.22391491349958
 20
-113.0976616470728
 30
0.0
  0
SEQEND
  5
329
330
326
100
AcDbEntity
  8
Capa 1
370
     5
  0
POLYLINE
  5
32A
330
1F
100
AcDbEntity
  8
Capa 1
 62
     7
420
 16777215
370
     5
100
AcDb2dPolyline
 66
     1
 10
0.0
 20
0.0
 30
0.0
  0
VERTEX
  5
32B
330
32A
100
AcDbEntity
  8
Capa 1
 62
     7
420
 16777215
370
     5
100
AcDbVertex
100
AcDb2dVertex
 10
56.74227293503318
 20
-87.49595131276143
 30
0.0
  0
VERTEX
  5
32C
330
32A
100
AcDbEntity
  8
Capa 1
 62
     7
420
 16777215
370
     5
100
AcDbVertex
100
AcDb2dVertex
 10
69.80607501510056
 20
-112.2642930491909
 30
0.0
  0
SEQEND
  5
32D
330
32A
100
AcDbEntity
  8
Capa 1
370
     5
  0
SPLINE
  5
32E
330
1F
100
AcDbEntity
  8
Capa 1
 62
     7
420
 16777215
370
     5
100
AcDbSpline
210
0.0
220
0.0
230
1.0
 70
    11
 71
     3
 72
    20
 73
    16
 74
     0
 42
0.0000000001
 43
0.0000000001
 40
0.0
 40
0.0
 40
0.0
 40
0.0
 40
1.0
 40
1.0
 40
1.0
 40
2.0
 40
2.0
 40
2.0
 40
3.0
 40
3.0
 40
3.0
 40
4.0
 40
4.0
 40
4.0
 40
5.0
 40
5.0
 40
5.0
 40
5.0
 10
71.10160317232877
 20
-114.2621039210873
 30
0.0
 10
71.10160317232877
 20
-113.5703287476491
 30
0.0
 10
70.53988035345878
 20
-113.0108452408445
 30
0.0
 10
69.84827743479488
 20
-113.0108452408445
 30
0.0
 10
69.15736353522803
 20
-113.0108452408445
 30
0.0
 10
68.59564071635803
 20
-113.5703287476491
 30
0.0
 10
68.59564071635803
 20
-114.2621039210873
 30
0.0
 10
68.59564071635803
 20
-114.9538790945254
 30
0.0
 10
69.15736353522803
 20
-115.5140516204271
 30
0.0
 10
69.84827743479488
 20
-115.5140516204271
 30
0.0
 10
70.53988035345878
 20
-115.5140516204271
 30
0.0
 10
71.10160317232877
 20
-114.9538790945254
 30
0.0
 10
71.10160317232877
 20
-114.2621039210873
 30
0.0
 10
71.10160317232877
 20
-114.2621039210873
 30
0.0
 10
71.10160317232877
 20
-114.2621039210873
 30
0.0
 10
71.10160317232877
 20
-114.2621039210873
 30
0.0
  0
POLYLINE
  5
32F
330
1F
100
AcDbEntity
  8
Capa 1
 62
     7
420
 16777215
370
     5
100
AcDb2dPolyline
 66
     1
 10
0.0
 20
0.0
 30
0.0
  0
VERTEX
  5
330
330
32F
100
AcDbEntity
  8
Capa 1
 62
     7
420
 16777215
370
     5
100
AcDbVertex
100
AcDb2dVertex
 10
67.433437754409
 20
-113.5152072198851
 30
0.0
  0
VERTEX
  5
331
330
32F
100
AcDbEntity
  8
Capa 1
 62
     7
420
 16777215
370
     5
100
AcDbVertex
100
AcDb2dVertex
 10
69.10000269539862
 20
-116.6771158562474
 30
0.0
  0
SEQEND
  5
332
330
32F
100
AcDbEntity
  8
Capa 1
370
     5
  0
POLYLINE
  5
333
330
1F
100
AcDbEntity
  8
Capa 1
 62
     7
420
 16777215
370
     5
100
AcDb2dPolyline
 66
     1
 10
0.0
 20
0.0
 30
0.0
  0
VERTEX
  5
334
330
333
100
AcDbEntity
  8
Capa 1
 62
     7
420
 16777215
370
     5
100
AcDbVertex
100
AcDb2dVertex
 10
70.59655217419115
 20
-111.8474364954756
 30
0.0
  0
VERTEX
  5
335
330
333
100
AcDbEntity
  8
Capa 1
 62
     7
420
 16777215
370
     5
100
AcDbVertex
100
AcDb2dVertex
 10
72.26328936995502
 20
-115.0103786604835
 30
0.0
  0
SEQEND
  5
336
330
333
100
AcDbEntity
  8
Capa 1
370
     5
  0
POLYLINE
  5
337
330
1F
100
AcDbEntity
  8
Capa 1
 62
     7
420
 16777215
370
     5
100
AcDb2dPolyline
 66
     1
 10
0.0
 20
0.0
 30
0.0
  0
VERTEX
  5
338
330
337
100
AcDbEntity
  8
Capa 1
 62
     7
420
 16777215
370
     5
100
AcDbVertex
100
AcDb2dVertex
 10
67.433437754409
 20
-113.5152072198851
 30
0.0
  0
VERTEX
  5
339
330
337
100
AcDbEntity
  8
Capa 1
 62
     7
420
 16777215
370
     5
100
AcDbVertex
100
AcDb2dVertex
 10
70.59655217419115
 20
-111.8474364954756
 30
0.0
  0
SEQEND
  5
33A
330
337
100
AcDbEntity
  8
Capa 1
370
     5
  0
POLYLINE
  5
33B
330
1F
100
AcDbEntity
  8
Capa 1
 62
     7
420
 16777215
370
     5
100
AcDb2dPolyline
 66
     1
 10
0.0
 20
0.0
 30
0.0
  0
VERTEX
  5
33C
330
33B
100
AcDbEntity
  8
Capa 1
 62
     7
420
 16777215
370
     5
100
AcDbVertex
100
AcDb2dVertex
 10
69.10000269539862
 20
-116.6771158562474
 30
0.0
  0
VERTEX
  5
33D
330
33B
100
AcDbEntity
  8
Capa 1
 62
     7
420
 16777215
370
     5
100
AcDbVertex
100
AcDb2dVertex
 10
72.26328936995502
 20
-115.0103786604835
 30
0.0
  0
SEQEND
  5
33E
330
33B
100
AcDbEntity
  8
Capa 1
370
     5
  0
POLYLINE
  5
33F
330
1F
100
AcDbEntity
  8
Capa 1
 62
     7
420
 16777215
370
     5
100
AcDb2dPolyline
 66
     1
 10
0.0
 20
0.0
 30
0.0
  0
VERTEX
  5
340
330
33F
100
AcDbEntity
  8
Capa 1
 62
     7
420
 16777215
370
     5
100
AcDbVertex
100
AcDb2dVertex
 10
71.01116941584097
 20
-118.3793375355093
 30
0.0
  0
VERTEX
  5
341
330
33F
100
AcDbEntity
  8
Capa 1
 62
     7
420
 16777215
370
     5
100
AcDbVertex
100
AcDb2dVertex
 10
72.59212373402211
 20
-117.5459689376274
 30
0.0
  0
SEQEND
  5
342
330
33F
100
AcDbEntity
  8
Capa 1
370
     5
  0
POLYLINE
  5
343
330
1F
100
AcDbEntity
  8
Capa 1
 62
     7
420
 16777215
370
     5
100
AcDb2dPolyline
 66
     1
 10
0.0
 20
0.0
 30
0.0
  0
VERTEX
  5
344
330
343
100
AcDbEntity
  8
Capa 1
 62
     7
420
 16777215
370
     5
100
AcDbVertex
100
AcDb2dVertex
 10
71.4757405420269
 20
-115.4268907046502
 30
0.0
  0
VERTEX
  5
345
330
343
100
AcDbEntity
  8
Capa 1
 62
     7
420
 16777215
370
     5
100
AcDbVertex
100
AcDb2dVertex
 10
72.59212373402211
 20
-117.5459689376274
 30
0.0
  0
SEQEND
  5
346
330
343
100
AcDbEntity
  8
Capa 1
370
     5
  0
POLYLINE
  5
347
330
1F
100
AcDbEntity
  8
Capa 1
 62
     7
420
 16777215
370
     5
100
AcDb2dPolyline
 66
     1
 10
0.0
 20
0.0
 30
0.0
  0
VERTEX
  5
348
330
347
100
AcDbEntity
  8
Capa 1
 62
     7
420
 16777215
370
     5
100
AcDbVertex
100
AcDb2dVertex
 10
69.89426945952296
 20
-116.2609483216292
 30
0.0
  0
VERTEX
  5
349
330
347
100
AcDbEntity
  8
Capa 1
 62
     7
420
 16777215
370
     5
100
AcDbVertex
100
AcDb2dVertex
 10
71.01116941584097
 20
-118.3793375355093
 30
0.0
  0
SEQEND
  5
34A
330
347
100
AcDbEntity
  8
Capa 1
370
     5
  0
POLYLINE
  5
34B
330
1F
100
AcDbEntity
  8
Capa 1
 62
     7
420
 16777215
370
     5
100
AcDb2dPolyline
 66
     1
 10
0.0
 20
0.0
 30
0.0
  0
VERTEX
  5
34C
330
34B
100
AcDbEntity
  8
Capa 1
 62
     7
420
 16777215
370
     5
100
AcDbVertex
100
AcDb2dVertex
 10
64.88802895513216
 20
-113.5269205445349
 30
0.0
  0
VERTEX
  5
34D
330
34B
100
AcDbEntity
  8
Capa 1
 62
     7
420
 16777215
370
     5
100
AcDbVertex
100
AcDb2dVertex
 10
64.88802895513216
 20
-115.313891572734
 30
0.0
  0
SEQEND
  5
34E
330
34B
100
AcDbEntity
  8
Capa 1
370
     5
  0
POLYLINE
  5
34F
330
1F
100
AcDbEntity
  8
Capa 1
 62
     7
420
 16777215
370
     5
100
AcDb2dPolyline
 66
     1
 10
0.0
 20
0.0
 30
0.0
  0
VERTEX
  5
350
330
34F
100
AcDbEntity
  8
Capa 1
 62
     7
420
 16777215
370
     5
100
AcDbVertex
100
AcDb2dVertex
 10
77.0817721703997
 20
-113.5269205445349
 30
0.0
  0
VERTEX
  5
351
330
34F
100
AcDbEntity
  8
Capa 1
 62
     7
420
 16777215
370
     5
100
AcDbVertex
100
AcDb2dVertex
 10
82.63509383784817
 20
-113.5269205445349
 30
0.0
  0
SEQEND
  5
352
330
34F
100
AcDbEntity
  8
Capa 1
370
     5
  0
POLYLINE
  5
353
330
1F
100
AcDbEntity
  8
Capa 1
 62
     7
420
 16777215
370
     5
100
AcDb2dPolyline
 66
     1
 10
0.0
 20
0.0
 30
0.0
  0
VERTEX
  5
354
330
353
100
AcDbEntity
  8
Capa 1
 62
     7
420
 16777215
370
     5
100
AcDbVertex
100
AcDb2dVertex
 10
77.45590954009784
 20
-115.313891572734
 30
0.0
  0
VERTEX
  5
355
330
353
100
AcDbEntity
  8
Capa 1
 62
     7
420
 16777215
370
     5
100
AcDbVertex
100
AcDb2dVertex
 10
82.63509383784817
 20
-115.313891572734
 30
0.0
  0
SEQEND
  5
356
330
353
100
AcDbEntity
  8
Capa 1
370
     5
  0
POLYLINE
  5
357
330
1F
100
AcDbEntity
  8
Capa 1
 62
     7
420
 16777215
370
     5
100
AcDb2dPolyline
 66
     1
 10
0.0
 20
0.0
 30
0.0
  0
VERTEX
  5
358
330
357
100
AcDbEntity
  8
Capa 1
 62
     7
420
 16777215
370
     5
100
AcDbVertex
100
AcDb2dVertex
 10
71.51501463055875
 20
-113.5269205445349
 30
0.0
  0
VERTEX
  5
359
330
357
100
AcDbEntity
  8
Capa 1
 62
     7
420
 16777215
370
     5
100
AcDbVertex
100
AcDb2dVertex
 10
74.59923636372866
 20
-113.5269205445349
 30
0.0
  0
SEQEND
  5
35A
330
357
100
AcDbEntity
  8
Capa 1
370
     5
  0
POLYLINE
  5
35B
330
1F
100
AcDbEntity
  8
Capa 1
 62
     7
420
 16777215
370
     5
100
AcDb2dPolyline
 66
     1
 10
0.0
 20
0.0
 30
0.0
  0
VERTEX
  5
35C
330
35B
100
AcDbEntity
  8
Capa 1
 62
     7
420
 16777215
370
     5
100
AcDbVertex
100
AcDb2dVertex
 10
71.67607284449419
 20
-115.313891572734
 30
0.0
  0
VERTEX
  5
35D
330
35B
100
AcDbEntity
  8
Capa 1
 62
     7
420
 16777215
370
     5
100
AcDbVertex
100
AcDb2dVertex
 10
74.97268471432974
 20
-115.313891572734
 30
0.0
  0
SEQEND
  5
35E
330
35B
100
AcDbEntity
  8
Capa 1
370
     5
  0
POLYLINE
  5
35F
330
1F
100
AcDbEntity
  8
Capa 1
 62
     7
420
 16777215
370
     5
100
AcDb2dPolyline
 66
     1
 10
0.0
 20
0.0
 30
0.0
  0
VERTEX
  5
360
330
35F
100
AcDbEntity
  8
Capa 1
 62
     7
420
 16777215
370
     5
100
AcDbVertex
100
AcDb2dVertex
 10
73.96430526579712
 20
-110.4814561355741
 30
0.0
  0
VERTEX
  5
361
330
35F
100
AcDbEntity
  8
Capa 1
 62
     7
420
 16777215
370
     5
100
AcDbVertex
100
AcDb2dVertex
 10
75.64740666511592
 20
-118.5364338896367
 30
0.0
  0
SEQEND
  5
362
330
35F
100
AcDbEntity
  8
Capa 1
370
     5
  0
POLYLINE
  5
363
330
1F
100
AcDbEntity
  8
Capa 1
 62
     7
420
 16777215
370
     5
100
AcDb2dPolyline
 66
     1
 10
0.0
 20
0.0
 30
0.0
  0
VERTEX
  5
364
330
363
100
AcDbEntity
  8
Capa 1
 62
     7
420
 16777215
370
     5
100
AcDbVertex
100
AcDb2dVertex
 10
107.8407904461301
 20
-98.33077661387217
 30
0.0
  0
VERTEX
  5
365
330
363
100
AcDbEntity
  8
Capa 1
 62
     7
420
 16777215
370
     5
100
AcDbVertex
100
AcDb2dVertex
 10
107.8407904461301
 20
-101.9060967084644
 30
0.0
  0
SEQEND
  5
366
330
363
100
AcDbEntity
  8
Capa 1
370
     5
  0
POLYLINE
  5
367
330
1F
100
AcDbEntity
  8
Capa 1
 62
     7
420
 16777215
370
     5
100
AcDb2dPolyline
 66
     1
 10
0.0
 20
0.0
 30
0.0
  0
VERTEX
  5
368
330
367
100
AcDbEntity
  8
Capa 1
 62
     7
420
 16777215
370
     5
100
AcDbVertex
100
AcDb2dVertex
 10
95.6863213193944
 20
-98.33077661387217
 30
0.0
  0
VERTEX
  5
369
330
367
100
AcDbEntity
  8
Capa 1
 62
     7
420
 16777215
370
     5
100
AcDbVertex
100
AcDb2dVertex
 10
95.6863213193944
 20
-101.9060967084644
 30
0.0
  0
SEQEND
  5
36A
330
367
100
AcDbEntity
  8
Capa 1
370
     5
  0
POLYLINE
  5
36B
330
1F
100
AcDbEntity
  8
Capa 1
 62
     7
420
 16777215
370
     5
100
AcDb2dPolyline
 66
     1
 10
0.0
 20
0.0
 30
0.0
  0
VERTEX
  5
36C
330
36B
100
AcDbEntity
  8
Capa 1
 62
     7
420
 16777215
370
     5
100
AcDbVertex
100
AcDb2dVertex
 10
104.6237602820038
 20
-98.33077661387217
 30
0.0
  0
VERTEX
  5
36D
330
36B
100
AcDbEntity
  8
Capa 1
 62
     7
420
 16777215
370
     5
100
AcDbVertex
100
AcDb2dVertex
 10
104.6237602820038
 20
-101.9060967084644
 30
0.0
  0
SEQEND
  5
36E
330
36B
100
AcDbEntity
  8
Capa 1
370
     5
  0
POLYLINE
  5
36F
330
1F
100
AcDbEntity
  8
Capa 1
 62
     7
420
 16777215
370
     5
100
AcDb2dPolyline
 66
     1
 10
0.0
 20
0.0
 30
0.0
  0
VERTEX
  5
370
330
36F
100
AcDbEntity
  8
Capa 1
 62
     7
420
 16777215
370
     5
100
AcDbVertex
100
AcDb2dVertex
 10
98.90076766190676
 20
-98.33077661387217
 30
0.0
  0
VERTEX
  5
371
330
36F
100
AcDbEntity
  8
Capa 1
 62
     7
420
 16777215
370
     5
100
AcDbVertex
100
AcDb2dVertex
 10
98.90076766190676
 20
-101.9060967084644
 30
0.0
  0
SEQEND
  5
372
330
36F
100
AcDbEntity
  8
Capa 1
370
     5
  0
POLYLINE
  5
373
330
1F
100
AcDbEntity
  8
Capa 1
 62
     7
420
 16777215
370
     5
100
AcDb2dPolyline
 66
     1
 10
0.0
 20
0.0
 30
0.0
  0
VERTEX
  5
374
330
373
100
AcDbEntity
  8
Capa 1
 62
     7
420
 16777215
370
     5
100
AcDbVertex
100
AcDb2dVertex
 10
104.9804999195014
 20
-102.2645588937047
 30
0.0
  0
VERTEX
  5
375
330
373
100
AcDbEntity
  8
Capa 1
 62
     7
420
 16777215
370
     5
100
AcDbVertex
100
AcDb2dVertex
 10
107.4835340443097
 20
-102.2645588937047
 30
0.0
  0
SEQEND
  5
376
330
373
100
AcDbEntity
  8
Capa 1
370
     5
  0
POLYLINE
  5
377
330
1F
100
AcDbEntity
  8
Capa 1
 62
     7
420
 16777215
370
     5
100
AcDb2dPolyline
 66
     1
 10
0.0
 20
0.0
 30
0.0
  0
VERTEX
  5
378
330
377
100
AcDbEntity
  8
Capa 1
 62
     7
420
 16777215
370
     5
100
AcDbVertex
100
AcDb2dVertex
 10
104.9804999195014
 20
-97.97317570250324
 30
0.0
  0
VERTEX
  5
379
330
377
100
AcDbEntity
  8
Capa 1
 62
     7
420
 16777215
370
     5
100
AcDbVertex
100
AcDb2dVertex
 10
107.4835340443097
 20
-97.97317570250324
 30
0.0
  0
SEQEND
  5
37A
330
377
100
AcDbEntity
  8
Capa 1
370
     5
  0
SPLINE
  5
37B
330
1F
100
AcDbEntity
  8
Capa 1
 62
     7
420
 16777215
370
     5
100
AcDbSpline
210
0.0
220
0.0
230
1.0
 70
     8
 71
     3
 72
     8
 73
     4
 74
     0
 42
0.0000000001
 43
0.0000000001
 40
0.0
 40
0.0
 40
0.0
 40
0.0
 40
1.0
 40
1.0
 40
1.0
 40
1.0
 10
107.8407904461301
 20
-98.33077661387217
 30
0.0
 10
107.8407904461301
 20
-98.13337264256735
 30
0.0
 10
107.6814547799373
 20
-97.97317570250324
 30
0.0
 10
107.4835340443097
 20
-97.97317570250324
 30
0.0
  0
SPLINE
  5
37C
330
1F
100
AcDbEntity
  8
Capa 1
 62
     7
420
 16777215
370
     5
100
AcDbSpline
210
0.0
220
0.0
230
1.0
 70
     8
 71
     3
 72
     8
 73
     4
 74
     0
 42
0.0000000001
 43
0.0000000001
 40
0.0
 40
0.0
 40
0.0
 40
0.0
 40
1.0
 40
1.0
 40
1.0
 40
1.0
 10
104.9804999195014
 20
-97.97317570250324
 30
0.0
 10
104.7849907507135
 20
-97.97317570250324
 30
0.0
 10
104.6237602820038
 20
-98.13337264256735
 30
0.0
 10
104.6237602820038
 20
-98.33077661387217
 30
0.0
  0
SPLINE
  5
37D
330
1F
100
AcDbEntity
  8
Capa 1
 62
     7
420
 16777215
370
     5
100
AcDbSpline
210
0.0
220
0.0
230
1.0
 70
     8
 71
     3
 72
     8
 73
     4
 74
     0
 42
0.0000000001
 43
0.0000000001
 40
0.0
 40
0.0
 40
0.0
 40
0.0
 40
1.0
 40
1.0
 40
1.0
 40
1.0
 10
104.6237602820038
 20
-101.9060967084644
 30
0.0
 10
104.6237602820038
 20
-102.1031561702207
 30
0.0
 10
104.7849907507135
 20
-102.2645588937047
 30
0.0
 10
104.9804999195014
 20
-102.2645588937047
 30
0.0
  0
SPLINE
  5
37E
330
1F
100
AcDbEntity
  8
Capa 1
 62
     7
420
 16777215
370
     5
100
AcDbSpline
210
0.0
220
0.0
230
1.0
 70
     8
 71
     3
 72
     8
 73
     4
 74
     0
 42
0.0000000001
 43
0.0000000001
 40
0.0
 40
0.0
 40
0.0
 40
0.0
 40
1.0
 40
1.0
 40
1.0
 40
1.0
 10
107.4835340443097
 20
-102.2645588937047
 30
0.0
 10
107.6814547799373
 20
-102.2645588937047
 30
0.0
 10
107.8407904461301
 20
-102.1031561702207
 30
0.0
 10
107.8407904461301
 20
-101.9060967084644
 30
0.0
  0
POLYLINE
  5
37F
330
1F
100
AcDbEntity
  8
Capa 1
 62
     7
420
 16777215
370
     5
100
AcDb2dPolyline
 66
     1
 10
0.0
 20
0.0
 30
0.0
  0
VERTEX
  5
380
330
37F
100
AcDbEntity
  8
Capa 1
 62
     7
420
 16777215
370
     5
100
AcDbVertex
100
AcDb2dVertex
 10
96.0435777212148
 20
-102.2645588937047
 30
0.0
  0
VERTEX
  5
381
330
37F
100
AcDbEntity
  8
Capa 1
 62
     7
420
 16777215
370
     5
100
AcDbVertex
100
AcDb2dVertex
 10
98.54351126008635
 20
-102.2645588937047
 30
0.0
  0
SEQEND
  5
382
330
37F
100
AcDbEntity
  8
Capa 1
370
     5
  0
POLYLINE
  5
383
330
1F
100
AcDbEntity
  8
Capa 1
 62
     7
420
 16777215
370
     5
100
AcDb2dPolyline
 66
     1
 10
0.0
 20
0.0
 30
0.0
  0
VERTEX
  5
384
330
383
100
AcDbEntity
  8
Capa 1
 62
     7
420
 16777215
370
     5
100
AcDbVertex
100
AcDb2dVertex
 10
96.0435777212148
 20
-97.97317570250324
 30
0.0
  0
VERTEX
  5
385
330
383
100
AcDbEntity
  8
Capa 1
 62
     7
420
 16777215
370
     5
100
AcDbVertex
100
AcDb2dVertex
 10
98.54351126008635
 20
-97.97317570250324
 30
0.0
  0
SEQEND
  5
386
330
383
100
AcDbEntity
  8
Capa 1
370
     5
  0
SPLINE
  5
387
330
1F
100
AcDbEntity
  8
Capa 1
 62
     7
420
 16777215
370
     5
100
AcDbSpline
210
0.0
220
0.0
230
1.0
 70
     8
 71
     3
 72
     8
 73
     4
 74
     0
 42
0.0000000001
 43
0.0000000001
 40
0.0
 40
0.0
 40
0.0
 40
0.0
 40
1.0
 40
1.0
 40
1.0
 40
1.0
 10
96.0435777212148
 20
-97.97317570250324
 30
0.0
 10
95.8456569855872
 20
-97.97317570250324
 30
0.0
 10
95.6863213193944
 20
-98.13337264256735
 30
0.0
 10
95.6863213193944
 20
-98.33077661387217
 30
0.0
  0
SPLINE
  5
388
330
1F
100
AcDbEntity
  8
Capa 1
 62
     7
420
 16777215
370
     5
100
AcDbSpline
210
0.0
220
0.0
230
1.0
 70
     8
 71
     3
 72
     8
 73
     4
 74
     0
 42
0.0000000001
 43
0.0000000001
 40
0.0
 40
0.0
 40
0.0
 40
0.0
 40
1.0
 40
1.0
 40
1.0
 40
1.0
 10
98.90076766190676
 20
-98.33077661387217
 30
0.0
 10
98.90076766190676
 20
-98.13337264256735
 30
0.0
 10
98.74143199571395
 20
-97.97317570250324
 30
0.0
 10
98.54351126008635
 20
-97.97317570250324
 30
0.0
  0
SPLINE
  5
389
330
1F
100
AcDbEntity
  8
Capa 1
 62
     7
420
 16777215
370
     5
100
AcDbSpline
210
0.0
220
0.0
230
1.0
 70
     8
 71
     3
 72
     8
 73
     4
 74
     0
 42
0.0000000001
 43
0.0000000001
 40
0.0
 40
0.0
 40
0.0
 40
0.0
 40
1.0
 40
1.0
 40
1.0
 40
1.0
 10
98.54351126008635
 20
-102.2645588937047
 30
0.0
 10
98.74143199571395
 20
-102.2645588937047
 30
0.0
 10
98.90076766190676
 20
-102.1031561702207
 30
0.0
 10
98.90076766190676
 20
-101.9060967084644
 30
0.0
  0
SPLINE
  5
38A
330
1F
100
AcDbEntity
  8
Capa 1
 62
     7
420
 16777215
370
     5
100
AcDbSpline
210
0.0
220
0.0
230
1.0
 70
     8
 71
     3
 72
     8
 73
     4
 74
     0
 42
0.0000000001
 43
0.0000000001
 40
0.0
 40
0.0
 40
0.0
 40
0.0
 40
1.0
 40
1.0
 40
1.0
 40
1.0
 10
95.6863213193944
 20
-101.9060967084644
 30
0.0
 10
95.6863213193944
 20
-102.1031561702207
 30
0.0
 10
95.8456569855872
 20
-102.2645588937047
 30
0.0
 10
96.0435777212148
 20
-102.2645588937047
 30
0.0
  0
POLYLINE
  5
38B
330
1F
100
AcDbEntity
  8
Capa 1
 62
     7
420
 16777215
370
     5
100
AcDb2dPolyline
 66
     1
 10
0.0
 20
0.0
 30
0.0
  0
VERTEX
  5
38C
330
38B
100
AcDbEntity
  8
Capa 1
 62
     7
420
 16777215
370
     5
100
AcDbVertex
100
AcDb2dVertex
 10
90.49973006635076
 20
-90.10802270967785
 30
0.0
  0
VERTEX
  5
38D
330
38B
100
AcDbEntity
  8
Capa 1
 62
     7
420
 16777215
370
     5
100
AcDbVertex
100
AcDb2dVertex
 10
113.0272094443994
 20
-90.10802270967785
 30
0.0
  0
SEQEND
  5
38E
330
38B
100
AcDbEntity
  8
Capa 1
370
     5
  0
POLYLINE
  5
38F
330
1F
100
AcDbEntity
  8
Capa 1
 62
     7
420
 16777215
370
     5
100
AcDb2dPolyline
 66
     1
 10
0.0
 20
0.0
 30
0.0
  0
VERTEX
  5
390
330
38F
100
AcDbEntity
  8
Capa 1
 62
     7
420
 16777215
370
     5
100
AcDbVertex
100
AcDb2dVertex
 10
93.895216176613
 20
-95.11340194019735
 30
0.0
  0
VERTEX
  5
391
330
38F
100
AcDbEntity
  8
Capa 1
 62
     7
420
 16777215
370
     5
100
AcDbVertex
100
AcDb2dVertex
 10
109.6281059838777
 20
-95.11340194019735
 30
0.0
  0
SEQEND
  5
392
330
38F
100
AcDbEntity
  8
Capa 1
370
     5
  0
POLYLINE
  5
393
330
1F
100
AcDbEntity
  8
Capa 1
 62
     7
420
 16777215
370
     5
100
AcDb2dPolyline
 66
     1
 10
0.0
 20
0.0
 30
0.0
  0
VERTEX
  5
394
330
393
100
AcDbEntity
  8
Capa 1
 62
     7
420
 16777215
370
     5
100
AcDbVertex
100
AcDb2dVertex
 10
109.6281059838777
 20
-95.11340194019735
 30
0.0
  0
VERTEX
  5
395
330
393
100
AcDbEntity
  8
Capa 1
 62
     7
420
 16777215
370
     5
100
AcDbVertex
100
AcDb2dVertex
 10
113.0272094443994
 20
-90.10802270967785
 30
0.0
  0
SEQEND
  5
396
330
393
100
AcDbEntity
  8
Capa 1
370
     5
  0
POLYLINE
  5
397
330
1F
100
AcDbEntity
  8
Capa 1
 62
     7
420
 16777215
370
     5
100
AcDb2dPolyline
 66
     1
 10
0.0
 20
0.0
 30
0.0
  0
VERTEX
  5
398
330
397
100
AcDbEntity
  8
Capa 1
 62
     7
420
 16777215
370
     5
100
AcDbVertex
100
AcDb2dVertex
 10
93.895216176613
 20
-95.11340194019735
 30
0.0
  0
VERTEX
  5
399
330
397
100
AcDbEntity
  8
Capa 1
 62
     7
420
 16777215
370
     5
100
AcDbVertex
100
AcDb2dVertex
 10
90.49973006635076
 20
-90.10802270967785
 30
0.0
  0
SEQEND
  5
39A
330
397
100
AcDbEntity
  8
Capa 1
370
     5
  0
POLYLINE
  5
39B
330
1F
100
AcDbEntity
  8
Capa 1
 62
     7
420
 16777215
370
     5
100
AcDb2dPolyline
 66
     1
 10
0.0
 20
0.0
 30
0.0
  0
VERTEX
  5
39C
330
39B
100
AcDbEntity
  8
Capa 1
 62
     7
420
 16777215
370
     5
100
AcDbVertex
100
AcDb2dVertex
 10
91.93116724047208
 20
-102.978727187797
 30
0.0
  0
VERTEX
  5
39D
330
39B
100
AcDbEntity
  8
Capa 1
 62
     7
420
 16777215
370
     5
100
AcDbVertex
100
AcDb2dVertex
 10
111.5959445250524
 20
-102.978727187797
 30
0.0
  0
SEQEND
  5
39E
330
39B
100
AcDbEntity
  8
Capa 1
370
     5
  0
POLYLINE
  5
39F
330
1F
100
AcDbEntity
  8
Capa 1
 62
     7
420
 16777215
370
     5
100
AcDb2dPolyline
 66
     1
 10
0.0
 20
0.0
 30
0.0
  0
VERTEX
  5
3A0
330
39F
100
AcDbEntity
  8
Capa 1
 62
     7
420
 16777215
370
     5
100
AcDbVertex
100
AcDb2dVertex
 10
108.9142821993339
 20
-95.11340194019735
 30
0.0
  0
VERTEX
  5
3A1
330
39F
100
AcDbEntity
  8
Capa 1
 62
     7
420
 16777215
370
     5
100
AcDbVertex
100
AcDb2dVertex
 10
108.9142821993339
 20
-102.978727187797
 30
0.0
  0
SEQEND
  5
3A2
330
39F
100
AcDbEntity
  8
Capa 1
370
     5
  0
POLYLINE
  5
3A3
330
1F
100
AcDbEntity
  8
Capa 1
 62
     7
420
 16777215
370
     5
100
AcDb2dPolyline
 66
     1
 10
0.0
 20
0.0
 30
0.0
  0
VERTEX
  5
3A4
330
3A3
100
AcDbEntity
  8
Capa 1
 62
     7
420
 16777215
370
     5
100
AcDbVertex
100
AcDb2dVertex
 10
94.61282956619054
 20
-95.11340194019735
 30
0.0
  0
VERTEX
  5
3A5
330
3A3
100
AcDbEntity
  8
Capa 1
 62
     7
420
 16777215
370
     5
100
AcDbVertex
100
AcDb2dVertex
 10
94.61282956619054
 20
-102.978727187797
 30
0.0
  0
SEQEND
  5
3A6
330
3A3
100
AcDbEntity
  8
Capa 1
370
     5
  0
POLYLINE
  5
3A7
330
1F
100
AcDbEntity
  8
Capa 1
 62
     7
420
 16777215
370
     5
100
AcDb2dPolyline
 66
     1
 10
0.0
 20
0.0
 30
0.0
  0
VERTEX
  5
3A8
330
3A7
100
AcDbEntity
  8
Capa 1
 62
     7
420
 16777215
370
     5
100
AcDbVertex
100
AcDb2dVertex
 10
91.93116724047208
 20
-105.4812445482825
 30
0.0
  0
VERTEX
  5
3A9
330
3A7
100
AcDbEntity
  8
Capa 1
 62
     7
420
 16777215
370
     5
100
AcDbVertex
100
AcDb2dVertex
 10
111.5959445250524
 20
-105.4812445482825
 30
0.0
  0
SEQEND
  5
3AA
330
3A7
100
AcDbEntity
  8
Capa 1
370
     5
  0
SPLINE
  5
3AB
330
1F
100
AcDbEntity
  8
Capa 1
 62
     7
420
 16777215
370
     5
100
AcDbSpline
210
0.0
220
0.0
230
1.0
 70
     8
 71
     3
 72
    11
 73
     7
 74
     0
 42
0.0000000001
 43
0.0000000001
 40
0.0
 40
0.0
 40
0.0
 40
0.0
 40
1.0
 40
1.0
 40
1.0
 40
2.0
 40
2.0
 40
2.0
 40
2.0
 10
111.5959445250524
 20
-105.4812445482825
 30
0.0
 10
112.2873751889421
 20
-105.4812445482825
 30
0.0
 10
112.8456529123268
 20
-104.9217610414779
 30
0.0
 10
112.8456529123268
 20
-104.230158122814
 30
0.0
 10
112.8456529123268
 20
-103.5399332423442
 30
0.0
 10
112.2873751889421
 20
-102.978727187797
 30
0.0
 10
111.5959445250524
 20
-102.978727187797
 30
0.0
  0
SPLINE
  5
3AC
330
1F
100
AcDbEntity
  8
Capa 1
 62
     7
420
 16777215
370
     5
100
AcDbSpline
210
0.0
220
0.0
230
1.0
 70
     8
 71
     3
 72
    11
 73
     7
 74
     0
 42
0.0000000001
 43
0.0000000001
 40
0.0
 40
0.0
 40
0.0
 40
0.0
 40
1.0
 40
1.0
 40
1.0
 40
2.0
 40
2.0
 40
2.0
 40
2.0
 10
91.93116724047208
 20
-102.978727187797
 30
0.0
 10
91.23956432180817
 20
-102.978727187797
 30
0.0
 10
90.68076983410064
 20
-103.5399332423442
 30
0.0
 10
90.68076983410064
 20
-104.230158122814
 30
0.0
 10
90.68076983410064
 20
-104.9217610414779
 30
0.0
 10
91.23956432180817
 20
-105.4812445482825
 30
0.0
 10
91.93116724047208
 20
-105.4812445482825
 30
0.0
  0
POLYLINE
  5
3AD
330
1F
100
AcDbEntity
  8
Capa 1
 62
     7
420
 16777215
370
     5
100
AcDb2dPolyline
 66
     1
 10
0.0
 20
0.0
 30
0.0
  0
VERTEX
  5
3AE
330
3AD
100
AcDbEntity
  8
Capa 1
 62
     7
420
 16777215
370
     5
100
AcDbVertex
100
AcDb2dVertex
 10
110.1645073509311
 20
-105.4812445482825
 30
0.0
  0
VERTEX
  5
3AF
330
3AD
100
AcDbEntity
  8
Capa 1
 62
     7
420
 16777215
370
     5
100
AcDbVertex
100
AcDb2dVertex
 10
110.1645073509311
 20
-119.0680121230108
 30
0.0
  0
SEQEND
  5
3B0
330
3AD
100
AcDbEntity
  8
Capa 1
370
     5
  0
POLYLINE
  5
3B1
330
1F
100
AcDbEntity
  8
Capa 1
 62
     7
420
 16777215
370
     5
100
AcDb2dPolyline
 66
     1
 10
0.0
 20
0.0
 30
0.0
  0
VERTEX
  5
3B2
330
3B1
100
AcDbEntity
  8
Capa 1
 62
     7
420
 16777215
370
     5
100
AcDbVertex
100
AcDb2dVertex
 10
93.36243215981912
 20
-105.4812445482825
 30
0.0
  0
VERTEX
  5
3B3
330
3B1
100
AcDbEntity
  8
Capa 1
 62
     7
420
 16777215
370
     5
100
AcDbVertex
100
AcDb2dVertex
 10
93.36243215981912
 20
-111.2028591301854
 30
0.0
  0
SEQEND
  5
3B4
330
3B1
100
AcDbEntity
  8
Capa 1
370
     5
  0
POLYLINE
  5
3B5
330
1F
100
AcDbEntity
  8
Capa 1
 62
     7
420
 16777215
370
     5
100
AcDb2dPolyline
 66
     1
 10
0.0
 20
0.0
 30
0.0
  0
VERTEX
  5
3B6
330
3B5
100
AcDbEntity
  8
Capa 1
 62
     7
420
 16777215
370
     5
100
AcDbVertex
100
AcDb2dVertex
 10
93.36243215981912
 20
-119.0680121230108
 30
0.0
  0
VERTEX
  5
3B7
330
3B5
100
AcDbEntity
  8
Capa 1
 62
     7
420
 16777215
370
     5
100
AcDbVertex
100
AcDb2dVertex
 10
110.1645073509311
 20
-119.0680121230108
 30
0.0
  0
SEQEND
  5
3B8
330
3B5
100
AcDbEntity
  8
Capa 1
370
     5
  0
POLYLINE
  5
3B9
330
1F
100
AcDbEntity
  8
Capa 1
 62
     7
420
 16777215
370
     5
100
AcDb2dPolyline
 66
     1
 10
0.0
 20
0.0
 30
0.0
  0
VERTEX
  5
3BA
330
3B9
100
AcDbEntity
  8
Capa 1
 62
     7
420
 16777215
370
     5
100
AcDbVertex
100
AcDb2dVertex
 10
94.61282956619054
 20
-124.4320257935448
 30
0.0
  0
VERTEX
  5
3BB
330
3B9
100
AcDbEntity
  8
Capa 1
 62
     7
420
 16777215
370
     5
100
AcDbVertex
100
AcDb2dVertex
 10
108.9142821993339
 20
-124.4320257935448
 30
0.0
  0
SEQEND
  5
3BC
330
3B9
100
AcDbEntity
  8
Capa 1
370
     5
  0
POLYLINE
  5
3BD
330
1F
100
AcDbEntity
  8
Capa 1
 62
     7
420
 16777215
370
     5
100
AcDb2dPolyline
 66
     1
 10
0.0
 20
0.0
 30
0.0
  0
VERTEX
  5
3BE
330
3BD
100
AcDbEntity
  8
Capa 1
 62
     7
420
 16777215
370
     5
100
AcDbVertex
100
AcDb2dVertex
 10
108.9142821993339
 20
-119.0680121230108
 30
0.0
  0
VERTEX
  5
3BF
330
3BD
100
AcDbEntity
  8
Capa 1
 62
     7
420
 16777215
370
     5
100
AcDbVertex
100
AcDb2dVertex
 10
108.9142821993339
 20
-124.4320257935448
 30
0.0
  0
SEQEND
  5
3C0
330
3BD
100
AcDbEntity
  8
Capa 1
370
     5
  0
POLYLINE
  5
3C1
330
1F
100
AcDbEntity
  8
Capa 1
 62
     7
420
 16777215
370
     5
100
AcDb2dPolyline
 66
     1
 10
0.0
 20
0.0
 30
0.0
  0
VERTEX
  5
3C2
330
3C1
100
AcDbEntity
  8
Capa 1
 62
     7
420
 16777215
370
     5
100
AcDbVertex
100
AcDb2dVertex
 10
94.61282956619054
 20
-119.0680121230108
 30
0.0
  0
VERTEX
  5
3C3
330
3C1
100
AcDbEntity
  8
Capa 1
 62
     7
420
 16777215
370
     5
100
AcDbVertex
100
AcDb2dVertex
 10
94.61282956619054
 20
-124.4320257935448
 30
0.0
  0
SEQEND
  5
3C4
330
3C1
100
AcDbEntity
  8
Capa 1
370
     5
  0
POLYLINE
  5
3C5
330
1F
100
AcDbEntity
  8
Capa 1
 62
     7
420
 16777215
370
     5
100
AcDb2dPolyline
 66
     1
 10
0.0
 20
0.0
 30
0.0
  0
VERTEX
  5
3C6
330
3C5
100
AcDbEntity
  8
Capa 1
 62
     7
420
 16777215
370
     5
100
AcDbVertex
100
AcDb2dVertex
 10
87.63943953972209
 20
-117.6379529870836
 30
0.0
  0
VERTEX
  5
3C7
330
3C5
100
AcDbEntity
  8
Capa 1
 62
     7
420
 16777215
370
     5
100
AcDbVertex
100
AcDb2dVertex
 10
93.36243215981912
 20
-117.6379529870836
 30
0.0
  0
SEQEND
  5
3C8
330
3C5
100
AcDbEntity
  8
Capa 1
370
     5
  0
POLYLINE
  5
3C9
330
1F
100
AcDbEntity
  8
Capa 1
 62
     7
420
 16777215
370
     5
100
AcDb2dPolyline
 66
     1
 10
0.0
 20
0.0
 30
0.0
  0
VERTEX
  5
3CA
330
3C9
100
AcDbEntity
  8
Capa 1
 62
     7
420
 16777215
370
     5
100
AcDbVertex
100
AcDb2dVertex
 10
87.63943953972209
 20
-111.2028591301854
 30
0.0
  0
VERTEX
  5
3CB
330
3C9
100
AcDbEntity
  8
Capa 1
 62
     7
420
 16777215
370
     5
100
AcDbVertex
100
AcDb2dVertex
 10
93.36243215981912
 20
-111.2028591301854
 30
0.0
  0
SEQEND
  5
3CC
330
3C9
100
AcDbEntity
  8
Capa 1
370
     5
  0
POLYLINE
  5
3CD
330
1F
100
AcDbEntity
  8
Capa 1
 62
     7
420
 16777215
370
     5
100
AcDb2dPolyline
 66
     1
 10
0.0
 20
0.0
 30
0.0
  0
VERTEX
  5
3CE
330
3CD
100
AcDbEntity
  8
Capa 1
 62
     7
420
 16777215
370
     5
100
AcDbVertex
100
AcDb2dVertex
 10
93.36243215981912
 20
-117.6379529870836
 30
0.0
  0
VERTEX
  5
3CF
330
3CD
100
AcDbEntity
  8
Capa 1
 62
     7
420
 16777215
370
     5
100
AcDbVertex
100
AcDb2dVertex
 10
93.36243215981912
 20
-119.0680121230108
 30
0.0
  0
SEQEND
  5
3D0
330
3CD
100
AcDbEntity
  8
Capa 1
370
     5
  0
SPLINE
  5
3D1
330
1F
100
AcDbEntity
  8
Capa 1
 62
     7
420
 16777215
370
     5
100
AcDbSpline
210
0.0
220
0.0
230
1.0
 70
     8
 71
     3
 72
     8
 73
     4
 74
     0
 42
0.0000000001
 43
0.0000000001
 40
0.0
 40
0.0
 40
0.0
 40
0.0
 40
1.0
 40
1.0
 40
1.0
 40
1.0
 10
93.36243215981912
 20
-117.6379529870836
 30
0.0
 10
93.77636038237189
 20
-117.2076605609759
 30
0.0
 10
94.10226641527652
 20
-116.7012315246441
 30
0.0
 10
94.32309703588103
 20
-116.147260170616
 30
0.0
  0
SPLINE
  5
3D2
330
1F
100
AcDbEntity
  8
Capa 1
 62
     7
420
 16777215
370
     5
100
AcDbSpline
210
0.0
220
0.0
230
1.0
 70
     8
 71
     3
 72
     8
 73
     4
 74
     0
 42
0.0000000001
 43
0.0000000001
 40
0.0
 40
0.0
 40
0.0
 40
0.0
 40
1.0
 40
1.0
 40
1.0
 40
1.0
 10
94.58991968121363
 20
-115.2091606699824
 30
0.0
 10
94.84210067073393
 20
-113.7532633179159
 30
0.0
 10
94.38338620687291
 20
-112.2670491255791
 30
0.0
 10
93.36243215981912
 20
-111.2028591301854
 30
0.0
  0
POLYLINE
  5
3D3
330
1F
100
AcDbEntity
  8
Capa 1
 62
     7
420
 16777215
370
     5
100
AcDb2dPolyline
 66
     1
 10
0.0
 20
0.0
 30
0.0
  0
VERTEX
  5
3D4
330
3D3
100
AcDbEntity
  8
Capa 1
 62
     7
420
 16777215
370
     5
100
AcDbVertex
100
AcDb2dVertex
 10
64.88802895513216
 20
-113.5269205445349
 30
0.0
  0
VERTEX
  5
3D5
330
3D3
100
AcDbEntity
  8
Capa 1
 62
     7
420
 16777215
370
     5
100
AcDbVertex
100
AcDb2dVertex
 10
67.78587102255007
 20
-113.5269205445349
 30
0.0
  0
SEQEND
  5
3D6
330
3D3
100
AcDbEntity
  8
Capa 1
370
     5
  0
POLYLINE
  5
3D7
330
1F
100
AcDbEntity
  8
Capa 1
 62
     7
420
 16777215
370
     5
100
AcDb2dPolyline
 66
     1
 10
0.0
 20
0.0
 30
0.0
  0
VERTEX
  5
3D8
330
3D7
100
AcDbEntity
  8
Capa 1
 62
     7
420
 16777215
370
     5
100
AcDbVertex
100
AcDb2dVertex
 10
64.88802895513216
 20
-115.313891572734
 30
0.0
  0
VERTEX
  5
3D9
330
3D7
100
AcDbEntity
  8
Capa 1
 62
     7
420
 16777215
370
     5
100
AcDbVertex
100
AcDb2dVertex
 10
68.40305987873258
 20
-115.313891572734
 30
0.0
  0
SEQEND
  5
3DA
330
3D7
100
AcDbEntity
  8
Capa 1
370
     5
  0
POLYLINE
  5
3DB
330
1F
100
AcDbEntity
  8
Capa 1
 62
     7
420
 16777215
370
     5
100
AcDb2dPolyline
 66
     1
 10
0.0
 20
0.0
 30
0.0
  0
VERTEX
  5
3DC
330
3DB
100
AcDbEntity
  8
Capa 1
 62
     7
420
 16777215
370
     5
100
AcDbVertex
100
AcDb2dVertex
 10
45.66077879717856
 20
-87.9636230248841
 30
0.0
  0
VERTEX
  5
3DD
330
3DB
100
AcDbEntity
  8
Capa 1
 62
     7
420
 16777215
370
     5
100
AcDbVertex
100
AcDb2dVertex
 10
45.66077879717856
 20
-87.9636230248841
 30
0.0
  0
SEQEND
  5
3DE
330
3DB
100
AcDbEntity
  8
Capa 1
370
     5
  0
SPLINE
  5
3DF
330
1F
100
AcDbEntity
  8
Capa 1
 62
     7
420
 16777215
370
     5
100
AcDbSpline
210
0.0
220
0.0
230
1.0
 70
     8
 71
     3
 72
     8
 73
     4
 74
     0
 42
0.0000000001
 43
0.0000000001
 40
0.0
 40
0.0
 40
0.0
 40
0.0
 40
1.0
 40
1.0
 40
1.0
 40
1.0
 10
45.16175671614012
 20
-82.42528752279647
 30
0.0
 10
44.52079670110938
 20
-82.20841876199998
 30
0.0
 10
43.82936603721974
 20
-82.20841876199998
 30
0.0
 10
43.18909504128606
 20
-82.42528752279647
 30
0.0
  0
POLYLINE
  5
3E0
330
1F
100
AcDbEntity
  8
Capa 1
 62
     7
420
 16777215
370
     5
100
AcDb2dPolyline
 66
     1
 10
0.0
 20
0.0
 30
0.0
  0
VERTEX
  5
3E1
330
3E0
100
AcDbEntity
  8
Capa 1
 62
     7
420
 16777215
370
     5
100
AcDbVertex
100
AcDb2dVertex
 10
42.13971895647896
 20
-82.42373722982809
 30
0.0
  0
VERTEX
  5
3E2
330
3E0
100
AcDbEntity
  8
Capa 1
 62
     7
420
 16777215
370
     5
100
AcDbVertex
100
AcDb2dVertex
 10
42.56811658006978
 20
-82.17724064785847
 30
0.0
  0
SEQEND
  5
3E3
330
3E0
100
AcDbEntity
  8
Capa 1
370
     5
  0
SPLINE
  5
3E4
330
1F
100
AcDbEntity
  8
Capa 1
 62
     7
420
 16777215
370
     5
100
AcDbSpline
210
0.0
220
0.0
230
1.0
 70
     8
 71
     3
 72
     8
 73
     4
 74
     0
 42
0.0000000001
 43
0.0000000001
 40
0.0
 40
0.0
 40
0.0
 40
0.0
 40
1.0
 40
1.0
 40
1.0
 40
1.0
 10
43.18909504128606
 20
-82.42528752279647
 30
0.0
 10
42.86026067721897
 20
-82.20015053283538
 30
0.0
 10
42.41791041691288
 20
-82.24545353846642
 30
0.0
 10
42.13971895647896
 20
-82.53174097329068
 30
0.0
  0
POLYLINE
  5
3E5
330
1F
100
AcDbEntity
  8
Capa 1
 62
     7
420
 16777215
370
     5
100
AcDb2dPolyline
 66
     1
 10
0.0
 20
0.0
 30
0.0
  0
VERTEX
  5
3E6
330
3E5
100
AcDbEntity
  8
Capa 1
 62
     7
420
 16777215
370
     5
100
AcDbVertex
100
AcDb2dVertex
 10
46.21233858436705
 20
-82.42373722982809
 30
0.0
  0
VERTEX
  5
3E7
330
3E5
100
AcDbEntity
  8
Capa 1
 62
     7
420
 16777215
370
     5
100
AcDbVertex
100
AcDb2dVertex
 10
45.78514674419608
 20
-82.17724064785847
 30
0.0
  0
SEQEND
  5
3E8
330
3E5
100
AcDbEntity
  8
Capa 1
370
     5
  0
POLYLINE
  5
3E9
330
1F
100
AcDbEntity
  8
Capa 1
 62
     7
420
 16777215
370
     5
100
AcDb2dPolyline
 66
     1
 10
0.0
 20
0.0
 30
0.0
  0
VERTEX
  5
3EA
330
3E9
100
AcDbEntity
  8
Capa 1
 62
     7
420
 16777215
370
     5
100
AcDbVertex
100
AcDb2dVertex
 10
45.78514674419608
 20
-82.17000594733945
 30
0.0
  0
VERTEX
  5
3EB
330
3E9
100
AcDbEntity
  8
Capa 1
 62
     7
420
 16777215
370
     5
100
AcDbVertex
100
AcDb2dVertex
 10
42.56811658006978
 20
-82.17000594733945
 30
0.0
  0
SEQEND
  5
3EC
330
3E9
100
AcDbEntity
  8
Capa 1
370
     5
  0
SPLINE
  5
3ED
330
1F
100
AcDbEntity
  8
Capa 1
 62
     7
420
 16777215
370
     5
100
AcDbSpline
210
0.0
220
0.0
230
1.0
 70
     8
 71
     3
 72
     8
 73
     4
 74
     0
 42
0.0000000001
 43
0.0000000001
 40
0.0
 40
0.0
 40
0.0
 40
0.0
 40
1.0
 40
1.0
 40
1.0
 40
1.0
 10
46.21233858436705
 20
-82.53174097329068
 30
0.0
 10
45.93776447419265
 20
-82.24545353846642
 30
0.0
 10
45.49300264704689
 20
-82.20015053283538
 30
0.0
 10
45.16175671614012
 20
-82.42528752279647
 30
0.0
  0
SPLINE
  5
3EE
330
1F
100
AcDbEntity
  8
Capa 1
 62
     7
420
 16777215
370
     5
100
AcDbSpline
210
0.0
220
0.0
230
1.0
 70
     8
 71
     3
 72
     8
 73
     4
 74
     0
 42
0.0000000001
 43
0.0000000001
 40
0.0
 40
0.0
 40
0.0
 40
0.0
 40
1.0
 40
1.0
 40
1.0
 40
1.0
 10
43.18909504128606
 20
-87.73107907962974
 30
0.0
 10
43.83470593522188
 20
-87.91384139512223
 30
0.0
 10
44.51786836994692
 20
-87.91384139512223
 30
0.0
 10
45.16175671614012
 20
-87.73107907962974
 30
0.0
  0
SPLINE
  5
3EF
330
1F
100
AcDbEntity
  8
Capa 1
 62
     7
420
 16777215
370
     5
100
AcDbSpline
210
0.0
220
0.0
230
1.0
 70
     8
 71
     3
 72
     8
 73
     4
 74
     0
 42
0.0000000001
 43
0.0000000001
 40
0.0
 40
0.0
 40
0.0
 40
0.0
 40
1.0
 40
1.0
 40
1.0
 40
1.0
 10
42.13971895647896
 20
-87.73245711782383
 30
0.0
 10
42.28699678847339
 20
-87.90006101318124
 30
0.0
 10
42.5078274090779
 20
-87.98481036211838
 30
0.0
 10
42.73537596587866
 20
-87.9636230248841
 30
0.0
  0
SPLINE
  5
3F0
330
1F
100
AcDbEntity
  8
Capa 1
 62
     7
420
 16777215
370
     5
100
AcDbSpline
210
0.0
220
0.0
230
1.0
 70
     8
 71
     3
 72
     8
 73
     4
 74
     0
 42
0.0000000001
 43
0.0000000001
 40
0.0
 40
0.0
 40
0.0
 40
0.0
 40
1.0
 40
1.0
 40
1.0
 40
1.0
 10
42.13971895647896
 20
-87.6251423934583
 30
0.0
 10
42.41791041691288
 20
-87.91142982828256
 30
0.0
 10
42.86026067721897
 20
-87.9567328339136
 30
0.0
 10
43.18909504128606
 20
-87.73107907962974
 30
0.0
  0
SPLINE
  5
3F1
330
1F
100
AcDbEntity
  8
Capa 1
 62
     7
420
 16777215
370
     5
100
AcDbSpline
210
0.0
220
0.0
230
1.0
 70
     8
 71
     3
 72
     8
 73
     4
 74
     0
 42
0.0000000001
 43
0.0000000001
 40
0.0
 40
0.0
 40
0.0
 40
0.0
 40
1.0
 40
1.0
 40
1.0
 40
1.0
 10
45.16175671614012
 20
-87.73107907962974
 30
0.0
 10
45.49300264704689
 20
-87.9567328339136
 30
0.0
 10
45.93776447419265
 20
-87.91142982828256
 30
0.0
 10
46.21233858436705
 20
-87.6251423934583
 30
0.0
  0
POLYLINE
  5
3F2
330
1F
100
AcDbEntity
  8
Capa 1
 62
     7
420
 16777215
370
     5
100
AcDb2dPolyline
 66
     1
 10
0.0
 20
0.0
 30
0.0
  0
VERTEX
  5
3F3
330
3F2
100
AcDbEntity
  8
Capa 1
 62
     7
420
 16777215
370
     5
100
AcDbVertex
100
AcDb2dVertex
 10
45.75672470644277
 20
-87.9636230248841
 30
0.0
  0
VERTEX
  5
3F4
330
3F2
100
AcDbEntity
  8
Capa 1
 62
     7
420
 16777215
370
     5
100
AcDbVertex
100
AcDb2dVertex
 10
42.73537596587866
 20
-87.9636230248841
 30
0.0
  0
SEQEND
  5
3F5
330
3F2
100
AcDbEntity
  8
Capa 1
370
     5
  0
SPLINE
  5
3F6
330
1F
100
AcDbEntity
  8
Capa 1
 62
     7
420
 16777215
370
     5
100
AcDbSpline
210
0.0
220
0.0
230
1.0
 70
     8
 71
     3
 72
     8
 73
     4
 74
     0
 42
0.0000000001
 43
0.0000000001
 40
0.0
 40
0.0
 40
0.0
 40
0.0
 40
1.0
 40
1.0
 40
1.0
 40
1.0
 10
45.75672470644277
 20
-87.9636230248841
 30
0.0
 10
45.93225232141624
 20
-87.94553627358654
 30
0.0
 10
46.0964111212884
 20
-87.86319849148907
 30
0.0
 10
46.21233858436705
 20
-87.73245711782383
 30
0.0
  0
POLYLINE
  5
3F7
330
1F
100
AcDbEntity
  8
Capa 1
 62
     7
420
 16777215
370
     5
100
AcDb2dPolyline
 66
     1
 10
0.0
 20
0.0
 30
0.0
  0
VERTEX
  5
3F8
330
3F7
100
AcDbEntity
  8
Capa 1
 62
     7
420
 16777215
370
     5
100
AcDbVertex
100
AcDb2dVertex
 10
42.13971895647896
 20
-87.73245711782383
 30
0.0
  0
VERTEX
  5
3F9
330
3F7
100
AcDbEntity
  8
Capa 1
 62
     7
420
 16777215
370
     5
100
AcDbVertex
100
AcDb2dVertex
 10
42.13971895647896
 20
-82.42373722982809
 30
0.0
  0
SEQEND
  5
3FA
330
3F7
100
AcDbEntity
  8
Capa 1
370
     5
  0
POLYLINE
  5
3FB
330
1F
100
AcDbEntity
  8
Capa 1
 62
     7
420
 16777215
370
     5
100
AcDb2dPolyline
 66
     1
 10
0.0
 20
0.0
 30
0.0
  0
VERTEX
  5
3FC
330
3FB
100
AcDbEntity
  8
Capa 1
 62
     7
420
 16777215
370
     5
100
AcDbVertex
100
AcDb2dVertex
 10
43.18909504128606
 20
-87.73107907962974
 30
0.0
  0
VERTEX
  5
3FD
330
3FB
100
AcDbEntity
  8
Capa 1
 62
     7
420
 16777215
370
     5
100
AcDbVertex
100
AcDb2dVertex
 10
43.18909504128606
 20
-82.42528752279647
 30
0.0
  0
SEQEND
  5
3FE
330
3FB
100
AcDbEntity
  8
Capa 1
370
     5
  0
POLYLINE
  5
3FF
330
1F
100
AcDbEntity
  8
Capa 1
 62
     7
420
 16777215
370
     5
100
AcDb2dPolyline
 66
     1
 10
0.0
 20
0.0
 30
0.0
  0
VERTEX
  5
400
330
3FF
100
AcDbEntity
  8
Capa 1
 62
     7
420
 16777215
370
     5
100
AcDbVertex
100
AcDb2dVertex
 10
45.16175671614012
 20
-87.73107907962974
 30
0.0
  0
VERTEX
  5
401
330
3FF
100
AcDbEntity
  8
Capa 1
 62
     7
420
 16777215
370
     5
100
AcDbVertex
100
AcDb2dVertex
 10
45.16175671614012
 20
-82.42528752279647
 30
0.0
  0
SEQEND
  5
402
330
3FF
100
AcDbEntity
  8
Capa 1
370
     5
  0
POLYLINE
  5
403
330
1F
100
AcDbEntity
  8
Capa 1
 62
     7
420
 16777215
370
     5
100
AcDb2dPolyline
 66
     1
 10
0.0
 20
0.0
 30
0.0
  0
VERTEX
  5
404
330
403
100
AcDbEntity
  8
Capa 1
 62
     7
420
 16777215
370
     5
100
AcDbVertex
100
AcDb2dVertex
 10
46.21233858436705
 20
-87.73245711782383
 30
0.0
  0
VERTEX
  5
405
330
403
100
AcDbEntity
  8
Capa 1
 62
     7
420
 16777215
370
     5
100
AcDbVertex
100
AcDb2dVertex
 10
46.21233858436705
 20
-82.42373722982809
 30
0.0
  0
SEQEND
  5
406
330
403
100
AcDbEntity
  8
Capa 1
370
     5
  0
POLYLINE
  5
407
330
1F
100
AcDbEntity
  8
Capa 1
 62
     7
420
 16777215
370
     5
100
AcDb2dPolyline
 66
     1
 10
0.0
 20
0.0
 30
0.0
  0
VERTEX
  5
408
330
407
100
AcDbEntity
  8
Capa 1
 62
     7
420
 16777215
370
     5
100
AcDbVertex
100
AcDb2dVertex
 10
87.60326603712697
 20
-109.5939995385737
 30
0.0
  0
VERTEX
  5
409
330
407
100
AcDbEntity
  8
Capa 1
 62
     7
420
 16777215
370
     5
100
AcDbVertex
100
AcDb2dVertex
 10
87.60326603712697
 20
-119.2478461073408
 30
0.0
  0
SEQEND
  5
40A
330
407
100
AcDbEntity
  8
Capa 1
370
     5
  0
POLYLINE
  5
40B
330
1F
100
AcDbEntity
  8
Capa 1
 62
     7
420
 16777215
370
     5
100
AcDb2dPolyline
 66
     1
 10
0.0
 20
0.0
 30
0.0
  0
VERTEX
  5
40C
330
40B
100
AcDbEntity
  8
Capa 1
 62
     7
420
 16777215
370
     5
100
AcDbVertex
100
AcDb2dVertex
 10
87.06738143439635
 20
-109.5939995385737
 30
0.0
  0
VERTEX
  5
40D
330
40B
100
AcDbEntity
  8
Capa 1
 62
     7
420
 16777215
370
     5
100
AcDbVertex
100
AcDb2dVertex
 10
87.60326603712697
 20
-109.5939995385737
 30
0.0
  0
SEQEND
  5
40E
330
40B
100
AcDbEntity
  8
Capa 1
370
     5
  0
POLYLINE
  5
40F
330
1F
100
AcDbEntity
  8
Capa 1
 62
     7
420
 16777215
370
     5
100
AcDb2dPolyline
 66
     1
 10
0.0
 20
0.0
 30
0.0
  0
VERTEX
  5
410
330
40F
100
AcDbEntity
  8
Capa 1
 62
     7
420
 16777215
370
     5
100
AcDbVertex
100
AcDb2dVertex
 10
87.06738143439635
 20
-119.2478461073408
 30
0.0
  0
VERTEX
  5
411
330
40F
100
AcDbEntity
  8
Capa 1
 62
     7
420
 16777215
370
     5
100
AcDbVertex
100
AcDb2dVertex
 10
87.60326603712697
 20
-119.2478461073408
 30
0.0
  0
SEQEND
  5
412
330
40F
100
AcDbEntity
  8
Capa 1
370
     5
  0
POLYLINE
  5
413
330
1F
100
AcDbEntity
  8
Capa 1
 62
     7
420
 16777215
370
     5
100
AcDb2dPolyline
 66
     1
 10
0.0
 20
0.0
 30
0.0
  0
VERTEX
  5
414
330
413
100
AcDbEntity
  8
Capa 1
 62
     7
420
 16777215
370
     5
100
AcDbVertex
100
AcDb2dVertex
 10
87.06738143439635
 20
-118.8892116673263
 30
0.0
  0
VERTEX
  5
415
330
413
100
AcDbEntity
  8
Capa 1
 62
     7
420
 16777215
370
     5
100
AcDbVertex
100
AcDb2dVertex
 10
87.06738143439635
 20
-119.2478461073408
 30
0.0
  0
SEQEND
  5
416
330
413
100
AcDbEntity
  8
Capa 1
370
     5
  0
POLYLINE
  5
417
330
1F
100
AcDbEntity
  8
Capa 1
 62
     7
420
 16777215
370
     5
100
AcDb2dPolyline
 66
     1
 10
0.0
 20
0.0
 30
0.0
  0
VERTEX
  5
418
330
417
100
AcDbEntity
  8
Capa 1
 62
     7
420
 16777215
370
     5
100
AcDbVertex
100
AcDb2dVertex
 10
82.59771455183322
 20
-109.9516004499427
 30
0.0
  0
VERTEX
  5
419
330
417
100
AcDbEntity
  8
Capa 1
 62
     7
420
 16777215
370
     5
100
AcDbVertex
100
AcDb2dVertex
 10
82.59771455183322
 20
-118.8892116673263
 30
0.0
  0
SEQEND
  5
41A
330
417
100
AcDbEntity
  8
Capa 1
370
     5
  0
POLYLINE
  5
41B
330
1F
100
AcDbEntity
  8
Capa 1
 62
     7
420
 16777215
370
     5
100
AcDb2dPolyline
 66
     1
 10
0.0
 20
0.0
 30
0.0
  0
VERTEX
  5
41C
330
41B
100
AcDbEntity
  8
Capa 1
 62
     7
420
 16777215
370
     5
100
AcDbVertex
100
AcDb2dVertex
 10
82.59771455183322
 20
-109.9516004499427
 30
0.0
  0
VERTEX
  5
41D
330
41B
100
AcDbEntity
  8
Capa 1
 62
     7
420
 16777215
370
     5
100
AcDbVertex
100
AcDb2dVertex
 10
87.06738143439635
 20
-109.9516004499427
 30
0.0
  0
SEQEND
  5
41E
330
41B
100
AcDbEntity
  8
Capa 1
370
     5
  0
POLYLINE
  5
41F
330
1F
100
AcDbEntity
  8
Capa 1
 62
     7
420
 16777215
370
     5
100
AcDb2dPolyline
 66
     1
 10
0.0
 20
0.0
 30
0.0
  0
VERTEX
  5
420
330
41F
100
AcDbEntity
  8
Capa 1
 62
     7
420
 16777215
370
     5
100
AcDbVertex
100
AcDb2dVertex
 10
82.59771455183322
 20
-118.8892116673263
 30
0.0
  0
VERTEX
  5
421
330
41F
100
AcDbEntity
  8
Capa 1
 62
     7
420
 16777215
370
     5
100
AcDbVertex
100
AcDb2dVertex
 10
87.06738143439635
 20
-118.8892116673263
 30
0.0
  0
SEQEND
  5
422
330
41F
100
AcDbEntity
  8
Capa 1
370
     5
  0
POLYLINE
  5
423
330
1F
100
AcDbEntity
  8
Capa 1
 62
     7
420
 16777215
370
     5
100
AcDb2dPolyline
 66
     1
 10
0.0
 20
0.0
 30
0.0
  0
VERTEX
  5
424
330
423
100
AcDbEntity
  8
Capa 1
 62
     7
420
 16777215
370
     5
100
AcDbVertex
100
AcDb2dVertex
 10
83.31153833637698
 20
-111.8050618210071
 30
0.0
  0
VERTEX
  5
425
330
423
100
AcDbEntity
  8
Capa 1
 62
     7
420
 16777215
370
     5
100
AcDbVertex
100
AcDb2dVertex
 10
87.06738143439635
 20
-111.8050618210071
 30
0.0
  0
SEQEND
  5
426
330
423
100
AcDbEntity
  8
Capa 1
370
     5
  0
POLYLINE
  5
427
330
1F
100
AcDbEntity
  8
Capa 1
 62
     7
420
 16777215
370
     5
100
AcDb2dPolyline
 66
     1
 10
0.0
 20
0.0
 30
0.0
  0
VERTEX
  5
428
330
427
100
AcDbEntity
  8
Capa 1
 62
     7
420
 16777215
370
     5
100
AcDbVertex
100
AcDb2dVertex
 10
83.31153833637698
 20
-112.8778645551139
 30
0.0
  0
VERTEX
  5
429
330
427
100
AcDbEntity
  8
Capa 1
 62
     7
420
 16777215
370
     5
100
AcDbVertex
100
AcDb2dVertex
 10
87.06738143439635
 20
-112.8778645551139
 30
0.0
  0
SEQEND
  5
42A
330
427
100
AcDbEntity
  8
Capa 1
370
     5
  0
POLYLINE
  5
42B
330
1F
100
AcDbEntity
  8
Capa 1
 62
     7
420
 16777215
370
     5
100
AcDb2dPolyline
 66
     1
 10
0.0
 20
0.0
 30
0.0
  0
VERTEX
  5
42C
330
42B
100
AcDbEntity
  8
Capa 1
 62
     7
420
 16777215
370
     5
100
AcDbVertex
100
AcDb2dVertex
 10
83.31153833637698
 20
-116.0962727574343
 30
0.0
  0
VERTEX
  5
42D
330
42B
100
AcDbEntity
  8
Capa 1
 62
     7
420
 16777215
370
     5
100
AcDbVertex
100
AcDb2dVertex
 10
87.06738143439635
 20
-116.0962727574343
 30
0.0
  0
SEQEND
  5
42E
330
42B
100
AcDbEntity
  8
Capa 1
370
     5
  0
POLYLINE
  5
42F
330
1F
100
AcDbEntity
  8
Capa 1
 62
     7
420
 16777215
370
     5
100
AcDb2dPolyline
 66
     1
 10
0.0
 20
0.0
 30
0.0
  0
VERTEX
  5
430
330
42F
100
AcDbEntity
  8
Capa 1
 62
     7
420
 16777215
370
     5
100
AcDbVertex
100
AcDb2dVertex
 10
83.31153833637698
 20
-117.167697453347
 30
0.0
  0
VERTEX
  5
431
330
42F
100
AcDbEntity
  8
Capa 1
 62
     7
420
 16777215
370
     5
100
AcDbVertex
100
AcDb2dVertex
 10
87.06738143439635
 20
-117.167697453347
 30
0.0
  0
SEQEND
  5
432
330
42F
100
AcDbEntity
  8
Capa 1
370
     5
  0
POLYLINE
  5
433
330
1F
100
AcDbEntity
  8
Capa 1
 62
     7
420
 16777215
370
     5
100
AcDb2dPolyline
 66
     1
 10
0.0
 20
0.0
 30
0.0
  0
VERTEX
  5
434
330
433
100
AcDbEntity
  8
Capa 1
 62
     7
420
 16777215
370
     5
100
AcDbVertex
100
AcDb2dVertex
 10
83.31153833637698
 20
-117.167697453347
 30
0.0
  0
VERTEX
  5
435
330
433
100
AcDbEntity
  8
Capa 1
 62
     7
420
 16777215
370
     5
100
AcDbVertex
100
AcDb2dVertex
 10
83.31153833637698
 20
-116.0962727574343
 30
0.0
  0
SEQEND
  5
436
330
433
100
AcDbEntity
  8
Capa 1
370
     5
  0
POLYLINE
  5
437
330
1F
100
AcDbEntity
  8
Capa 1
 62
     7
420
 16777215
370
     5
100
AcDb2dPolyline
 66
     1
 10
0.0
 20
0.0
 30
0.0
  0
VERTEX
  5
438
330
437
100
AcDbEntity
  8
Capa 1
 62
     7
420
 16777215
370
     5
100
AcDbVertex
100
AcDb2dVertex
 10
83.31153833637698
 20
-112.8778645551139
 30
0.0
  0
VERTEX
  5
439
330
437
100
AcDbEntity
  8
Capa 1
 62
     7
420
 16777215
370
     5
100
AcDbVertex
100
AcDb2dVertex
 10
83.31153833637698
 20
-111.8050618210071
 30
0.0
  0
SEQEND
  5
43A
330
437
100
AcDbEntity
  8
Capa 1
370
     5
  0
POLYLINE
  5
43B
330
1F
100
AcDbEntity
  8
Capa 1
 62
     7
420
 16777215
370
     5
100
AcDb2dPolyline
 66
     1
 10
0.0
 20
0.0
 30
0.0
  0
VERTEX
  5
43C
330
43B
100
AcDbEntity
  8
Capa 1
 62
     7
420
 16777215
370
     5
100
AcDbVertex
100
AcDb2dVertex
 10
87.60326603712697
 20
-109.5939995385737
 30
0.0
  0
VERTEX
  5
43D
330
43B
100
AcDbEntity
  8
Capa 1
 62
     7
420
 16777215
370
     5
100
AcDbVertex
100
AcDb2dVertex
 10
87.60326603712697
 20
-119.2478461073408
 30
0.0
  0
SEQEND
  5
43E
330
43B
100
AcDbEntity
  8
Capa 1
370
     5
  0
POLYLINE
  5
43F
330
1F
100
AcDbEntity
  8
Capa 1
 62
     7
420
 16777215
370
     5
100
AcDb2dPolyline
 66
     1
 10
0.0
 20
0.0
 30
0.0
  0
VERTEX
  5
440
330
43F
100
AcDbEntity
  8
Capa 1
 62
     7
420
 16777215
370
     5
100
AcDbVertex
100
AcDb2dVertex
 10
87.06738143439635
 20
-109.5939995385737
 30
0.0
  0
VERTEX
  5
441
330
43F
100
AcDbEntity
  8
Capa 1
 62
     7
420
 16777215
370
     5
100
AcDbVertex
100
AcDb2dVertex
 10
87.60326603712697
 20
-109.5939995385737
 30
0.0
  0
SEQEND
  5
442
330
43F
100
AcDbEntity
  8
Capa 1
370
     5
  0
POLYLINE
  5
443
330
1F
100
AcDbEntity
  8
Capa 1
 62
     7
420
 16777215
370
     5
100
AcDb2dPolyline
 66
     1
 10
0.0
 20
0.0
 30
0.0
  0
VERTEX
  5
444
330
443
100
AcDbEntity
  8
Capa 1
 62
     7
420
 16777215
370
     5
100
AcDbVertex
100
AcDb2dVertex
 10
87.06738143439635
 20
-119.2478461073408
 30
0.0
  0
VERTEX
  5
445
330
443
100
AcDbEntity
  8
Capa 1
 62
     7
420
 16777215
370
     5
100
AcDbVertex
100
AcDb2dVertex
 10
87.60326603712697
 20
-119.2478461073408
 30
0.0
  0
SEQEND
  5
446
330
443
100
AcDbEntity
  8
Capa 1
370
     5
  0
POLYLINE
  5
447
330
1F
100
AcDbEntity
  8
Capa 1
 62
     7
420
 16777215
370
     5
100
AcDb2dPolyline
 66
     1
 10
0.0
 20
0.0
 30
0.0
  0
VERTEX
  5
448
330
447
100
AcDbEntity
  8
Capa 1
 62
     7
420
 16777215
370
     5
100
AcDbVertex
100
AcDb2dVertex
 10
87.06738143439635
 20
-109.5939995385737
 30
0.0
  0
VERTEX
  5
449
330
447
100
AcDbEntity
  8
Capa 1
 62
     7
420
 16777215
370
     5
100
AcDbVertex
100
AcDb2dVertex
 10
87.06738143439635
 20
-109.9516004499427
 30
0.0
  0
SEQEND
  5
44A
330
447
100
AcDbEntity
  8
Capa 1
370
     5
  0
POLYLINE
  5
44B
330
1F
100
AcDbEntity
  8
Capa 1
 62
     7
420
 16777215
370
     5
100
AcDb2dPolyline
 66
     1
 10
0.0
 20
0.0
 30
0.0
  0
VERTEX
  5
44C
330
44B
100
AcDbEntity
  8
Capa 1
 62
     7
420
 16777215
370
     5
100
AcDbVertex
100
AcDb2dVertex
 10
82.59771455183322
 20
-109.9516004499427
 30
0.0
  0
VERTEX
  5
44D
330
44B
100
AcDbEntity
  8
Capa 1
 62
     7
420
 16777215
370
     5
100
AcDbVertex
100
AcDb2dVertex
 10
82.59771455183322
 20
-118.8892116673263
 30
0.0
  0
SEQEND
  5
44E
330
44B
100
AcDbEntity
  8
Capa 1
370
     5
  0
POLYLINE
  5
44F
330
1F
100
AcDbEntity
  8
Capa 1
 62
     7
420
 16777215
370
     5
100
AcDb2dPolyline
 66
     1
 10
0.0
 20
0.0
 30
0.0
  0
VERTEX
  5
450
330
44F
100
AcDbEntity
  8
Capa 1
 62
     7
420
 16777215
370
     5
100
AcDbVertex
100
AcDb2dVertex
 10
82.59771455183322
 20
-109.9516004499427
 30
0.0
  0
VERTEX
  5
451
330
44F
100
AcDbEntity
  8
Capa 1
 62
     7
420
 16777215
370
     5
100
AcDbVertex
100
AcDb2dVertex
 10
87.06738143439635
 20
-109.9516004499427
 30
0.0
  0
SEQEND
  5
452
330
44F
100
AcDbEntity
  8
Capa 1
370
     5
  0
POLYLINE
  5
453
330
1F
100
AcDbEntity
  8
Capa 1
 62
     7
420
 16777215
370
     5
100
AcDb2dPolyline
 66
     1
 10
0.0
 20
0.0
 30
0.0
  0
VERTEX
  5
454
330
453
100
AcDbEntity
  8
Capa 1
 62
     7
420
 16777215
370
     5
100
AcDbVertex
100
AcDb2dVertex
 10
82.59771455183322
 20
-118.8892116673263
 30
0.0
  0
VERTEX
  5
455
330
453
100
AcDbEntity
  8
Capa 1
 62
     7
420
 16777215
370
     5
100
AcDbVertex
100
AcDb2dVertex
 10
87.06738143439635
 20
-118.8892116673263
 30
0.0
  0
SEQEND
  5
456
330
453
100
AcDbEntity
  8
Capa 1
370
     5
  0
POLYLINE
  5
457
330
1F
100
AcDbEntity
  8
Capa 1
 62
     7
420
 16777215
370
     5
100
AcDb2dPolyline
 66
     1
 10
0.0
 20
0.0
 30
0.0
  0
VERTEX
  5
458
330
457
100
AcDbEntity
  8
Capa 1
 62
     7
420
 16777215
370
     5
100
AcDbVertex
100
AcDb2dVertex
 10
83.31153833637698
 20
-111.8050618210071
 30
0.0
  0
VERTEX
  5
459
330
457
100
AcDbEntity
  8
Capa 1
 62
     7
420
 16777215
370
     5
100
AcDbVertex
100
AcDb2dVertex
 10
87.06738143439635
 20
-111.8050618210071
 30
0.0
  0
SEQEND
  5
45A
330
457
100
AcDbEntity
  8
Capa 1
370
     5
  0
POLYLINE
  5
45B
330
1F
100
AcDbEntity
  8
Capa 1
 62
     7
420
 16777215
370
     5
100
AcDb2dPolyline
 66
     1
 10
0.0
 20
0.0
 30
0.0
  0
VERTEX
  5
45C
330
45B
100
AcDbEntity
  8
Capa 1
 62
     7
420
 16777215
370
     5
100
AcDbVertex
100
AcDb2dVertex
 10
83.31153833637698
 20
-112.8778645551139
 30
0.0
  0
VERTEX
  5
45D
330
45B
100
AcDbEntity
  8
Capa 1
 62
     7
420
 16777215
370
     5
100
AcDbVertex
100
AcDb2dVertex
 10
87.06738143439635
 20
-112.8778645551139
 30
0.0
  0
SEQEND
  5
45E
330
45B
100
AcDbEntity
  8
Capa 1
370
     5
  0
POLYLINE
  5
45F
330
1F
100
AcDbEntity
  8
Capa 1
 62
     7
420
 16777215
370
     5
100
AcDb2dPolyline
 66
     1
 10
0.0
 20
0.0
 30
0.0
  0
VERTEX
  5
460
330
45F
100
AcDbEntity
  8
Capa 1
 62
     7
420
 16777215
370
     5
100
AcDbVertex
100
AcDb2dVertex
 10
83.31153833637698
 20
-116.0962727574343
 30
0.0
  0
VERTEX
  5
461
330
45F
100
AcDbEntity
  8
Capa 1
 62
     7
420
 16777215
370
     5
100
AcDbVertex
100
AcDb2dVertex
 10
87.06738143439635
 20
-116.0962727574343
 30
0.0
  0
SEQEND
  5
462
330
45F
100
AcDbEntity
  8
Capa 1
370
     5
  0
POLYLINE
  5
463
330
1F
100
AcDbEntity
  8
Capa 1
 62
     7
420
 16777215
370
     5
100
AcDb2dPolyline
 66
     1
 10
0.0
 20
0.0
 30
0.0
  0
VERTEX
  5
464
330
463
100
AcDbEntity
  8
Capa 1
 62
     7
420
 16777215
370
     5
100
AcDbVertex
100
AcDb2dVertex
 10
83.31153833637698
 20
-117.167697453347
 30
0.0
  0
VERTEX
  5
465
330
463
100
AcDbEntity
  8
Capa 1
 62
     7
420
 16777215
370
     5
100
AcDbVertex
100
AcDb2dVertex
 10
87.06738143439635
 20
-117.167697453347
 30
0.0
  0
SEQEND
  5
466
330
463
100
AcDbEntity
  8
Capa 1
370
     5
  0
POLYLINE
  5
467
330
1F
100
AcDbEntity
  8
Capa 1
 62
     7
420
 16777215
370
     5
100
AcDb2dPolyline
 66
     1
 10
0.0
 20
0.0
 30
0.0
  0
VERTEX
  5
468
330
467
100
AcDbEntity
  8
Capa 1
 62
     7
420
 16777215
370
     5
100
AcDbVertex
100
AcDb2dVertex
 10
83.31153833637698
 20
-117.167697453347
 30
0.0
  0
VERTEX
  5
469
330
467
100
AcDbEntity
  8
Capa 1
 62
     7
420
 16777215
370
     5
100
AcDbVertex
100
AcDb2dVertex
 10
83.31153833637698
 20
-116.0962727574343
 30
0.0
  0
SEQEND
  5
46A
330
467
100
AcDbEntity
  8
Capa 1
370
     5
  0
POLYLINE
  5
46B
330
1F
100
AcDbEntity
  8
Capa 1
 62
     7
420
 16777215
370
     5
100
AcDb2dPolyline
 66
     1
 10
0.0
 20
0.0
 30
0.0
  0
VERTEX
  5
46C
330
46B
100
AcDbEntity
  8
Capa 1
 62
     7
420
 16777215
370
     5
100
AcDbVertex
100
AcDb2dVertex
 10
83.31153833637698
 20
-112.8778645551139
 30
0.0
  0
VERTEX
  5
46D
330
46B
100
AcDbEntity
  8
Capa 1
 62
     7
420
 16777215
370
     5
100
AcDbVertex
100
AcDb2dVertex
 10
83.31153833637698
 20
-111.8050618210071
 30
0.0
  0
SEQEND
  5
46E
330
46B
100
AcDbEntity
  8
Capa 1
370
     5
  0
POLYLINE
  5
46F
330
1F
100
AcDbEntity
  8
Capa 1
 62
     7
420
 16777215
370
     5
100
AcDb2dPolyline
 66
     1
 10
0.0
 20
0.0
 30
0.0
  0
VERTEX
  5
470
330
46F
100
AcDbEntity
  8
Capa 1
 62
     7
420
 16777215
370
     5
100
AcDbVertex
100
AcDb2dVertex
 10
87.06738143439635
 20
-111.8050618210071
 30
0.0
  0
VERTEX
  5
471
330
46F
100
AcDbEntity
  8
Capa 1
 62
     7
420
 16777215
370
     5
100
AcDbVertex
100
AcDb2dVertex
 10
87.06738143439635
 20
-112.8778645551139
 30
0.0
  0
SEQEND
  5
472
330
46F
100
AcDbEntity
  8
Capa 1
370
     5
  0
POLYLINE
  5
473
330
1F
100
AcDbEntity
  8
Capa 1
 62
     7
420
 16777215
370
     5
100
AcDb2dPolyline
 66
     1
 10
0.0
 20
0.0
 30
0.0
  0
VERTEX
  5
474
330
473
100
AcDbEntity
  8
Capa 1
 62
     7
420
 16777215
370
     5
100
AcDbVertex
100
AcDb2dVertex
 10
87.06738143439635
 20
-116.0962727574343
 30
0.0
  0
VERTEX
  5
475
330
473
100
AcDbEntity
  8
Capa 1
 62
     7
420
 16777215
370
     5
100
AcDbVertex
100
AcDb2dVertex
 10
87.06738143439635
 20
-117.167697453347
 30
0.0
  0
SEQEND
  5
476
330
473
100
AcDbEntity
  8
Capa 1
370
     5
  0
SPLINE
  5
477
330
1F
100
AcDbEntity
  8
Capa 1
 62
     7
420
 16777215
370
     5
100
AcDbSpline
210
0.0
220
0.0
230
1.0
 70
     8
 71
     3
 72
     8
 73
     4
 74
     0
 42
0.0000000001
 43
0.0000000001
 40
0.0
 40
0.0
 40
0.0
 40
0.0
 40
1.0
 40
1.0
 40
1.0
 40
1.0
 10
44.24277749544972
 20
-89.37266707835128
 30
0.0
 10
44.81535236509825
 20
-89.3611260084757
 30
0.0
 10
45.34813638189213
 20
-89.06467554196995
 30
0.0
 10
45.66077879717856
 20
-88.58150090016366
 30
0.0
  0
POLYLINE
  5
478
330
1F
100
AcDbEntity
  8
Capa 1
 62
     7
420
 16777215
370
     5
100
AcDb2dPolyline
 66
     1
 10
0.0
 20
0.0
 30
0.0
  0
VERTEX
  5
479
330
478
100
AcDbEntity
  8
Capa 1
 62
     7
420
 16777215
370
     5
100
AcDbVertex
100
AcDb2dVertex
 10
44.03331568994653
 20
-87.9636230248841
 30
0.0
  0
VERTEX
  5
47A
330
478
100
AcDbEntity
  8
Capa 1
 62
     7
420
 16777215
370
     5
100
AcDbVertex
100
AcDb2dVertex
 10
44.45809596327784
 20
-87.9636230248841
 30
0.0
  0
SEQEND
  5
47B
330
478
100
AcDbEntity
  8
Capa 1
370
     5
  0
SPLINE
  5
47C
330
1F
100
AcDbEntity
  8
Capa 1
 62
     7
420
 16777215
370
     5
100
AcDbSpline
210
0.0
220
0.0
230
1.0
 70
     8
 71
     3
 72
     8
 73
     4
 74
     0
 42
0.0000000001
 43
0.0000000001
 40
0.0
 40
0.0
 40
0.0
 40
0.0
 40
1.0
 40
1.0
 40
1.0
 40
1.0
 10
42.83132187514287
 20
-88.58150090016366
 30
0.0
 10
43.14017468539551
 20
-89.06226397513028
 30
0.0
 10
43.67054713534973
 20
-89.35974797028159
 30
0.0
 10
44.24277749544972
 20
-89.37266707835128
 30
0.0
  0
POLYLINE
  5
47D
330
1F
100
AcDbEntity
  8
Capa 1
 62
     7
420
 16777215
370
     5
100
AcDb2dPolyline
 66
     1
 10
0.0
 20
0.0
 30
0.0
  0
VERTEX
  5
47E
330
47D
100
AcDbEntity
  8
Capa 1
 62
     7
420
 16777215
370
     5
100
AcDbVertex
100
AcDb2dVertex
 10
42.83132187514287
 20
-87.9636230248841
 30
0.0
  0
VERTEX
  5
47F
330
47D
100
AcDbEntity
  8
Capa 1
 62
     7
420
 16777215
370
     5
100
AcDbVertex
100
AcDb2dVertex
 10
45.66077879717856
 20
-87.9636230248841
 30
0.0
  0
SEQEND
  5
480
330
47D
100
AcDbEntity
  8
Capa 1
370
     5
  0
POLYLINE
  5
481
330
1F
100
AcDbEntity
  8
Capa 1
 62
     7
420
 16777215
370
     5
100
AcDb2dPolyline
 66
     1
 10
0.0
 20
0.0
 30
0.0
  0
VERTEX
  5
482
330
481
100
AcDbEntity
  8
Capa 1
 62
     7
420
 16777215
370
     5
100
AcDbVertex
100
AcDb2dVertex
 10
45.66077879717856
 20
-88.58150090016366
 30
0.0
  0
VERTEX
  5
483
330
481
100
AcDbEntity
  8
Capa 1
 62
     7
420
 16777215
370
     5
100
AcDbVertex
100
AcDb2dVertex
 10
45.66077879717856
 20
-87.9636230248841
 30
0.0
  0
SEQEND
  5
484
330
481
100
AcDbEntity
  8
Capa 1
370
     5
  0
POLYLINE
  5
485
330
1F
100
AcDbEntity
  8
Capa 1
 62
     7
420
 16777215
370
     5
100
AcDb2dPolyline
 66
     1
 10
0.0
 20
0.0
 30
0.0
  0
VERTEX
  5
486
330
485
100
AcDbEntity
  8
Capa 1
 62
     7
420
 16777215
370
     5
100
AcDbVertex
100
AcDb2dVertex
 10
42.83132187514287
 20
-88.58150090016366
 30
0.0
  0
VERTEX
  5
487
330
485
100
AcDbEntity
  8
Capa 1
 62
     7
420
 16777215
370
     5
100
AcDbVertex
100
AcDb2dVertex
 10
42.83132187514287
 20
-87.9636230248841
 30
0.0
  0
SEQEND
  5
488
330
485
100
AcDbEntity
  8
Capa 1
370
     5
  0
POLYLINE
  5
489
330
1F
100
AcDbEntity
  8
Capa 1
 62
     7
420
 16777215
370
     5
100
AcDb2dPolyline
 66
     1
 10
0.0
 20
0.0
 30
0.0
  0
VERTEX
  5
48A
330
489
100
AcDbEntity
  8
Capa 1
 62
     7
420
 16777215
370
     5
100
AcDbVertex
100
AcDb2dVertex
 10
42.83132187514287
 20
-88.58150090016366
 30
0.0
  0
VERTEX
  5
48B
330
489
100
AcDbEntity
  8
Capa 1
 62
     7
420
 16777215
370
     5
100
AcDbVertex
100
AcDb2dVertex
 10
45.66077879717856
 20
-88.58150090016366
 30
0.0
  0
SEQEND
  5
48C
330
489
100
AcDbEntity
  8
Capa 1
370
     5
  0
POLYLINE
  5
48D
330
1F
100
AcDbEntity
  8
Capa 1
 62
     7
420
 16777215
370
     5
100
AcDb2dPolyline
 66
     1
 10
0.0
 20
0.0
 30
0.0
  0
VERTEX
  5
48E
330
48D
100
AcDbEntity
  8
Capa 1
 62
     7
420
 16777215
370
     5
100
AcDbVertex
100
AcDb2dVertex
 10
47.5669501291673
 20
-70.68698593067896
 30
0.0
  0
VERTEX
  5
48F
330
48D
100
AcDbEntity
  8
Capa 1
 62
     7
420
 16777215
370
     5
100
AcDbVertex
100
AcDb2dVertex
 10
47.5669501291673
 20
-73.1896755459387
 30
0.0
  0
SEQEND
  5
490
330
48D
100
AcDbEntity
  8
Capa 1
370
     5
  0
SPLINE
  5
491
330
1F
100
AcDbEntity
  8
Capa 1
 62
     7
420
 16777215
370
     5
100
AcDbSpline
210
0.0
220
0.0
230
1.0
 70
     8
 71
     3
 72
     8
 73
     4
 74
     0
 42
0.0000000001
 43
0.0000000001
 40
0.0
 40
0.0
 40
0.0
 40
0.0
 40
1.0
 40
1.0
 40
1.0
 40
1.0
 10
47.5669501291673
 20
-73.1896755459387
 30
0.0
 10
47.33233912662178
 20
-73.61325003585016
 30
0.0
 10
47.21038274644393
 20
-74.08970674146022
 30
0.0
 10
47.21038274644393
 20
-74.57425942146061
 30
0.0
  0
POLYLINE
  5
492
330
1F
100
AcDbEntity
  8
Capa 1
 62
     7
420
 16777215
370
     5
100
AcDb2dPolyline
 66
     1
 10
0.0
 20
0.0
 30
0.0
  0
VERTEX
  5
493
330
492
100
AcDbEntity
  8
Capa 1
 62
     7
420
 16777215
370
     5
100
AcDbVertex
100
AcDb2dVertex
 10
47.83670110566236
 20
-70.68698593067896
 30
0.0
  0
VERTEX
  5
494
330
492
100
AcDbEntity
  8
Capa 1
 62
     7
420
 16777215
370
     5
100
AcDbVertex
100
AcDb2dVertex
 10
47.83670110566236
 20
-73.1896755459387
 30
0.0
  0
SEQEND
  5
495
330
492
100
AcDbEntity
  8
Capa 1
370
     5
  0
POLYLINE
  5
496
330
1F
100
AcDbEntity
  8
Capa 1
 62
     7
420
 16777215
370
     5
100
AcDb2dPolyline
 66
     1
 10
0.0
 20
0.0
 30
0.0
  0
VERTEX
  5
497
330
496
100
AcDbEntity
  8
Capa 1
 62
     7
420
 16777215
370
     5
100
AcDbVertex
100
AcDb2dVertex
 10
48.46009113371831
 20
-70.68698593067896
 30
0.0
  0
VERTEX
  5
498
330
496
100
AcDbEntity
  8
Capa 1
 62
     7
420
 16777215
370
     5
100
AcDbVertex
100
AcDb2dVertex
 10
48.46009113371831
 20
-73.1896755459387
 30
0.0
  0
SEQEND
  5
499
330
496
100
AcDbEntity
  8
Capa 1
370
     5
  0
SPLINE
  5
49A
330
1F
100
AcDbEntity
  8
Capa 1
 62
     7
420
 16777215
370
     5
100
AcDbSpline
210
0.0
220
0.0
230
1.0
 70
     8
 71
     3
 72
    11
 73
     7
 74
     0
 42
0.0000000001
 43
0.0000000001
 40
0.0
 40
0.0
 40
0.0
 40
0.0
 40
1.0
 40
1.0
 40
1.0
 40
2.0
 40
2.0
 40
2.0
 40
2.0
 10
48.46009113371831
 20
-73.1896755459387
 30
0.0
 10
48.46009113371831
 20
-73.43617212790832
 30
0.0
 10
48.32125378566275
 20
-73.63598766605281
 30
0.0
 10
48.14882675662599
 20
-73.63598766605281
 30
0.0
 10
47.97553845371792
 20
-73.63598766605281
 30
0.0
 10
47.83670110566236
 20
-73.43617212790832
 30
0.0
 10
47.83670110566236
 20
-73.1896755459387
 30
0.0
  0
POLYLINE
  5
49B
330
1F
100
AcDbEntity
  8
Capa 1
 62
     7
420
 16777215
370
     5
100
AcDb2dPolyline
 66
     1
 10
0.0
 20
0.0
 30
0.0
  0
VERTEX
  5
49C
330
49B
100
AcDbEntity
  8
Capa 1
 62
     7
420
 16777215
370
     5
100
AcDbVertex
100
AcDb2dVertex
 10
51.14175345943679
 20
-70.68698593067896
 30
0.0
  0
VERTEX
  5
49D
330
49B
100
AcDbEntity
  8
Capa 1
 62
     7
420
 16777215
370
     5
100
AcDbVertex
100
AcDb2dVertex
 10
51.43630912342564
 20
-70.09442950721598
 30
0.0
  0
SEQEND
  5
49E
330
49B
100
AcDbEntity
  8
Capa 1
370
     5
  0
SPLINE
  5
49F
330
1F
100
AcDbEntity
  8
Capa 1
 62
     7
420
 16777215
370
     5
100
AcDbSpline
210
0.0
220
0.0
230
1.0
 70
     8
 71
     3
 72
     8
 73
     4
 74
     0
 42
0.0000000001
 43
0.0000000001
 40
0.0
 40
0.0
 40
0.0
 40
0.0
 40
1.0
 40
1.0
 40
1.0
 40
1.0
 10
51.43630912342564
 20
-70.09442950721598
 30
0.0
 10
51.51347926229524
 20
-69.94439559883335
 30
0.0
 10
51.52140298191132
 20
-69.77007376727971
 30
0.0
 10
51.45680744156289
 20
-69.61435545134641
 30
0.0
  0
SPLINE
  5
4A0
330
1F
100
AcDbEntity
  8
Capa 1
 62
     7
420
 16777215
370
     5
100
AcDbSpline
210
0.0
220
0.0
230
1.0
 70
     8
 71
     3
 72
    11
 73
     7
 74
     0
 42
0.0000000001
 43
0.0000000001
 40
0.0
 40
0.0
 40
0.0
 40
0.0
 40
1.0
 40
1.0
 40
1.0
 40
2.0
 40
2.0
 40
2.0
 40
2.0
 10
49.80092229657755
 20
-70.68698593067896
 30
0.0
 10
49.80092229657755
 20
-70.44048934870932
 30
0.0
 10
49.60007322978748
 20
-70.24032930101632
 30
0.0
 10
49.35616046943179
 20
-70.24032930101632
 30
0.0
 10
49.10690781107397
 20
-70.24032930101632
 30
0.0
 10
48.90847031112358
 20
-70.44048934870932
 30
0.0
 10
48.90847031112358
 20
-70.68698593067896
 30
0.0
  0
SPLINE
  5
4A1
330
1F
100
AcDbEntity
  8
Capa 1
 62
     7
420
 16777215
370
     5
100
AcDbSpline
210
0.0
220
0.0
230
1.0
 70
     8
 71
     3
 72
    11
 73
     7
 74
     0
 42
0.0000000001
 43
0.0000000001
 40
0.0
 40
0.0
 40
0.0
 40
0.0
 40
1.0
 40
1.0
 40
1.0
 40
2.0
 40
2.0
 40
2.0
 40
2.0
 10
50.87510306887845
 20
-70.68698593067896
 30
0.0
 10
50.87510306887845
 20
-70.44048934870932
 30
0.0
 10
50.73333738966042
 20
-70.24032930101632
 30
0.0
 10
50.5607381058494
 20
-70.24032930101632
 30
0.0
 10
50.38813882203839
 20
-70.24032930101632
 30
0.0
 10
50.24861245488577
 20
-70.44048934870932
 30
0.0
 10
50.24861245488577
 20
-70.68698593067896
 30
0.0
  0
POLYLINE
  5
4A2
330
1F
100
AcDbEntity
  8
Capa 1
 62
     7
420
 16777215
370
     5
100
AcDb2dPolyline
 66
     1
 10
0.0
 20
0.0
 30
0.0
  0
VERTEX
  5
4A3
330
4A2
100
AcDbEntity
  8
Capa 1
 62
     7
420
 16777215
370
     5
100
AcDbVertex
100
AcDb2dVertex
 10
47.5669501291673
 20
-70.68698593067896
 30
0.0
  0
VERTEX
  5
4A4
330
4A2
100
AcDbEntity
  8
Capa 1
 62
     7
420
 16777215
370
     5
100
AcDbVertex
100
AcDb2dVertex
 10
47.27015515311302
 20
-70.09442950721598
 30
0.0
  0
SEQEND
  5
4A5
330
4A2
100
AcDbEntity
  8
Capa 1
370
     5
  0
SPLINE
  5
4A6
330
1F
100
AcDbEntity
  8
Capa 1
 62
     7
420
 16777215
370
     5
100
AcDbSpline
210
0.0
220
0.0
230
1.0
 70
     8
 71
     3
 72
     8
 73
     4
 74
     0
 42
0.0000000001
 43
0.0000000001
 40
0.0
 40
0.0
 40
0.0
 40
0.0
 40
1.0
 40
1.0
 40
1.0
 40
1.0
 10
47.25327418523529
 20
-69.61435545134641
 30
0.0
 10
47.19109021172653
 20
-69.77007376727971
 30
0.0
 10
47.19591334540588
 20
-69.94439559883335
 30
0.0
 10
47.27015515311302
 20
-70.09442950721598
 30
0.0
  0
SPLINE
  5
4A7
330
1F
100
AcDbEntity
  8
Capa 1
 62
     7
420
 16777215
370
     5
100
AcDbSpline
210
0.0
220
0.0
230
1.0
 70
     8
 71
     3
 72
    11
 73
     7
 74
     0
 42
0.0000000001
 43
0.0000000001
 40
0.0
 40
0.0
 40
0.0
 40
0.0
 40
1.0
 40
1.0
 40
1.0
 40
2.0
 40
2.0
 40
2.0
 40
2.0
 10
48.46009113371831
 20
-70.68698593067896
 30
0.0
 10
48.46009113371831
 20
-70.44048934870932
 30
0.0
 10
48.32125378566275
 20
-70.24032930101632
 30
0.0
 10
48.14882675662599
 20
-70.24032930101632
 30
0.0
 10
47.97553845371792
 20
-70.24032930101632
 30
0.0
 10
47.83670110566236
 20
-70.44048934870932
 30
0.0
 10
47.83670110566236
 20
-70.68698593067896
 30
0.0
  0
POLYLINE
  5
4A8
330
1F
100
AcDbEntity
  8
Capa 1
 62
     7
420
 16777215
370
     5
100
AcDb2dPolyline
 66
     1
 10
0.0
 20
0.0
 30
0.0
  0
VERTEX
  5
4A9
330
4A8
100
AcDbEntity
  8
Capa 1
 62
     7
420
 16777215
370
     5
100
AcDbVertex
100
AcDb2dVertex
 10
53.24240043156787
 20
-89.52683510131621
 30
0.0
  0
VERTEX
  5
4AA
330
4A8
100
AcDbEntity
  8
Capa 1
 62
     7
420
 16777215
370
     5
100
AcDbVertex
100
AcDb2dVertex
 10
59.21395669092568
 20
-86.06158580747767
 30
0.0
  0
SEQEND
  5
4AB
330
4A8
100
AcDbEntity
  8
Capa 1
370
     5
  0
SPLINE
  5
4AC
330
1F
100
AcDbEntity
  8
Capa 1
 62
     7
420
 16777215
370
     5
100
AcDbSpline
210
0.0
220
0.0
230
1.0
 70
     8
 71
     3
 72
     8
 73
     4
 74
     0
 42
0.0000000001
 43
0.0000000001
 40
0.0
 40
0.0
 40
0.0
 40
0.0
 40
1.0
 40
1.0
 40
1.0
 40
1.0
 10
73.05135496220592
 20
-20.72845051565122
 30
0.0
 10
75.36973196900479
 20
-20.60925021186158
 30
0.0
 10
77.671917027023
 20
-20.27335340204972
 30
0.0
 10
79.92759329599033
 20
-19.72368841737811
 30
0.0
  0
SPLINE
  5
4AD
330
1F
100
AcDbEntity
  8
Capa 1
 62
     7
420
 16777215
370
     5
100
AcDbSpline
210
0.0
220
0.0
230
1.0
 70
     8
 71
     3
 72
     8
 73
     4
 74
     0
 42
0.0000000001
 43
0.0000000001
 40
0.0
 40
0.0
 40
0.0
 40
0.0
 40
1.0
 40
1.0
 40
1.0
 40
1.0
 10
79.92759329599033
 20
-19.72368841737811
 30
0.0
 10
80.08555092398903
 20
-19.68544785749183
 30
0.0
 10
80.19906682022801
 20
-19.5423041400797
 30
0.0
 10
80.19906682022801
 20
-19.37642279246492
 30
0.0
  0
POLYLINE
  5
4AE
330
1F
100
AcDbEntity
  8
Capa 1
 62
     7
420
 16777215
370
     5
100
AcDb2dPolyline
 66
     1
 10
0.0
 20
0.0
 30
0.0
  0
VERTEX
  5
4AF
330
4AE
100
AcDbEntity
  8
Capa 1
 62
     7
420
 16777215
370
     5
100
AcDbVertex
100
AcDb2dVertex
 10
80.19906682022801
 20
-19.37642279246492
 30
0.0
  0
VERTEX
  5
4B0
330
4AE
100
AcDbEntity
  8
Capa 1
 62
     7
420
 16777215
370
     5
100
AcDbVertex
100
AcDb2dVertex
 10
80.19906682022801
 20
-18.69067653612594
 30
0.0
  0
SEQEND
  5
4B1
330
4AE
100
AcDbEntity
  8
Capa 1
370
     5
  0
SPLINE
  5
4B2
330
1F
100
AcDbEntity
  8
Capa 1
 62
     7
420
 16777215
370
     5
100
AcDbSpline
210
0.0
220
0.0
230
1.0
 70
     8
 71
     3
 72
     8
 73
     4
 74
     0
 42
0.0000000001
 43
0.0000000001
 40
0.0
 40
0.0
 40
0.0
 40
0.0
 40
1.0
 40
1.0
 40
1.0
 40
1.0
 10
73.05135496220592
 20
-19.15524766231188
 30
0.0
 10
75.31064858143276
 20
-19.17367892315797
 30
0.0
 10
77.56391328356041
 20
-18.90065510595192
 30
0.0
 10
79.75189342624259
 20
-18.34478894940686
 30
0.0
  0
SPLINE
  5
4B3
330
1F
100
AcDbEntity
  8
Capa 1
 62
     7
420
 16777215
370
     5
100
AcDbSpline
210
0.0
220
0.0
230
1.0
 70
     8
 71
     3
 72
    11
 73
     7
 74
     0
 42
0.0000000001
 43
0.0000000001
 40
0.0
 40
0.0
 40
0.0
 40
0.0
 40
1.0
 40
1.0
 40
1.0
 40
2.0
 40
2.0
 40
2.0
 40
2.0
 10
80.19906682022801
 20
-18.69067653612594
 30
0.0
 10
80.19906682022801
 20
-18.49361707436965
 30
0.0
 10
80.0416259565521
 20
-18.33342013430553
 30
0.0
 10
79.84249943750466
 20
-18.33342013430553
 30
0.0
 10
79.81407739975134
 20
-18.33342013430553
 30
0.0
 10
79.78324379515836
 20
-18.336348465468
 30
0.0
 10
79.75189342624259
 20
-18.34478894940686
 30
0.0
  0
ENDSEC
  0
SECTION
  2
OBJECTS
  0
DICTIONARY
  5
C
330
0
100
AcDbDictionary
281
     1
  3
ACAD_GROUP
350
D
  3
ACAD_LAYOUT
350
1A
  3
ACAD_MLINESTYLE
350
17
  3
ACAD_PLOTSETTINGS
350
19
  3
ACAD_PLOTSTYLENAME
350
E
  3
ACAD_TABLESTYLE
350
4B4
  3
ACAD_VISUALSTYLE
350
2A
  0
DICTIONARY
  5
D
102
{ACAD_REACTORS
330
C
102
}
330
C
100
AcDbDictionary
281
     1
  0
DICTIONARY
  5
1A
102
{ACAD_REACTORS
330
C
102
}
330
C
100
AcDbDictionary
281
     1
  3
Layout1
350
1E
  3
Layout2
350
26
  3
Model
350
22
  0
DICTIONARY
  5
17
102
{ACAD_REACTORS
330
C
102
}
330
C
100
AcDbDictionary
281
     1
  3
Standard
350
18
  0
DICTIONARY
  5
19
102
{ACAD_REACTORS
330
C
102
}
330
C
100
AcDbDictionary
281
     1
  0
ACDBDICTIONARYWDFLT
  5
E
102
{ACAD_REACTORS
330
C
102
}
330
C
100
AcDbDictionary
281
     1
  3
Normal
350
F
100
AcDbDictionaryWithDefault
340
F
  0
DICTIONARY
  5
4B4
102
{ACAD_REACTORS
330
C
102
}
330
C
100
AcDbDictionary
281
     1
  0
DICTIONARY
  5
2A
102
{ACAD_REACTORS
330
C
102
}
330
C
100
AcDbDictionary
281
     1
  3
2dWireframe
350
2F
  3
3D Hidden
350
31
  3
3dWireframe
350
30
  3
Basic
350
32
  3
Brighten
350
36
  3
ColorChange
350
3A
  3
Conceptual
350
34
  3
Dim
350
35
  3
Facepattern
350
39
  3
Flat
350
2B
  3
FlatWithEdges
350
2C
  3
Gouraud
350
2D
  3
GouraudWithEdges
350
2E
  3
Linepattern
350
38
  3
Realistic
350
33
  3
Thicken
350
37
  0
LAYOUT
  5
1E
102
{ACAD_REACTORS
330
1A
102
}
330
1A
100
AcDbPlotSettings
  1

  2
none_device
  4

  6

 40
0.0
 41
0.0
 42
0.0
 43
0.0
 44
0.0
 45
0.0
 46
0.0
 47
0.0
 48
0.0
 49
0.0
140
0.0
141
0.0
142
1.0
143
1.0
 70
   688
 72
     0
 73
     0
 74
     5
  7

 75
    16
 76
     0
 77
     2
 78
   300
147
1.0
148
0.0
149
0.0
100
AcDbLayout
  1
Layout1
 70
     1
 71
     1
 10
0.0
 20
0.0
 11
12.0
 21
9.0
 12
0.0
 22
0.0
 32
0.0
 14
1.000000000000000E+20
 24
1.000000000000000E+20
 34
1.000000000000000E+20
 15
-1.000000000000000E+20
 25
-1.000000000000000E+20
 35
-1.000000000000000E+20
146
0.0
 13
0.0
 23
0.0
 33
0.0
 16
1.0
 26
0.0
 36
0.0
 17
0.0
 27
1.0
 37
0.0
 76
     0
330
1B
  0
LAYOUT
  5
26
102
{ACAD_REACTORS
330
1A
102
}
330
1A
100
AcDbPlotSettings
  1

  2
none_device
  4

  6

 40
0.0
 41
0.0
 42
0.0
 43
0.0
 44
0.0
 45
0.0
 46
0.0
 47
0.0
 48
0.0
 49
0.0
140
0.0
141
0.0
142
1.0
143
1.0
 70
   688
 72
     0
 73
     0
 74
     5
  7

 75
    16
 76
     0
 77
     2
 78
   300
147
1.0
148
0.0
149
0.0
100
AcDbLayout
  1
Layout2
 70
     1
 71
     2
 10
0.0
 20
0.0
 11
0.0
 21
0.0
 12
0.0
 22
0.0
 32
0.0
 14
0.0
 24
0.0
 34
0.0
 15
0.0
 25
0.0
 35
0.0
146
0.0
 13
0.0
 23
0.0
 33
0.0
 16
1.0
 26
0.0
 36
0.0
 17
0.0
 27
1.0
 37
0.0
 76
     0
330
23
  0
LAYOUT
  5
22
102
{ACAD_REACTORS
330
1A
102
}
330
1A
100
AcDbPlotSettings
  1

  2
none_device
  4

  6

 40
0.0
 41
0.0
 42
0.0
 43
0.0
 44
0.0
 45
0.0
 46
0.0
 47
0.0
 48
0.0
 49
0.0
140
0.0
141
0.0
142
1.0
143
1.0
 70
  1712
 72
     0
 73
     0
 74
     0
  7

 75
     0
 76
     0
 77
     2
 78
   300
147
1.0
148
0.0
149
0.0
100
AcDbLayout
  1
Model
 70
     1
 71
     0
 10
0.0
 20
0.0
 11
12.0
 21
9.0
 12
0.0
 22
0.0
 32
0.0
 14
1.000000000000000E+20
 24
1.000000000000000E+20
 34
1.000000000000000E+20
 15
-1.000000000000000E+20
 25
-1.000000000000000E+20
 35
-1.000000000000000E+20
146
0.0
 13
0.0
 23
0.0
 33
0.0
 16
1.0
 26
0.0
 36
0.0
 17
0.0
 27
1.0
 37
0.0
 76
     0
330
1F
331
29
  0
MLINESTYLE
  5
18
102
{ACAD_REACTORS
330
17
102
}
330
17
100
AcDbMlineStyle
  2
Standard
 70
     0
  3

 62
   256
 51
90.0
 52
90.0
 71
     2
 49
0.5
 62
   256
  6
BYLAYER
 49
-0.5
 62
   256
  6
BYLAYER
  0
ACDBPLACEHOLDER
  5
F
102
{ACAD_REACTORS
330
E
102
}
330
E
  0
VISUALSTYLE
  5
2F
102
{ACAD_REACTORS
330
2A
102
}
330
2A
100
AcDbVisualStyle
  2
2dWireframe
 70
     4
 71
     0
 72
     2
 73
     0
 90
        0
 40
-0.6
 41
-30.0
 62
     5
 63
     7
421
 16777215
 74
     1
 91
        4
 64
     7
 65
   257
 75
     1
175
     1
 42
1.0
 92
        0
 66
   257
 43
1.0
 76
     1
 77
     6
 78
     2
 67
     7
 79
     5
170
     0
171
     0
290
     0
174
     0
 93
        1
 44
0.0
173
     0
291
     0
 45
0.0
1001
ACAD
1000
AcDbSavedByObjectVersion
1070
     0
  0
VISUALSTYLE
  5
31
102
{ACAD_REACTORS
330
2A
102
}
330
2A
100
AcDbVisualStyle
  2
3D Hidden
 70
     6
 71
     1
 72
     2
 73
     2
 90
        0
 40
-0.6
 41
-30.0
 62
     5
 63
     7
421
 16777215
 74
     2
 91
        2
 64
     7
 65
   257
 75
     2
175
     1
 42
40.0
 92
        0
 66
   257
 43
1.0
 76
     1
 77
     6
 78
     2
 67
     7
 79
     3
170
     0
171
     0
290
     0
174
     0
 93
        1
 44
0.0
173
     0
291
     0
 45
0.0
1001
ACAD
1000
AcDbSavedByObjectVersion
1070
     0
  0
VISUALSTYLE
  5
30
102
{ACAD_REACTORS
330
2A
102
}
330
2A
100
AcDbVisualStyle
  2
3dWireframe
 70
     5
 71
     0
 72
     2
 73
     0
 90
        0
 40
-0.6
 41
-30.0
 62
     5
 63
     7
421
 16777215
 74
     1
 91
        4
 64
     7
 65
   257
 75
     1
175
     1
 42
1.0
 92
        0
 66
   257
 43
1.0
 76
     1
 77
     6
 78
     2
 67
     7
 79
     5
170
     0
171
     0
290
     0
174
     0
 93
        1
 44
0.0
173
     0
291
     0
 45
0.0
1001
ACAD
1000
AcDbSavedByObjectVersion
1070
     0
  0
VISUALSTYLE
  5
32
102
{ACAD_REACTORS
330
2A
102
}
330
2A
100
AcDbVisualStyle
  2
Basic
 70
     7
 71
     1
 72
     0
 73
     1
 90
        0
 40
-0.6
 41
-30.0
 62
     5
 63
     7
421
 16777215
 74
     0
 91
        4
 64
     7
 65
   257
 75
     1
175
     1
 42
1.0
 92
        8
 66
     7
 43
1.0
 76
     1
 77
     6
 78
     2
 67
     7
 79
     5
170
     0
171
     0
290
     0
174
     0
 93
        1
 44
0.0
173
     0
291
     1
 45
0.0
1001
ACAD
1000
AcDbSavedByObjectVersion
1070
     0
  0
VISUALSTYLE
  5
36
102
{ACAD_REACTORS
330
2A
102
}
330
2A
100
AcDbVisualStyle
  2
Brighten
 70
    12
 71
     2
 72
     2
 73
     0
 90
        0
 40
-0.6
 41
-30.0
 62
     5
 63
     7
421
 16777215
 74
     1
 91
        4
 64
     7
 65
   257
 75
     1
175
     1
 42
1.0
 92
        8
 66
     7
 43
1.0
 76
     1
 77
     6
 78
     2
 67
     7
 79
     5
170
     0
171
     0
290
     0
174
     0
 93
        1
 44
50.0
173
     0
291
     1
 45
0.0
1001
ACAD
1000
AcDbSavedByObjectVersion
1070
     0
  0
VISUALSTYLE
  5
3A
102
{ACAD_REACTORS
330
2A
102
}
330
2A
100
AcDbVisualStyle
  2
ColorChange
 70
    16
 71
     2
 72
     2
 73
     3
 90
        0
 40
-0.6
 41
-30.0
 62
     5
 63
     8
421
  8421504
 74
     1
 91
        4
 64
     7
 65
   257
 75
     1
175
     1
 42
1.0
 92
        8
 66
     8
424
  8421504
 43
1.0
 76
     1
 77
     6
 78
     2
 67
     7
 79
     5
170
     0
171
     0
290
     0
174
     0
 93
        1
 44
0.0
173
     0
291
     1
 45
0.0
1001
ACAD
1000
AcDbSavedByObjectVersion
1070
     0
  0
VISUALSTYLE
  5
34
102
{ACAD_REACTORS
330
2A
102
}
330
2A
100
AcDbVisualStyle
  2
Conceptual
 70
     9
 71
     3
 72
     2
 73
     0
 90
        0
 40
-0.6
 41
-30.0
 62
     5
 63
     7
421
 16777215
 74
     2
 91
        2
 64
     7
 65
   257
 75
     1
175
     1
 42
40.0
 92
        8
 66
     7
 43
1.0
 76
     1
 77
     6
 78
     2
 67
     7
 79
     3
170
     0
171
     0
290
     0
174
     0
 93
        1
 44
0.0
173
     0
291
     0
 45
0.0
1001
ACAD
1000
AcDbSavedByObjectVersion
1070
     0
  0
VISUALSTYLE
  5
35
102
{ACAD_REACTORS
330
2A
102
}
330
2A
100
AcDbVisualStyle
  2
Dim
 70
    11
 71
     2
 72
     2
 73
     0
 90
        0
 40
-0.6
 41
-30.0
 62
     5
 63
     7
421
 16777215
 74
     1
 91
        4
 64
     7
 65
   257
 75
     1
175
     1
 42
1.0
 92
        8
 66
     7
 43
1.0
 76
     1
 77
     6
 78
     2
 67
     7
 79
     5
170
     0
171
     0
290
     0
174
     0
 93
        1
 44
-50.0
173
     0
291
     1
 45
0.0
1001
ACAD
1000
AcDbSavedByObjectVersion
1070
     0
  0
VISUALSTYLE
  5
39
102
{ACAD_REACTORS
330
2A
102
}
330
2A
100
AcDbVisualStyle
  2
Facepattern
 70
    15
 71
     2
 72
     2
 73
     0
 90
        0
 40
-0.6
 41
-30.0
 62
     5
 63
     7
421
 16777215
 74
     1
 91
        4
 64
     7
 65
   257
 75
     1
175
     1
 42
1.0
 92
        8
 66
     7
 43
1.0
 76
     1
 77
     6
 78
     2
 67
     7
 79
     5
170
     0
171
     0
290
     0
174
     0
 93
        1
 44
0.0
173
     0
291
     1
 45
0.0
1001
ACAD
1000
AcDbSavedByObjectVersion
1070
     0
  0
VISUALSTYLE
  5
2B
102
{ACAD_REACTORS
330
2A
102
}
330
2A
100
AcDbVisualStyle
  2
Flat
 70
     0
 71
     2
 72
     1
 73
     1
 90
        2
 40
-0.6
 41
30.0
 62
     5
 63
     7
421
 16777215
 74
     0
 91
        4
 64
     7
 65
   257
 75
     1
175
     1
 42
1.0
 92
        8
 66
     7
 43
1.0
 76
     1
 77
     6
 78
     2
 67
     7
 79
     5
170
     0
171
     0
290
     0
174
     0
 93
       13
 44
0.0
173
     0
291
     1
 45
0.0
1001
ACAD
1000
AcDbSavedByObjectVersion
1070
     0
  0
VISUALSTYLE
  5
2C
102
{ACAD_REACTORS
330
2A
102
}
330
2A
100
AcDbVisualStyle
  2
FlatWithEdges
 70
     1
 71
     2
 72
     1
 73
     1
 90
        2
 40
-0.6
 41
30.0
 62
     5
 63
     7
421
 16777215
 74
     1
 91
        4
 64
     7
 65
   257
 75
     1
175
     1
 42
1.0
 92
        0
 66
   257
 43
1.0
 76
     1
 77
     6
 78
     2
 67
     7
 79
     5
170
     0
171
     0
290
     0
174
     0
 93
       13
 44
0.0
173
     0
291
     1
 45
0.0
1001
ACAD
1000
AcDbSavedByObjectVersion
1070
     0
  0
VISUALSTYLE
  5
2D
102
{ACAD_REACTORS
330
2A
102
}
330
2A
100
AcDbVisualStyle
  2
Gouraud
 70
     2
 71
     2
 72
     2
 73
     1
 90
        2
 40
-0.6
 41
30.0
 62
     5
 63
     7
421
 16777215
 74
     0
 91
        4
 64
     7
 65
   257
 75
     1
175
     1
 42
1.0
 92
        0
 66
     7
 43
1.0
 76
     1
 77
     6
 78
     2
 67
     7
 79
     5
170
     0
171
     0
290
     0
174
     0
 93
       13
 44
0.0
173
     0
291
     1
 45
0.0
1001
ACAD
1000
AcDbSavedByObjectVersion
1070
     0
  0
VISUALSTYLE
  5
2E
102
{ACAD_REACTORS
330
2A
102
}
330
2A
100
AcDbVisualStyle
  2
GouraudWithEdges
 70
     3
 71
     2
 72
     2
 73
     1
 90
        2
 40
-0.6
 41
30.0
 62
     5
 63
     7
421
 16777215
 74
     1
 91
        4
 64
     7
 65
   257
 75
     1
175
     1
 42
1.0
 92
        0
 66
   257
 43
1.0
 76
     1
 77
     6
 78
     2
 67
     7
 79
     5
170
     0
171
     0
290
     0
174
     0
 93
       13
 44
0.0
173
     0
291
     1
 45
0.0
1001
ACAD
1000
AcDbSavedByObjectVersion
1070
     0
  0
VISUALSTYLE
  5
38
102
{ACAD_REACTORS
330
2A
102
}
330
2A
100
AcDbVisualStyle
  2
Linepattern
 70
    14
 71
     2
 72
     2
 73
     0
 90
        0
 40
-0.6
 41
-30.0
 62
     5
 63
     7
421
 16777215
 74
     1
 91
        4
 64
     7
 65
   257
 75
     7
175
     7
 42
1.0
 92
        8
 66
     7
 43
1.0
 76
     1
 77
     6
 78
     2
 67
     7
 79
     5
170
     0
171
     0
290
     0
174
     0
 93
        1
 44
0.0
173
     0
291
     1
 45
0.0
1001
ACAD
1000
AcDbSavedByObjectVersion
1070
     0
  0
VISUALSTYLE
  5
33
102
{ACAD_REACTORS
330
2A
102
}
330
2A
100
AcDbVisualStyle
  2
Realistic
 70
     8
 71
     2
 72
     2
 73
     0
 90
        0
 40
-0.6
 41
-30.0
 62
     5
 63
     7
421
 16777215
 74
     1
 91
        0
 64
     7
 65
   257
 75
     1
175
     1
 42
1.0
 92
        8
 66
     8
424
  7895160
 43
1.0
 76
     1
 77
     6
 78
     2
 67
     7
 79
     5
170
     0
171
     0
290
     0
174
     0
 93
       13
 44
0.0
173
     0
291
     0
 45
0.0
1001
ACAD
1000
AcDbSavedByObjectVersion
1070
     0
  0
VISUALSTYLE
  5
37
102
{ACAD_REACTORS
330
2A
102
}
330
2A
100
AcDbVisualStyle
  2
Thicken
 70
    13
 71
     2
 72
     2
 73
     0
 90
        0
 40
-0.6
 41
-30.0
 62
     5
 63
     7
421
 16777215
 74
     1
 91
        4
 64
     7
 65
   257
 75
     1
175
     1
 42
1.0
 92
       12
 66
     7
 43
1.0
 76
     1
 77
     6
 78
     2
 67
     7
 79
     5
170
     0
171
     0
290
     0
174
     0
 93
        1
 44
0.0
173
     0
291
     1
 45
0.0
1001
ACAD
1000
AcDbSavedByObjectVersion
1070
     0
  0
ENDSEC
  0
EOF
