  0
SECTION
  2
HEADER
  9
$ACADVER
  1
AC1021
  9
$ACADMAINTVER
 70
    50
  9
$DWGCODEPAGE
  3
ANSI_1252
  9
$LASTSAVEDBY
  1
lballester
  9
$INSBASE
 10
0.0
 20
0.0
 30
0.0
  9
$EXTMIN
 10
2627.504837892716
 20
952.095485698323
 30
0.0
  9
$EXTMAX
 10
2655.249877007743
 20
1011.009692892891
 30
0.0
  9
$LIMMIN
 10
0.0
 20
0.0
  9
$LIMMAX
 10
420.0
 20
297.0
  9
$ORTHOMODE
 70
     0
  9
$REGENMODE
 70
     1
  9
$FILLMODE
 70
     1
  9
$QTEXTMODE
 70
     0
  9
$MIRRTEXT
 70
     0
  9
$LTSCALE
 40
1.0
  9
$ATTMODE
 70
     1
  9
$TEXTSIZE
 40
2.5
  9
$TRACEWID
 40
1.0
  9
$TEXTSTYLE
  7
Standard
  9
$CLAYER
  8
0
  9
$CELTYPE
  6
ByLayer
  9
$CECOLOR
 62
   256
  9
$CELTSCALE
 40
1.0
  9
$DISPSILH
 70
     0
  9
$DIMSCALE
 40
1.0
  9
$DIMASZ
 40
2.5
  9
$DIMEXO
 40
0.625
  9
$DIMDLI
 40
3.75
  9
$DIMRND
 40
0.0
  9
$DIMDLE
 40
0.0
  9
$DIMEXE
 40
1.25
  9
$DIMTP
 40
0.0
  9
$DIMTM
 40
0.0
  9
$DIMTXT
 40
2.5
  9
$DIMCEN
 40
2.5
  9
$DIMTSZ
 40
0.0
  9
$DIMTOL
 70
     0
  9
$DIMLIM
 70
     0
  9
$DIMTIH
 70
     0
  9
$DIMTOH
 70
     0
  9
$DIMSE1
 70
     0
  9
$DIMSE2
 70
     0
  9
$DIMTAD
 70
     1
  9
$DIMZIN
 70
     8
  9
$DIMBLK
  1

  9
$DIMASO
 70
     1
  9
$DIMSHO
 70
     1
  9
$DIMPOST
  1

  9
$DIMAPOST
  1

  9
$DIMALT
 70
     0
  9
$DIMALTD
 70
     3
  9
$DIMALTF
 40
0.03937007874016
  9
$DIMLFAC
 40
1.0
  9
$DIMTOFL
 70
     1
  9
$DIMTVP
 40
0.0
  9
$DIMTIX
 70
     0
  9
$DIMSOXD
 70
     0
  9
$DIMSAH
 70
     0
  9
$DIMBLK1
  1

  9
$DIMBLK2
  1

  9
$DIMSTYLE
  2
ISO-25
  9
$DIMCLRD
 70
     0
  9
$DIMCLRE
 70
     0
  9
$DIMCLRT
 70
     0
  9
$DIMTFAC
 40
1.0
  9
$DIMGAP
 40
0.625
  9
$DIMJUST
 70
     0
  9
$DIMSD1
 70
     0
  9
$DIMSD2
 70
     0
  9
$DIMTOLJ
 70
     0
  9
$DIMTZIN
 70
     8
  9
$DIMALTZ
 70
     0
  9
$DIMALTTZ
 70
     0
  9
$DIMUPT
 70
     0
  9
$DIMDEC
 70
     2
  9
$DIMTDEC
 70
     2
  9
$DIMALTU
 70
     2
  9
$DIMALTTD
 70
     3
  9
$DIMTXSTY
  7
Standard
  9
$DIMAUNIT
 70
     0
  9
$DIMADEC
 70
     0
  9
$DIMALTRND
 40
0.0
  9
$DIMAZIN
 70
     0
  9
$DIMDSEP
 70
    44
  9
$DIMATFIT
 70
     3
  9
$DIMFRAC
 70
     0
  9
$DIMLDRBLK
  1

  9
$DIMLUNIT
 70
     2
  9
$DIMLWD
 70
    -2
  9
$DIMLWE
 70
    -2
  9
$DIMTMOVE
 70
     0
  9
$DIMFXL
 40
1.0
  9
$DIMFXLON
 70
     0
  9
$DIMJOGANG
 40
0.7853981633974483
  9
$DIMTFILL
 70
     0
  9
$DIMTFILLCLR
 70
     0
  9
$DIMARCSYM
 70
     0
  9
$DIMLTYPE
  6

  9
$DIMLTEX1
  6

  9
$DIMLTEX2
  6

  9
$LUNITS
 70
     2
  9
$LUPREC
 70
     4
  9
$SKETCHINC
 40
1.0
  9
$FILLETRAD
 40
0.0
  9
$AUNITS
 70
     0
  9
$AUPREC
 70
     0
  9
$MENU
  1
.
  9
$ELEVATION
 40
0.0
  9
$PELEVATION
 40
0.0
  9
$THICKNESS
 40
0.0
  9
$LIMCHECK
 70
     0
  9
$CHAMFERA
 40
0.0
  9
$CHAMFERB
 40
0.0
  9
$CHAMFERC
 40
0.0
  9
$CHAMFERD
 40
0.0
  9
$SKPOLY
 70
     0
  9
$TDCREATE
 40
2457829.513566273
  9
$TDUCREATE
 40
2457829.471899607
  9
$TDUPDATE
 40
2457829.513841852
  9
$TDUUPDATE
 40
2457829.472175185
  9
$TDINDWG
 40
0.0002769792
  9
$TDUSRTIMER
 40
0.0002769676
  9
$USRTIMER
 70
     1
  9
$ANGBASE
 50
0.0
  9
$ANGDIR
 70
     0
  9
$PDMODE
 70
     0
  9
$PDSIZE
 40
0.0
  9
$PLINEWID
 40
0.0
  9
$SPLFRAME
 70
     0
  9
$SPLINETYPE
 70
     6
  9
$SPLINESEGS
 70
     8
  9
$HANDSEED
  5
611
  9
$SURFTAB1
 70
     6
  9
$SURFTAB2
 70
     6
  9
$SURFTYPE
 70
     6
  9
$SURFU
 70
     6
  9
$SURFV
 70
     6
  9
$UCSBASE
  2

  9
$UCSNAME
  2

  9
$UCSORG
 10
0.0
 20
0.0
 30
0.0
  9
$UCSXDIR
 10
1.0
 20
0.0
 30
0.0
  9
$UCSYDIR
 10
0.0
 20
1.0
 30
0.0
  9
$UCSORTHOREF
  2

  9
$UCSORTHOVIEW
 70
     0
  9
$UCSORGTOP
 10
0.0
 20
0.0
 30
0.0
  9
$UCSORGBOTTOM
 10
0.0
 20
0.0
 30
0.0
  9
$UCSORGLEFT
 10
0.0
 20
0.0
 30
0.0
  9
$UCSORGRIGHT
 10
0.0
 20
0.0
 30
0.0
  9
$UCSORGFRONT
 10
0.0
 20
0.0
 30
0.0
  9
$UCSORGBACK
 10
0.0
 20
0.0
 30
0.0
  9
$PUCSBASE
  2

  9
$PUCSNAME
  2

  9
$PUCSORG
 10
0.0
 20
0.0
 30
0.0
  9
$PUCSXDIR
 10
1.0
 20
0.0
 30
0.0
  9
$PUCSYDIR
 10
0.0
 20
1.0
 30
0.0
  9
$PUCSORTHOREF
  2

  9
$PUCSORTHOVIEW
 70
     0
  9
$PUCSORGTOP
 10
0.0
 20
0.0
 30
0.0
  9
$PUCSORGBOTTOM
 10
0.0
 20
0.0
 30
0.0
  9
$PUCSORGLEFT
 10
0.0
 20
0.0
 30
0.0
  9
$PUCSORGRIGHT
 10
0.0
 20
0.0
 30
0.0
  9
$PUCSORGFRONT
 10
0.0
 20
0.0
 30
0.0
  9
$PUCSORGBACK
 10
0.0
 20
0.0
 30
0.0
  9
$USERI1
 70
     0
  9
$USERI2
 70
     0
  9
$USERI3
 70
     0
  9
$USERI4
 70
     0
  9
$USERI5
 70
     0
  9
$USERR1
 40
0.0
  9
$USERR2
 40
0.0
  9
$USERR3
 40
0.0
  9
$USERR4
 40
0.0
  9
$USERR5
 40
0.0
  9
$WORLDVIEW
 70
     1
  9
$SHADEDGE
 70
     3
  9
$SHADEDIF
 70
    70
  9
$TILEMODE
 70
     1
  9
$MAXACTVP
 70
    64
  9
$PINSBASE
 10
0.0
 20
0.0
 30
0.0
  9
$PLIMCHECK
 70
     0
  9
$PEXTMIN
 10
0.0
 20
0.0
 30
0.0
  9
$PEXTMAX
 10
0.0
 20
0.0
 30
0.0
  9
$PLIMMIN
 10
0.0
 20
0.0
  9
$PLIMMAX
 10
12.0
 20
9.0
  9
$UNITMODE
 70
     0
  9
$VISRETAIN
 70
     1
  9
$PLINEGEN
 70
     0
  9
$PSLTSCALE
 70
     1
  9
$TREEDEPTH
 70
  3020
  9
$CMLSTYLE
  2
Standard
  9
$CMLJUST
 70
     0
  9
$CMLSCALE
 40
20.0
  9
$PROXYGRAPHICS
 70
     1
  9
$MEASUREMENT
 70
     1
  9
$CELWEIGHT
370
    -1
  9
$ENDCAPS
280
     0
  9
$JOINSTYLE
280
     0
  9
$LWDISPLAY
290
     0
  9
$INSUNITS
 70
     4
  9
$HYPERLINKBASE
  1

  9
$STYLESHEET
  1

  9
$XEDIT
290
     1
  9
$CEPSNTYPE
380
     0
  9
$PSTYLEMODE
290
     1
  9
$FINGERPRINTGUID
  2
{6E0712E8-D571-420A-88AA-E6024699336C}
  9
$VERSIONGUID
  2
{9EC89FDD-AD29-4B78-9968-49EFDBBD80BE}
  9
$EXTNAMES
290
     1
  9
$PSVPSCALE
 40
0.0
  9
$OLESTARTUP
290
     0
  9
$SORTENTS
280
   127
  9
$INDEXCTL
280
     0
  9
$HIDETEXT
280
     1
  9
$XCLIPFRAME
290
     0
  9
$HALOGAP
280
     0
  9
$OBSCOLOR
 70
   257
  9
$OBSLTYPE
280
     0
  9
$INTERSECTIONDISPLAY
280
     0
  9
$INTERSECTIONCOLOR
 70
   257
  9
$DIMASSOC
280
     2
  9
$PROJECTNAME
  1

  9
$CAMERADISPLAY
290
     0
  9
$LENSLENGTH
 40
50.0
  9
$CAMERAHEIGHT
 40
0.0
  9
$STEPSPERSEC
 40
2.0
  9
$STEPSIZE
 40
6.0
  9
$3DDWFPREC
 40
2.0
  9
$PSOLWIDTH
 40
5.0
  9
$PSOLHEIGHT
 40
80.0
  9
$LOFTANG1
 40
1.570796326794896
  9
$LOFTANG2
 40
1.570796326794896
  9
$LOFTMAG1
 40
0.0
  9
$LOFTMAG2
 40
0.0
  9
$LOFTPARAM
 70
     7
  9
$LOFTNORMALS
280
     1
  9
$LATITUDE
 40
37.795
  9
$LONGITUDE
 40
-122.394
  9
$NORTHDIRECTION
 40
0.0
  9
$TIMEZONE
 70
 -8000
  9
$LIGHTGLYPHDISPLAY
280
     1
  9
$TILEMODELIGHTSYNCH
280
     1
  9
$CMATERIAL
347
EC
  9
$SOLIDHIST
280
     0
  9
$SHOWHIST
280
     1
  9
$DWFFRAME
280
     2
  9
$DGNFRAME
280
     0
  9
$REALWORLDSCALE
290
     1
  9
$INTERFERECOLOR
 62
     1
  9
$INTERFEREOBJVS
345
F9
  9
$INTERFEREVPVS
346
F6
  9
$CSHADOW
280
     0
  9
$SHADOWPLANELOCATION
 40
0.0
  0
ENDSEC
  0
SECTION
  2
CLASSES
  0
CLASS
  1
ACDBDICTIONARYWDFLT
  2
AcDbDictionaryWithDefault
  3
ObjectDBX Classes
 90
        0
 91
        1
280
     0
281
     0
  0
CLASS
  1
DICTIONARYVAR
  2
AcDbDictionaryVar
  3
ObjectDBX Classes
 90
        0
 91
       10
280
     0
281
     0
  0
CLASS
  1
TABLESTYLE
  2
AcDbTableStyle
  3
ObjectDBX Classes
 90
     4095
 91
        1
280
     0
281
     0
  0
CLASS
  1
MATERIAL
  2
AcDbMaterial
  3
ObjectDBX Classes
 90
     1153
 91
        3
280
     0
281
     0
  0
CLASS
  1
VISUALSTYLE
  2
AcDbVisualStyle
  3
ObjectDBX Classes
 90
     4095
 91
       24
280
     0
281
     0
  0
CLASS
  1
SCALE
  2
AcDbScale
  3
ObjectDBX Classes
 90
     1153
 91
       17
280
     0
281
     0
  0
CLASS
  1
MLEADERSTYLE
  2
AcDbMLeaderStyle
  3
ACDB_MLEADERSTYLE_CLASS
 90
     4095
 91
        2
280
     0
281
     0
  0
CLASS
  1
CELLSTYLEMAP
  2
AcDbCellStyleMap
  3
ObjectDBX Classes
 90
     1152
 91
        1
280
     0
281
     0
  0
CLASS
  1
EXACXREFPANELOBJECT
  2
ExAcXREFPanelObject
  3
EXAC_ESW
 90
     1025
 91
        0
280
     0
281
     0
  0
CLASS
  1
NPOCOLLECTION
  2
AcDbImpNonPersistentObjectsCollection
  3
ObjectDBX Classes
 90
     1153
 91
        0
280
     0
281
     0
  0
CLASS
  1
LAYER_INDEX
  2
AcDbLayerIndex
  3
ObjectDBX Classes
 90
        0
 91
        0
280
     0
281
     0
  0
CLASS
  1
SPATIAL_INDEX
  2
AcDbSpatialIndex
  3
ObjectDBX Classes
 90
        0
 91
        0
280
     0
281
     0
  0
CLASS
  1
IDBUFFER
  2
AcDbIdBuffer
  3
ObjectDBX Classes
 90
        0
 91
        0
280
     0
281
     0
  0
CLASS
  1
ACDBSECTIONVIEWSTYLE
  2
AcDbSectionViewStyle
  3
ObjectDBX Classes
 90
     1025
 91
        1
280
     0
281
     0
  0
CLASS
  1
ACDBDETAILVIEWSTYLE
  2
AcDbDetailViewStyle
  3
ObjectDBX Classes
 90
     1025
 91
        1
280
     0
281
     0
  0
ENDSEC
  0
SECTION
  2
TABLES
  0
TABLE
  2
VPORT
  5
8
330
0
100
AcDbSymbolTable
 70
     1
  0
VPORT
  5
EA
330
8
100
AcDbSymbolTableRecord
100
AcDbViewportTableRecord
  2
*Active
 70
     0
 10
0.0
 20
0.0
 11
1.0
 21
1.0
 12
2637.310529795214
 22
981.9422933154424
 13
0.0
 23
0.0
 14
10.0
 24
10.0
 15
10.0
 25
10.0
 16
0.0
 26
0.0
 36
1.0
 17
0.0
 27
0.0
 37
0.0
 40
64.00219864807604
 41
1.936274509803921
 42
50.0
 43
0.0
 44
0.0
 50
0.0
 51
0.0
 71
     0
 72
  1000
 73
     1
 74
     3
 75
     0
 76
     1
 77
     0
 78
     0
281
     0
 65
     1
110
0.0
120
0.0
130
0.0
111
1.0
121
0.0
131
0.0
112
0.0
122
1.0
132
0.0
 79
     0
146
0.0
348
F5
 60
     3
 61
     5
292
     1
282
     1
141
0.0
142
0.0
 63
   250
421
  3355443
1001
ACAD_NAV_VCDISPLAY
1070
     3
  0
ENDTAB
  0
TABLE
  2
LTYPE
  5
5
330
0
100
AcDbSymbolTable
 70
     1
  0
LTYPE
  5
14
330
5
100
AcDbSymbolTableRecord
100
AcDbLinetypeTableRecord
  2
ByBlock
 70
     0
  3

 72
    65
 73
     0
 40
0.0
  0
LTYPE
  5
15
330
5
100
AcDbSymbolTableRecord
100
AcDbLinetypeTableRecord
  2
ByLayer
 70
     0
  3

 72
    65
 73
     0
 40
0.0
  0
LTYPE
  5
16
330
5
100
AcDbSymbolTableRecord
100
AcDbLinetypeTableRecord
  2
Continuous
 70
     0
  3
Solid line
 72
    65
 73
     0
 40
0.0
  0
ENDTAB
  0
TABLE
  2
LAYER
  5
2
102
{ACAD_XDICTIONARY
360
1FF
102
}
330
0
100
AcDbSymbolTable
 70
     2
  0
LAYER
  5
10
102
{ACAD_XDICTIONARY
360
13C
102
}
330
2
100
AcDbSymbolTableRecord
100
AcDbLayerTableRecord
  2
0
 70
     0
 62
     7
  6
Continuous
370
    -3
390
F
347
EE
  0
LAYER
  5
25E
102
{ACAD_XDICTIONARY
360
25F
102
}
330
2
100
AcDbSymbolTableRecord
100
AcDbLayerTableRecord
  2
cuerpo
 70
     0
 62
     7
  6
Continuous
370
     5
390
F
347
EE
1001
AcAecLayerStandard
1000

1000

  0
ENDTAB
  0
TABLE
  2
STYLE
  5
3
330
0
100
AcDbSymbolTable
 70
     2
  0
STYLE
  5
11
330
3
100
AcDbSymbolTableRecord
100
AcDbTextStyleTableRecord
  2
Standard
 70
     0
 40
0.0
 41
1.0
 50
0.0
 71
     0
 42
2.5
  3
arial.ttf
  4

1001
ACAD
1000
Arial
1071
       34
  0
STYLE
  5
132
330
3
100
AcDbSymbolTableRecord
100
AcDbTextStyleTableRecord
  2
Anotativo
 70
     0
 40
0.0
 41
1.0
 50
0.0
 71
     0
 42
2.5
  3
arial.ttf
  4

1001
AcadAnnotative
1000
AnnotativeData
1002
{
1070
     1
1070
     1
1002
}
1001
ACAD
1000
Arial
1071
       34
  0
ENDTAB
  0
TABLE
  2
VIEW
  5
6
330
0
100
AcDbSymbolTable
 70
     0
  0
ENDTAB
  0
TABLE
  2
UCS
  5
7
330
0
100
AcDbSymbolTable
 70
     0
  0
ENDTAB
  0
TABLE
  2
APPID
  5
9
330
0
100
AcDbSymbolTable
 70
     9
  0
APPID
  5
12
330
9
100
AcDbSymbolTableRecord
100
AcDbRegAppTableRecord
  2
ACAD
 70
     0
  0
APPID
  5
9E
330
9
100
AcDbSymbolTableRecord
100
AcDbRegAppTableRecord
  2
ACAD_PSEXT
 70
     0
  0
APPID
  5
133
330
9
100
AcDbSymbolTableRecord
100
AcDbRegAppTableRecord
  2
AcadAnnoPO
 70
     0
  0
APPID
  5
134
330
9
100
AcDbSymbolTableRecord
100
AcDbRegAppTableRecord
  2
AcadAnnotative
 70
     0
  0
APPID
  5
135
330
9
100
AcDbSymbolTableRecord
100
AcDbRegAppTableRecord
  2
ACAD_DSTYLE_DIMJAG
 70
     0
  0
APPID
  5
136
330
9
100
AcDbSymbolTableRecord
100
AcDbRegAppTableRecord
  2
ACAD_DSTYLE_DIMTALN
 70
     0
  0
APPID
  5
165
330
9
100
AcDbSymbolTableRecord
100
AcDbRegAppTableRecord
  2
ACAD_MLEADERVER
 70
     0
  0
APPID
  5
217
330
9
100
AcDbSymbolTableRecord
100
AcDbRegAppTableRecord
  2
ACAD_NAV_VCDISPLAY
 70
     0
  0
APPID
  5
260
330
9
100
AcDbSymbolTableRecord
100
AcDbRegAppTableRecord
  2
AcAecLayerStandard
 70
     0
  0
ENDTAB
  0
TABLE
  2
DIMSTYLE
  5
A
330
0
100
AcDbSymbolTable
 70
     3
100
AcDbDimStyleTable
 71
     2
340
27
340
137
  0
DIMSTYLE
105
1B0
330
A
100
AcDbSymbolTableRecord
100
AcDbDimStyleTableRecord
  2
Standard
 70
     0
340
11
  0
DIMSTYLE
105
137
330
A
100
AcDbSymbolTableRecord
100
AcDbDimStyleTableRecord
  2
Anotativo
 70
     0
 40
0.0
 41
2.5
 42
0.625
 43
3.75
 44
1.25
 73
     0
 74
     0
 77
     1
 78
     8
140
2.5
141
2.5
143
0.03937007874016
147
0.625
171
     3
172
     1
271
     2
272
     2
274
     3
278
    44
283
     0
284
     8
340
11
1001
AcadAnnotative
1000
AnnotativeData
1002
{
1070
     1
1070
     1
1002
}
1001
ACAD_DSTYLE_DIMJAG
1070
   388
1040
1.5
1001
ACAD_DSTYLE_DIMTALN
1070
   392
1070
     0
  0
DIMSTYLE
105
27
330
A
100
AcDbSymbolTableRecord
100
AcDbDimStyleTableRecord
  2
ISO-25
 70
     0
 41
2.5
 42
0.625
 43
3.75
 44
1.25
 73
     0
 74
     0
 77
     1
 78
     8
140
2.5
141
2.5
143
0.03937007874016
147
0.625
171
     3
172
     1
271
     2
272
     2
274
     3
278
    44
283
     0
284
     8
340
11
  0
ENDTAB
  0
TABLE
  2
BLOCK_RECORD
  5
1
330
0
100
AcDbSymbolTable
 70
     2
  0
BLOCK_RECORD
  5
1F
102
{ACAD_XDICTIONARY
360
1CE
102
}
330
1
100
AcDbSymbolTableRecord
100
AcDbBlockTableRecord
  2
*Model_Space
340
22
 70
     0
280
     1
281
     0
  0
BLOCK_RECORD
  5
D2
330
1
100
AcDbSymbolTableRecord
100
AcDbBlockTableRecord
  2
*Paper_Space
340
D3
 70
     0
280
     1
281
     0
  0
BLOCK_RECORD
  5
D6
330
1
100
AcDbSymbolTableRecord
100
AcDbBlockTableRecord
  2
*Paper_Space0
340
D7
 70
     0
280
     1
281
     0
  0
ENDTAB
  0
ENDSEC
  0
SECTION
  2
BLOCKS
  0
BLOCK
  5
20
330
1F
100
AcDbEntity
  8
0
100
AcDbBlockBegin
  2
*Model_Space
 70
     0
 10
0.0
 20
0.0
 30
0.0
  3
*Model_Space
  1

  0
ENDBLK
  5
21
330
1F
100
AcDbEntity
  8
0
100
AcDbBlockEnd
  0
BLOCK
  5
D4
330
D2
100
AcDbEntity
 67
     1
  8
0
100
AcDbBlockBegin
  2
*Paper_Space
 70
     0
 10
0.0
 20
0.0
 30
0.0
  3
*Paper_Space
  1

  0
ENDBLK
  5
D5
330
D2
100
AcDbEntity
 67
     1
  8
0
100
AcDbBlockEnd
  0
BLOCK
  5
D8
330
D6
100
AcDbEntity
 67
     1
  8
0
100
AcDbBlockBegin
  2
*Paper_Space0
 70
     0
 10
0.0
 20
0.0
 30
0.0
  3
*Paper_Space0
  1

  0
ENDBLK
  5
D9
330
D6
100
AcDbEntity
 67
     1
  8
0
100
AcDbBlockEnd
  0
ENDSEC
  0
SECTION
  2
ENTITIES
  0
LINE
  5
41D
330
1F
100
AcDbEntity
  8
cuerpo
  6
Continuous
100
AcDbLine
 10
2635.7598343852
 20
988.624510760056
 30
0.0
 11
2633.427336373324
 21
988.6245072525387
 31
0.0
  0
LINE
  5
41E
330
1F
100
AcDbEntity
  8
cuerpo
  6
Continuous
100
AcDbLine
 10
2629.454837892716
 20
986.7145072525389
 30
0.0
 11
2629.304837892716
 21
986.5645072525396
 31
0.0
  0
LINE
  5
41F
330
1F
100
AcDbEntity
  8
cuerpo
  6
Continuous
100
AcDbLine
 10
2629.304837892716
 20
983.8645072525396
 30
0.0
 11
2629.454837892716
 21
983.7145072525398
 31
0.0
  0
LINE
  5
420
330
1F
100
AcDbEntity
  8
cuerpo
  6
Continuous
100
AcDbLine
 10
2630.504837892716
 20
983.7145072525398
 30
0.0
 11
2630.654837892715
 21
983.8645072525396
 31
0.0
  0
LINE
  5
421
330
1F
100
AcDbEntity
  8
cuerpo
  6
Continuous
100
AcDbLine
 10
2630.654837892715
 20
986.5645072525396
 30
0.0
 11
2630.504837892716
 21
986.7145072525389
 31
0.0
  0
LINE
  5
422
330
1F
100
AcDbEntity
  8
cuerpo
  6
Continuous
100
AcDbLine
 10
2630.679837892716
 20
983.6745072525388
 30
0.0
 11
2635.759837892716
 21
983.6745072525388
 31
0.0
  0
LINE
  5
423
330
1F
100
AcDbEntity
  8
cuerpo
  6
Continuous
100
AcDbLine
 10
2635.837085047882
 20
988.5472600973731
 30
0.0
 11
2635.759835392716
 21
988.6245097525398
 31
0.0
  0
LINE
  5
424
330
1F
100
AcDbEntity
  8
cuerpo
  6
Continuous
100
AcDbLine
 10
2630.679837892716
 20
990.4745072525388
 30
0.0
 11
2630.679837892716
 21
988.6245072525387
 31
0.0
  0
LINE
  5
425
330
1F
100
AcDbEntity
  8
cuerpo
  6
Continuous
100
AcDbLine
 10
2627.504837892716
 20
981.8145072525396
 30
0.0
 11
2628.906652915869
 21
982.8708506407307
 31
0.0
  0
LINE
  5
426
330
1F
100
AcDbEntity
  8
cuerpo
  6
Continuous
100
AcDbLine
 10
2628.906652915869
 20
987.5581638643479
 30
0.0
 11
2627.504837892716
 21
988.6145072525378
 31
0.0
  0
LINE
  5
427
330
1F
100
AcDbEntity
  8
cuerpo
  6
Continuous
100
AcDbLine
 10
2629.454837892716
 20
986.7145072525389
 30
0.0
 11
2629.304837892716
 21
986.5645072525396
 31
0.0
  0
LINE
  5
428
330
1F
100
AcDbEntity
  8
cuerpo
  6
Continuous
100
AcDbLine
 10
2629.304837892716
 20
983.8645072525396
 30
0.0
 11
2629.454837892716
 21
983.7145072525398
 31
0.0
  0
LINE
  5
429
330
1F
100
AcDbEntity
  8
cuerpo
  6
Continuous
100
AcDbLine
 10
2630.504837892716
 20
983.7145072525398
 30
0.0
 11
2630.654837892715
 21
983.8645072525396
 31
0.0
  0
LINE
  5
42A
330
1F
100
AcDbEntity
  8
cuerpo
  6
Continuous
100
AcDbLine
 10
2630.654837892715
 20
986.5645072525396
 30
0.0
 11
2630.504837892716
 21
986.7145072525389
 31
0.0
  0
LINE
  5
42B
330
1F
100
AcDbEntity
  8
cuerpo
  6
Continuous
100
AcDbLine
 10
2630.504837892716
 20
983.7145072525398
 30
0.0
 11
2630.654837892715
 21
983.8645072525396
 31
0.0
  0
LINE
  5
42C
330
1F
100
AcDbEntity
  8
cuerpo
  6
Continuous
100
AcDbLine
 10
2630.654837892715
 20
986.5645072525396
 30
0.0
 11
2630.504837892716
 21
986.7145072525389
 31
0.0
  0
LINE
  5
42D
330
1F
100
AcDbEntity
  8
cuerpo
  6
Continuous
100
AcDbLine
 10
2629.454837892716
 20
986.7145072525389
 30
0.0
 11
2629.304837892716
 21
986.5645072525396
 31
0.0
  0
LINE
  5
42E
330
1F
100
AcDbEntity
  8
cuerpo
  6
Continuous
100
AcDbLine
 10
2629.304837892716
 20
983.8645072525396
 30
0.0
 11
2629.454837892716
 21
983.7145072525398
 31
0.0
  0
LINE
  5
42F
330
1F
100
AcDbEntity
  8
cuerpo
  6
Continuous
100
AcDbLine
 10
2630.354837892716
 20
986.7145072525389
 30
0.0
 11
2629.604837892717
 21
986.7145072525389
 31
0.0
  0
LINE
  5
430
330
1F
100
AcDbEntity
  8
cuerpo
  6
Continuous
100
AcDbLine
 10
2629.604837892717
 20
983.7145072525398
 30
0.0
 11
2630.354837892716
 21
983.7145072525398
 31
0.0
  0
LINE
  5
431
330
1F
100
AcDbEntity
  8
cuerpo
  6
Continuous
100
AcDbLine
 10
2629.604837892717
 20
983.8692132075498
 30
0.0
 11
2629.604837892717
 21
983.7145072525398
 31
0.0
  0
LINE
  5
432
330
1F
100
AcDbEntity
  8
cuerpo
  6
Continuous
100
AcDbLine
 10
2629.604837892717
 20
983.7145072525398
 30
0.0
 11
2630.354837892716
 21
983.7145072525398
 31
0.0
  0
LINE
  5
433
330
1F
100
AcDbEntity
  8
cuerpo
  6
Continuous
100
AcDbLine
 10
2630.654837892715
 20
986.5645072525396
 30
0.0
 11
2630.654837892715
 21
983.8645072525396
 31
0.0
  0
LINE
  5
434
330
1F
100
AcDbEntity
  8
cuerpo
  6
Continuous
100
AcDbLine
 10
2629.604837892717
 20
985.0598012975288
 30
0.0
 11
2630.354837892716
 21
985.0598012975288
 31
0.0
  0
LINE
  5
435
330
1F
100
AcDbEntity
  8
cuerpo
  6
Continuous
100
AcDbLine
 10
2630.354837892716
 20
983.8692132075498
 30
0.0
 11
2629.604837892717
 21
983.8692132075498
 31
0.0
  0
LINE
  5
436
330
1F
100
AcDbEntity
  8
cuerpo
  6
Continuous
100
AcDbLine
 10
2629.604837892717
 20
986.5598012975288
 30
0.0
 11
2630.354837892716
 21
986.5598012975288
 31
0.0
  0
LINE
  5
437
330
1F
100
AcDbEntity
  8
cuerpo
  6
Continuous
100
AcDbLine
 10
2630.354837892716
 20
985.3692132075488
 30
0.0
 11
2629.604837892717
 21
985.3692132075488
 31
0.0
  0
LINE
  5
438
330
1F
100
AcDbEntity
  8
cuerpo
  6
Continuous
100
AcDbLine
 10
2629.604837892717
 20
986.7145072525389
 30
0.0
 11
2629.604837892717
 21
986.5598012975288
 31
0.0
  0
LINE
  5
439
330
1F
100
AcDbEntity
  8
cuerpo
  6
Continuous
100
AcDbLine
 10
2629.604837892717
 20
985.3692132075488
 30
0.0
 11
2629.604837892717
 21
985.0598012975288
 31
0.0
  0
LINE
  5
43A
330
1F
100
AcDbEntity
  8
cuerpo
  6
Continuous
100
AcDbLine
 10
2629.604837892717
 20
983.8692132075498
 30
0.0
 11
2629.604837892717
 21
983.7145072525398
 31
0.0
  0
LINE
  5
43B
330
1F
100
AcDbEntity
  8
cuerpo
  6
Continuous
100
AcDbLine
 10
2630.354837892716
 20
986.5598012975288
 30
0.0
 11
2630.354837892716
 21
986.7145072525389
 31
0.0
  0
LINE
  5
43C
330
1F
100
AcDbEntity
  8
cuerpo
  6
Continuous
100
AcDbLine
 10
2630.354837892716
 20
983.7145072525398
 30
0.0
 11
2630.354837892716
 21
983.8692132075498
 31
0.0
  0
LINE
  5
43D
330
1F
100
AcDbEntity
  8
cuerpo
  6
Continuous
100
AcDbLine
 10
2630.354837892716
 20
985.0598012975288
 30
0.0
 11
2630.354837892716
 21
985.3692132075488
 31
0.0
  0
LINE
  5
43E
330
1F
100
AcDbEntity
  8
cuerpo
  6
Continuous
100
AcDbLine
 10
2630.654837892715
 20
986.5645072525396
 30
0.0
 11
2630.654837892715
 21
983.8645072525396
 31
0.0
  0
LINE
  5
43F
330
1F
100
AcDbEntity
  8
cuerpo
  6
Continuous
100
AcDbLine
 10
2629.604837892717
 20
983.7145072525398
 30
0.0
 11
2630.354837892716
 21
983.7145072525398
 31
0.0
  0
LINE
  5
440
330
1F
100
AcDbEntity
  8
cuerpo
  6
Continuous
100
AcDbLine
 10
2630.354837892716
 20
986.7145072525389
 30
0.0
 11
2629.604837892717
 21
986.7145072525389
 31
0.0
  0
LINE
  5
441
330
1F
100
AcDbEntity
  8
cuerpo
  6
Continuous
100
AcDbLine
 10
2629.604837892717
 20
985.3692132075488
 30
0.0
 11
2629.604837892717
 21
985.0598012975288
 31
0.0
  0
LINE
  5
442
330
1F
100
AcDbEntity
  8
cuerpo
  6
Continuous
100
AcDbLine
 10
2629.604837892717
 20
986.7145072525389
 30
0.0
 11
2629.604837892717
 21
986.5598012975288
 31
0.0
  0
LINE
  5
443
330
1F
100
AcDbEntity
  8
cuerpo
  6
Continuous
100
AcDbLine
 10
2630.654837892715
 20
986.673265015745
 30
0.0
 11
2630.604837892716
 21
986.673265015745
 31
0.0
  0
LINE
  5
444
330
1F
100
AcDbEntity
  8
cuerpo
  6
Continuous
100
AcDbLine
 10
2630.604837892716
 20
986.673265015745
 30
0.0
 11
2630.604837892716
 21
986.7488031943558
 31
0.0
  0
LINE
  5
445
330
1F
100
AcDbEntity
  8
cuerpo
  6
Continuous
100
AcDbLine
 10
2630.679837892716
 20
987.0176726835836
 30
0.0
 11
2630.679837892716
 21
986.8735235698977
 31
0.0
  0
LINE
  5
446
330
1F
100
AcDbEntity
  8
cuerpo
  6
Continuous
100
AcDbLine
 10
2630.654837892715
 20
986.5645072525396
 30
0.0
 11
2630.654837892715
 21
983.8645072525396
 31
0.0
  0
LINE
  5
447
330
1F
100
AcDbEntity
  8
cuerpo
  6
Continuous
100
AcDbLine
 10
2630.354837892716
 20
983.8692132075498
 30
0.0
 11
2629.604837892717
 21
983.8692132075498
 31
0.0
  0
LINE
  5
448
330
1F
100
AcDbEntity
  8
cuerpo
  6
Continuous
100
AcDbLine
 10
2630.654837892715
 20
986.5645049435379
 30
0.0
 11
2630.654837892715
 21
986.673265015745
 31
0.0
  0
LINE
  5
449
330
1F
100
AcDbEntity
  8
cuerpo
  6
Continuous
100
AcDbLine
 10
2629.604837892717
 20
985.0598012975288
 30
0.0
 11
2630.354837892716
 21
985.0598012975288
 31
0.0
  0
LINE
  5
44A
330
1F
100
AcDbEntity
  8
cuerpo
  6
Continuous
100
AcDbLine
 10
2630.354837892716
 20
985.3692132075488
 30
0.0
 11
2629.604837892717
 21
985.3692132075488
 31
0.0
  0
LINE
  5
44B
330
1F
100
AcDbEntity
  8
cuerpo
  6
Continuous
100
AcDbLine
 10
2629.604837892717
 20
986.5598012975288
 30
0.0
 11
2630.354837892716
 21
986.5598012975288
 31
0.0
  0
LINE
  5
44C
330
1F
100
AcDbEntity
  8
cuerpo
  6
Continuous
100
AcDbLine
 10
2630.679837892716
 20
983.6745072525388
 30
0.0
 11
2630.679837892716
 21
983.8001771357809
 31
0.0
  0
LINE
  5
44D
330
1F
100
AcDbEntity
  8
cuerpo
  6
Continuous
100
AcDbLine
 10
2630.604837892716
 20
986.673265015745
 30
0.0
 11
2630.604837892716
 21
986.614506880883
 31
0.0
  0
LINE
  5
44E
330
1F
100
AcDbEntity
  8
cuerpo
  6
Continuous
100
AcDbLine
 10
2630.354837892716
 20
985.0598012975288
 30
0.0
 11
2630.354837892716
 21
985.3692132075488
 31
0.0
  0
LINE
  5
44F
330
1F
100
AcDbEntity
  8
cuerpo
  6
Continuous
100
AcDbLine
 10
2630.679837892716
 20
987.0176726835836
 30
0.0
 11
2630.679837892716
 21
987.8930675260527
 31
0.0
  0
LINE
  5
450
330
1F
100
AcDbEntity
  8
cuerpo
  6
Continuous
100
AcDbLine
 10
2630.354837892716
 20
986.7145072525389
 30
0.0
 11
2629.604837892717
 21
986.7145072525389
 31
0.0
  0
LINE
  5
451
330
1F
100
AcDbEntity
  8
cuerpo
  6
Continuous
100
AcDbLine
 10
2630.354837892716
 20
983.7145072525398
 30
0.0
 11
2630.354837892716
 21
983.8692132075498
 31
0.0
  0
LINE
  5
452
330
1F
100
AcDbEntity
  8
cuerpo
  6
Continuous
100
AcDbLine
 10
2635.759837892716
 20
988.6245072525387
 30
0.0
 11
2635.759837892716
 21
983.6745072525388
 31
0.0
  0
LINE
  5
453
330
1F
100
AcDbEntity
  8
cuerpo
  6
Continuous
100
AcDbLine
 10
2630.679837892716
 20
988.4704653549267
 30
0.0
 11
2630.679837892716
 21
987.8930675260527
 31
0.0
  0
LINE
  5
454
330
1F
100
AcDbEntity
  8
cuerpo
  6
Continuous
100
AcDbLine
 10
2635.834837892716
 20
984.2004399017508
 30
0.0
 11
2635.834837892716
 21
988.5495072525397
 31
0.0
  0
LINE
  5
455
330
1F
100
AcDbEntity
  8
cuerpo
  6
Continuous
100
AcDbLine
 10
2630.354837892716
 20
986.5598012975288
 30
0.0
 11
2630.354837892716
 21
986.7145072525389
 31
0.0
  0
LINE
  5
456
330
1F
100
AcDbEntity
  8
cuerpo
  6
Continuous
100
AcDbLine
 10
2630.679837892716
 20
990.4745072525388
 30
0.0
 11
2633.079837892717
 21
990.4745072525388
 31
0.0
  0
LINE
  5
457
330
1F
100
AcDbEntity
  8
cuerpo
  6
Continuous
100
AcDbLine
 10
2630.679837892716
 20
988.6245072525387
 30
0.0
 11
2630.679837892716
 21
988.4704653549267
 31
0.0
  0
LINE
  5
458
330
1F
100
AcDbEntity
  8
cuerpo
  6
Continuous
100
AcDbLine
 10
2635.759837892716
 20
983.6745072525388
 30
0.0
 11
2635.834837892716
 21
983.7795072525379
 31
0.0
  0
LINE
  5
459
330
1F
100
AcDbEntity
  8
cuerpo
  6
Continuous
100
AcDbLine
 10
2627.504837892716
 20
981.8145072525396
 30
0.0
 11
2627.504837892716
 21
988.6145072525378
 31
0.0
  0
LINE
  5
45A
330
1F
100
AcDbEntity
  8
cuerpo
  6
Continuous
100
AcDbLine
 10
2629.304837892716
 20
983.6694861507778
 30
0.0
 11
2629.304837892716
 21
986.7595283543009
 31
0.0
  0
LINE
  5
45B
330
1F
100
AcDbEntity
  8
cuerpo
  6
Continuous
100
AcDbLine
 10
2629.604837892717
 20
985.0598012975288
 30
0.0
 11
2630.354837892716
 21
985.0598012975288
 31
0.0
  0
LINE
  5
45C
330
1F
100
AcDbEntity
  8
cuerpo
  6
Continuous
100
AcDbLine
 10
2630.354837892716
 20
983.8692132075498
 30
0.0
 11
2629.604837892717
 21
983.8692132075498
 31
0.0
  0
LINE
  5
45D
330
1F
100
AcDbEntity
  8
cuerpo
  6
Continuous
100
AcDbLine
 10
2629.604837892717
 20
986.5598012975288
 30
0.0
 11
2630.354837892716
 21
986.5598012975288
 31
0.0
  0
LINE
  5
45E
330
1F
100
AcDbEntity
  8
cuerpo
  6
Continuous
100
AcDbLine
 10
2630.354837892716
 20
985.3692132075488
 30
0.0
 11
2629.604837892717
 21
985.3692132075488
 31
0.0
  0
LINE
  5
45F
330
1F
100
AcDbEntity
  8
cuerpo
  6
Continuous
100
AcDbLine
 10
2629.604837892717
 20
986.7145072525389
 30
0.0
 11
2629.604837892717
 21
986.5598012975288
 31
0.0
  0
LINE
  5
460
330
1F
100
AcDbEntity
  8
cuerpo
  6
Continuous
100
AcDbLine
 10
2629.604837892717
 20
985.3692132075488
 30
0.0
 11
2629.604837892717
 21
985.0598012975288
 31
0.0
  0
LINE
  5
461
330
1F
100
AcDbEntity
  8
cuerpo
  6
Continuous
100
AcDbLine
 10
2629.604837892717
 20
983.8692132075498
 30
0.0
 11
2629.604837892717
 21
983.7145072525398
 31
0.0
  0
LINE
  5
462
330
1F
100
AcDbEntity
  8
cuerpo
  6
Continuous
100
AcDbLine
 10
2630.354837892716
 20
986.5598012975288
 30
0.0
 11
2630.354837892716
 21
986.7145072525389
 31
0.0
  0
LINE
  5
463
330
1F
100
AcDbEntity
  8
cuerpo
  6
Continuous
100
AcDbLine
 10
2630.354837892716
 20
983.7145072525398
 30
0.0
 11
2630.354837892716
 21
983.8692132075498
 31
0.0
  0
LINE
  5
464
330
1F
100
AcDbEntity
  8
cuerpo
  6
Continuous
100
AcDbLine
 10
2630.354837892716
 20
985.0598012975288
 30
0.0
 11
2630.354837892716
 21
985.3692132075488
 31
0.0
  0
LINE
  5
465
330
1F
100
AcDbEntity
  8
cuerpo
  6
Continuous
100
AcDbLine
 10
2635.759835392717
 20
965.4954881983218
 30
0.0
 11
2635.836773491688
 21
965.4185500993509
 31
0.0
  0
LINE
  5
466
330
1F
100
AcDbEntity
  8
cuerpo
  6
Continuous
100
AcDbLine
 10
2635.834837892716
 20
960.6204856983211
 30
0.0
 11
2635.759835392717
 21
960.5454831983232
 31
0.0
  0
LINE
  5
467
330
1F
100
AcDbEntity
  8
cuerpo
  6
Continuous
100
AcDbLine
 10
2633.97960843054
 20
965.4954856983211
 30
0.0
 11
2635.759835392717
 21
965.4954881983218
 31
0.0
  0
LINE
  5
468
330
1F
100
AcDbEntity
  8
cuerpo
  6
Continuous
100
AcDbLine
 10
2635.759833884018
 20
960.5454816896259
 30
0.0
 11
2633.979608430297
 21
960.545485698322
 31
0.0
  0
LINE
  5
469
330
1F
100
AcDbEntity
  8
cuerpo
  6
Continuous
100
AcDbLine
 10
2630.354837892716
 20
972.1954856983231
 30
0.0
 11
2630.654837892715
 21
971.8954856983232
 31
0.0
  0
LINE
  5
46A
330
1F
100
AcDbEntity
  8
cuerpo
  6
Continuous
100
AcDbLine
 10
2630.604836330216
 20
969.1454841358218
 30
0.0
 11
2630.354837892716
 21
968.8954856983219
 31
0.0
  0
LINE
  5
46B
330
1F
100
AcDbEntity
  8
cuerpo
  6
Continuous
100
AcDbLine
 10
2629.604837892717
 20
968.8954856983219
 30
0.0
 11
2629.304837892716
 21
969.1954856983217
 31
0.0
  0
LINE
  5
46C
330
1F
100
AcDbEntity
  8
cuerpo
  6
Continuous
100
AcDbLine
 10
2629.304837892716
 20
971.8954856983232
 30
0.0
 11
2629.604837892717
 21
972.1954856983231
 31
0.0
  0
LINE
  5
46D
330
1F
100
AcDbEntity
  8
cuerpo
  6
Continuous
100
AcDbLine
 10
2630.354837892716
 20
968.8954856983219
 30
0.0
 11
2629.604837892717
 21
968.8954856983219
 31
0.0
  0
LINE
  5
46E
330
1F
100
AcDbEntity
  8
cuerpo
  6
Continuous
100
AcDbLine
 10
2629.604837892717
 20
972.1954856983231
 30
0.0
 11
2630.354837892716
 21
972.1954856983231
 31
0.0
  0
LINE
  5
46F
330
1F
100
AcDbEntity
  8
cuerpo
  6
Continuous
100
AcDbLine
 10
2627.504837892716
 20
958.8954856983219
 30
0.0
 11
2628.906652915869
 21
957.8391423101319
 31
0.0
  0
LINE
  5
470
330
1F
100
AcDbEntity
  8
cuerpo
  6
Continuous
100
AcDbLine
 10
2628.906652915869
 20
953.1518290865129
 30
0.0
 11
2627.504837892716
 21
952.095485698323
 31
0.0
  0
LINE
  5
471
330
1F
100
AcDbEntity
  8
cuerpo
  6
Continuous
100
AcDbLine
 10
2630.354837892716
 20
972.1954856983231
 30
0.0
 11
2630.654837892715
 21
971.8954856983232
 31
0.0
  0
LINE
  5
472
330
1F
100
AcDbEntity
  8
cuerpo
  6
Continuous
100
AcDbLine
 10
2630.604836330216
 20
969.1454841358218
 30
0.0
 11
2630.354837892716
 21
968.8954856983219
 31
0.0
  0
LINE
  5
473
330
1F
100
AcDbEntity
  8
cuerpo
  6
Continuous
100
AcDbLine
 10
2629.604837892717
 20
968.8954856983219
 30
0.0
 11
2629.304837892716
 21
969.1954856983217
 31
0.0
  0
LINE
  5
474
330
1F
100
AcDbEntity
  8
cuerpo
  6
Continuous
100
AcDbLine
 10
2629.304837892716
 20
971.8954856983232
 30
0.0
 11
2629.604837892717
 21
972.1954856983231
 31
0.0
  0
LINE
  5
475
330
1F
100
AcDbEntity
  8
cuerpo
  6
Continuous
100
AcDbLine
 10
2630.354837892716
 20
968.8954856983219
 30
0.0
 11
2629.604837892717
 21
968.8954856983219
 31
0.0
  0
LINE
  5
476
330
1F
100
AcDbEntity
  8
cuerpo
  6
Continuous
100
AcDbLine
 10
2629.604837892717
 20
972.1954856983231
 30
0.0
 11
2630.354837892716
 21
972.1954856983231
 31
0.0
  0
LINE
  5
477
330
1F
100
AcDbEntity
  8
cuerpo
  6
Continuous
100
AcDbLine
 10
2629.604837892717
 20
953.845485698323
 30
0.0
 11
2629.304837892716
 21
954.1454856983209
 31
0.0
  0
LINE
  5
478
330
1F
100
AcDbEntity
  8
cuerpo
  6
Continuous
100
AcDbLine
 10
2629.304837892716
 20
956.845485698323
 30
0.0
 11
2629.604837892717
 21
957.1454856983219
 31
0.0
  0
LINE
  5
479
330
1F
100
AcDbEntity
  8
cuerpo
  6
Continuous
100
AcDbLine
 10
2630.354837892716
 20
957.1454856983219
 30
0.0
 11
2630.604836330216
 21
956.8954872608211
 31
0.0
  0
LINE
  5
47A
330
1F
100
AcDbEntity
  8
cuerpo
  6
Continuous
100
AcDbLine
 10
2630.654837892715
 20
954.1454856983209
 30
0.0
 11
2630.354837892716
 21
953.845485698323
 31
0.0
  0
LINE
  5
47B
330
1F
100
AcDbEntity
  8
cuerpo
  6
Continuous
100
AcDbLine
 10
2629.604837892717
 20
957.1454856983219
 30
0.0
 11
2630.354837892716
 21
957.1454856983219
 31
0.0
  0
LINE
  5
47C
330
1F
100
AcDbEntity
  8
cuerpo
  6
Continuous
100
AcDbLine
 10
2630.354837892716
 20
953.845485698323
 30
0.0
 11
2629.604837892717
 21
953.845485698323
 31
0.0
  0
LINE
  5
47D
330
1F
100
AcDbEntity
  8
cuerpo
  6
Continuous
100
AcDbLine
 10
2630.354837892716
 20
957.1454856983219
 30
0.0
 11
2630.604836330216
 21
956.8954872608211
 31
0.0
  0
LINE
  5
47E
330
1F
100
AcDbEntity
  8
cuerpo
  6
Continuous
100
AcDbLine
 10
2630.654837892715
 20
954.1454856983209
 30
0.0
 11
2630.354837892716
 21
953.845485698323
 31
0.0
  0
LINE
  5
47F
330
1F
100
AcDbEntity
  8
cuerpo
  6
Continuous
100
AcDbLine
 10
2629.604837892717
 20
953.845485698323
 30
0.0
 11
2629.304837892716
 21
954.1454856983209
 31
0.0
  0
LINE
  5
480
330
1F
100
AcDbEntity
  8
cuerpo
  6
Continuous
100
AcDbLine
 10
2629.304837892716
 20
956.845485698323
 30
0.0
 11
2629.604837892717
 21
957.1454856983219
 31
0.0
  0
LINE
  5
481
330
1F
100
AcDbEntity
  8
cuerpo
  6
Continuous
100
AcDbLine
 10
2629.604837892717
 20
957.1454856983219
 30
0.0
 11
2630.354837892716
 21
957.1454856983219
 31
0.0
  0
LINE
  5
482
330
1F
100
AcDbEntity
  8
cuerpo
  6
Continuous
100
AcDbLine
 10
2630.354837892716
 20
953.845485698323
 30
0.0
 11
2629.604837892717
 21
953.845485698323
 31
0.0
  0
LINE
  5
483
330
1F
100
AcDbEntity
  8
cuerpo
  6
Continuous
100
AcDbLine
 10
2627.504837892716
 20
973.9454856983218
 30
0.0
 11
2628.906652915869
 21
972.8891423101311
 31
0.0
  0
LINE
  5
484
330
1F
100
AcDbEntity
  8
cuerpo
  6
Continuous
100
AcDbLine
 10
2628.906652915869
 20
968.2018290865137
 30
0.0
 11
2627.504837892716
 21
967.145485698321
 31
0.0
  0
LINE
  5
485
330
1F
100
AcDbEntity
  8
cuerpo
  6
Continuous
100
AcDbLine
 10
2631.410697328027
 20
954.1954856983231
 30
0.0
 11
2630.654837892715
 21
954.1954856983231
 31
0.0
  0
LINE
  5
486
330
1F
100
AcDbEntity
  8
cuerpo
  6
Continuous
100
AcDbLine
 10
2630.654837892715
 20
971.845485698323
 30
0.0
 11
2631.411358229053
 21
971.845485698323
 31
0.0
  0
LINE
  5
487
330
1F
100
AcDbEntity
  8
cuerpo
  6
Continuous
100
AcDbLine
 10
2630.354837892716
 20
972.1954856983231
 30
0.0
 11
2630.654837892715
 21
971.8954856983232
 31
0.0
  0
LINE
  5
488
330
1F
100
AcDbEntity
  8
cuerpo
  6
Continuous
100
AcDbLine
 10
2630.604836330216
 20
969.1454841358218
 30
0.0
 11
2630.354837892716
 21
968.8954856983219
 31
0.0
  0
LINE
  5
489
330
1F
100
AcDbEntity
  8
cuerpo
  6
Continuous
100
AcDbLine
 10
2629.604837892717
 20
968.8954856983219
 30
0.0
 11
2629.304837892716
 21
969.1954856983217
 31
0.0
  0
LINE
  5
48A
330
1F
100
AcDbEntity
  8
cuerpo
  6
Continuous
100
AcDbLine
 10
2629.304837892716
 20
971.8954856983232
 30
0.0
 11
2629.604837892717
 21
972.1954856983231
 31
0.0
  0
LINE
  5
48B
330
1F
100
AcDbEntity
  8
cuerpo
  6
Continuous
100
AcDbLine
 10
2630.354837892716
 20
968.8954856983219
 30
0.0
 11
2629.604837892717
 21
968.8954856983219
 31
0.0
  0
LINE
  5
48C
330
1F
100
AcDbEntity
  8
cuerpo
  6
Continuous
100
AcDbLine
 10
2629.604837892717
 20
972.1954856983231
 30
0.0
 11
2630.354837892716
 21
972.1954856983231
 31
0.0
  0
LINE
  5
48D
330
1F
100
AcDbEntity
  8
cuerpo
  6
Continuous
100
AcDbLine
 10
2630.354837892716
 20
957.1454856983219
 30
0.0
 11
2630.604836330216
 21
956.8954872608211
 31
0.0
  0
LINE
  5
48E
330
1F
100
AcDbEntity
  8
cuerpo
  6
Continuous
100
AcDbLine
 10
2630.654837892715
 20
954.1454856983209
 30
0.0
 11
2630.354837892716
 21
953.845485698323
 31
0.0
  0
LINE
  5
48F
330
1F
100
AcDbEntity
  8
cuerpo
  6
Continuous
100
AcDbLine
 10
2629.604837892717
 20
953.845485698323
 30
0.0
 11
2629.304837892716
 21
954.1454856983209
 31
0.0
  0
LINE
  5
490
330
1F
100
AcDbEntity
  8
cuerpo
  6
Continuous
100
AcDbLine
 10
2629.304837892716
 20
956.845485698323
 30
0.0
 11
2629.604837892717
 21
957.1454856983219
 31
0.0
  0
LINE
  5
491
330
1F
100
AcDbEntity
  8
cuerpo
  6
Continuous
100
AcDbLine
 10
2630.354837892716
 20
953.845485698323
 30
0.0
 11
2629.604837892717
 21
953.845485698323
 31
0.0
  0
LINE
  5
492
330
1F
100
AcDbEntity
  8
cuerpo
  6
Continuous
100
AcDbLine
 10
2629.604837892717
 20
957.1454856983219
 30
0.0
 11
2630.354837892716
 21
957.1454856983219
 31
0.0
  0
LINE
  5
493
330
1F
100
AcDbEntity
  8
cuerpo
  6
Continuous
100
AcDbLine
 10
2629.604837892717
 20
968.902754415525
 30
0.0
 11
2630.354837892716
 21
968.902754415525
 31
0.0
  0
LINE
  5
494
330
1F
100
AcDbEntity
  8
cuerpo
  6
Continuous
100
AcDbLine
 10
2630.354837892716
 20
969.5901407697679
 30
0.0
 11
2629.604837892717
 21
969.5901407697679
 31
0.0
  0
LINE
  5
495
330
1F
100
AcDbEntity
  8
cuerpo
  6
Continuous
100
AcDbLine
 10
2629.604837892717
 20
971.2328720525659
 30
0.0
 11
2629.604837892717
 21
971.5008306268769
 31
0.0
  0
LINE
  5
496
330
1F
100
AcDbEntity
  8
cuerpo
  6
Continuous
100
AcDbLine
 10
2629.604837892717
 20
972.1882169811211
 30
0.0
 11
2629.604837892717
 21
972.1954856983231
 31
0.0
  0
LINE
  5
497
330
1F
100
AcDbEntity
  8
cuerpo
  6
Continuous
100
AcDbLine
 10
2629.604837892717
 20
968.902754415525
 30
0.0
 11
2629.604837892717
 21
968.8954856983219
 31
0.0
  0
LINE
  5
498
330
1F
100
AcDbEntity
  8
cuerpo
  6
Continuous
100
AcDbLine
 10
2629.604837892717
 20
969.5901407697679
 30
0.0
 11
2629.604837892717
 21
969.8580993440778
 31
0.0
  0
LINE
  5
499
330
1F
100
AcDbEntity
  8
cuerpo
  6
Continuous
100
AcDbLine
 10
2630.354837892716
 20
972.1882169811211
 30
0.0
 11
2630.354837892716
 21
972.1954856983231
 31
0.0
  0
LINE
  5
49A
330
1F
100
AcDbEntity
  8
cuerpo
  6
Continuous
100
AcDbLine
 10
2630.354837892716
 20
971.5008306268769
 30
0.0
 11
2630.354837892716
 21
971.2328720525659
 31
0.0
  0
LINE
  5
49B
330
1F
100
AcDbEntity
  8
cuerpo
  6
Continuous
100
AcDbLine
 10
2630.354837892716
 20
969.8580993440778
 30
0.0
 11
2630.354837892716
 21
969.5901407697679
 31
0.0
  0
LINE
  5
49C
330
1F
100
AcDbEntity
  8
cuerpo
  6
Continuous
100
AcDbLine
 10
2630.354837892716
 20
968.902754415525
 30
0.0
 11
2630.354837892716
 21
968.8954856983219
 31
0.0
  0
LINE
  5
49D
330
1F
100
AcDbEntity
  8
cuerpo
  6
Continuous
100
AcDbLine
 10
2630.654837892715
 20
970.545485698323
 30
0.0
 11
2630.654837892715
 21
971.8954856983232
 31
0.0
  0
LINE
  5
49E
330
1F
100
AcDbEntity
  8
cuerpo
  6
Continuous
100
AcDbLine
 10
2630.654837892715
 20
970.1384094523969
 30
0.0
 11
2630.654837892715
 21
970.545485698323
 31
0.0
  0
LINE
  5
49F
330
1F
100
AcDbEntity
  8
cuerpo
  6
Continuous
100
AcDbLine
 10
2629.604837892717
 20
969.8580993440778
 30
0.0
 11
2630.354837892716
 21
969.8580993440778
 31
0.0
  0
LINE
  5
4A0
330
1F
100
AcDbEntity
  8
cuerpo
  6
Continuous
100
AcDbLine
 10
2630.354837892716
 20
971.2328720525659
 30
0.0
 11
2629.604837892717
 21
971.2328720525659
 31
0.0
  0
LINE
  5
4A1
330
1F
100
AcDbEntity
  8
cuerpo
  6
Continuous
100
AcDbLine
 10
2629.604837892717
 20
971.5008306268769
 30
0.0
 11
2630.354837892716
 21
971.5008306268769
 31
0.0
  0
LINE
  5
4A2
330
1F
100
AcDbEntity
  8
cuerpo
  6
Continuous
100
AcDbLine
 10
2630.354837892716
 20
972.1882169811211
 30
0.0
 11
2629.604837892717
 21
972.1882169811211
 31
0.0
  0
LINE
  5
4A3
330
1F
100
AcDbEntity
  8
cuerpo
  6
Continuous
100
AcDbLine
 10
2629.604837892717
 20
971.2328720525659
 30
0.0
 11
2629.604837892717
 21
971.5008306268769
 31
0.0
  0
LINE
  5
4A4
330
1F
100
AcDbEntity
  8
cuerpo
  6
Continuous
100
AcDbLine
 10
2629.604837892717
 20
972.1882169811211
 30
0.0
 11
2629.604837892717
 21
972.1954856983231
 31
0.0
  0
LINE
  5
4A5
330
1F
100
AcDbEntity
  8
cuerpo
  6
Continuous
100
AcDbLine
 10
2629.604837892717
 20
968.902754415525
 30
0.0
 11
2629.604837892717
 21
968.8954856983219
 31
0.0
  0
LINE
  5
4A6
330
1F
100
AcDbEntity
  8
cuerpo
  6
Continuous
100
AcDbLine
 10
2629.604837892717
 20
969.5901407697679
 30
0.0
 11
2629.604837892717
 21
969.8580993440778
 31
0.0
  0
LINE
  5
4A7
330
1F
100
AcDbEntity
  8
cuerpo
  6
Continuous
100
AcDbLine
 10
2630.354837892716
 20
972.1882169811211
 30
0.0
 11
2630.354837892716
 21
972.1954856983231
 31
0.0
  0
LINE
  5
4A8
330
1F
100
AcDbEntity
  8
cuerpo
  6
Continuous
100
AcDbLine
 10
2630.354837892716
 20
971.5008306268769
 30
0.0
 11
2630.354837892716
 21
971.2328720525659
 31
0.0
  0
LINE
  5
4A9
330
1F
100
AcDbEntity
  8
cuerpo
  6
Continuous
100
AcDbLine
 10
2630.354837892716
 20
969.8580993440778
 30
0.0
 11
2630.354837892716
 21
969.5901407697679
 31
0.0
  0
LINE
  5
4AA
330
1F
100
AcDbEntity
  8
cuerpo
  6
Continuous
100
AcDbLine
 10
2630.354837892716
 20
968.902754415525
 30
0.0
 11
2630.354837892716
 21
968.8954856983219
 31
0.0
  0
LINE
  5
4AB
330
1F
100
AcDbEntity
  8
cuerpo
  6
Continuous
100
AcDbLine
 10
2630.654837892715
 20
970.545485698323
 30
0.0
 11
2630.654837892715
 21
971.8954856983232
 31
0.0
  0
LINE
  5
4AC
330
1F
100
AcDbEntity
  8
cuerpo
  6
Continuous
100
AcDbLine
 10
2630.654837892715
 20
970.1384094523969
 30
0.0
 11
2630.654837892715
 21
970.545485698323
 31
0.0
  0
LINE
  5
4AD
330
1F
100
AcDbEntity
  8
cuerpo
  6
Continuous
100
AcDbLine
 10
2629.604837892717
 20
968.902754415525
 30
0.0
 11
2630.354837892716
 21
968.902754415525
 31
0.0
  0
LINE
  5
4AE
330
1F
100
AcDbEntity
  8
cuerpo
  6
Continuous
100
AcDbLine
 10
2630.354837892716
 20
969.5901407697679
 30
0.0
 11
2629.604837892717
 21
969.5901407697679
 31
0.0
  0
LINE
  5
4AF
330
1F
100
AcDbEntity
  8
cuerpo
  6
Continuous
100
AcDbLine
 10
2629.604837892717
 20
969.8580993440778
 30
0.0
 11
2630.354837892716
 21
969.8580993440778
 31
0.0
  0
LINE
  5
4B0
330
1F
100
AcDbEntity
  8
cuerpo
  6
Continuous
100
AcDbLine
 10
2630.354837892716
 20
971.2328720525659
 30
0.0
 11
2629.604837892717
 21
971.2328720525659
 31
0.0
  0
LINE
  5
4B1
330
1F
100
AcDbEntity
  8
cuerpo
  6
Continuous
100
AcDbLine
 10
2629.604837892717
 20
971.5008306268769
 30
0.0
 11
2630.354837892716
 21
971.5008306268769
 31
0.0
  0
LINE
  5
4B2
330
1F
100
AcDbEntity
  8
cuerpo
  6
Continuous
100
AcDbLine
 10
2630.354837892716
 20
972.1882169811211
 30
0.0
 11
2629.604837892717
 21
972.1882169811211
 31
0.0
  0
LINE
  5
4B3
330
1F
100
AcDbEntity
  8
cuerpo
  6
Continuous
100
AcDbLine
 10
2629.604837892717
 20
971.2328720525659
 30
0.0
 11
2629.604837892717
 21
971.5008306268769
 31
0.0
  0
LINE
  5
4B4
330
1F
100
AcDbEntity
  8
cuerpo
  6
Continuous
100
AcDbLine
 10
2629.604837892717
 20
972.1882169811211
 30
0.0
 11
2629.604837892717
 21
972.1954856983231
 31
0.0
  0
LINE
  5
4B5
330
1F
100
AcDbEntity
  8
cuerpo
  6
Continuous
100
AcDbLine
 10
2629.604837892717
 20
968.902754415525
 30
0.0
 11
2629.604837892717
 21
968.8954856983219
 31
0.0
  0
LINE
  5
4B6
330
1F
100
AcDbEntity
  8
cuerpo
  6
Continuous
100
AcDbLine
 10
2629.604837892717
 20
969.5901407697679
 30
0.0
 11
2629.604837892717
 21
969.8580993440778
 31
0.0
  0
LINE
  5
4B7
330
1F
100
AcDbEntity
  8
cuerpo
  6
Continuous
100
AcDbLine
 10
2629.604837892717
 20
968.902754415525
 30
0.0
 11
2630.354837892716
 21
968.902754415525
 31
0.0
  0
LINE
  5
4B8
330
1F
100
AcDbEntity
  8
cuerpo
  6
Continuous
100
AcDbLine
 10
2630.354837892716
 20
969.5901407697679
 30
0.0
 11
2629.604837892717
 21
969.5901407697679
 31
0.0
  0
LINE
  5
4B9
330
1F
100
AcDbEntity
  8
cuerpo
  6
Continuous
100
AcDbLine
 10
2630.354837892716
 20
972.1882169811211
 30
0.0
 11
2630.354837892716
 21
972.1954856983231
 31
0.0
  0
LINE
  5
4BA
330
1F
100
AcDbEntity
  8
cuerpo
  6
Continuous
100
AcDbLine
 10
2630.354837892716
 20
971.5008306268769
 30
0.0
 11
2630.354837892716
 21
971.2328720525659
 31
0.0
  0
LINE
  5
4BB
330
1F
100
AcDbEntity
  8
cuerpo
  6
Continuous
100
AcDbLine
 10
2630.354837892716
 20
969.8580993440778
 30
0.0
 11
2630.354837892716
 21
969.5901407697679
 31
0.0
  0
LINE
  5
4BC
330
1F
100
AcDbEntity
  8
cuerpo
  6
Continuous
100
AcDbLine
 10
2630.354837892716
 20
968.902754415525
 30
0.0
 11
2630.354837892716
 21
968.8954856983219
 31
0.0
  0
LINE
  5
4BD
330
1F
100
AcDbEntity
  8
cuerpo
  6
Continuous
100
AcDbLine
 10
2630.654837892715
 20
970.545485698323
 30
0.0
 11
2630.654837892715
 21
971.8954856983232
 31
0.0
  0
LINE
  5
4BE
330
1F
100
AcDbEntity
  8
cuerpo
  6
Continuous
100
AcDbLine
 10
2630.654837892715
 20
970.1384094523969
 30
0.0
 11
2630.654837892715
 21
970.545485698323
 31
0.0
  0
LINE
  5
4BF
330
1F
100
AcDbEntity
  8
cuerpo
  6
Continuous
100
AcDbLine
 10
2629.604837892717
 20
969.8580993440778
 30
0.0
 11
2630.354837892716
 21
969.8580993440778
 31
0.0
  0
LINE
  5
4C0
330
1F
100
AcDbEntity
  8
cuerpo
  6
Continuous
100
AcDbLine
 10
2630.354837892716
 20
971.2328720525659
 30
0.0
 11
2629.604837892717
 21
971.2328720525659
 31
0.0
  0
LINE
  5
4C1
330
1F
100
AcDbEntity
  8
cuerpo
  6
Continuous
100
AcDbLine
 10
2629.604837892717
 20
971.5008306268769
 30
0.0
 11
2630.354837892716
 21
971.5008306268769
 31
0.0
  0
LINE
  5
4C2
330
1F
100
AcDbEntity
  8
cuerpo
  6
Continuous
100
AcDbLine
 10
2630.354837892716
 20
972.1882169811211
 30
0.0
 11
2629.604837892717
 21
972.1882169811211
 31
0.0
  0
LINE
  5
4C3
330
1F
100
AcDbEntity
  8
cuerpo
  6
Continuous
100
AcDbLine
 10
2627.504837892716
 20
967.145485698321
 30
0.0
 11
2627.504837892716
 21
973.9454856983218
 31
0.0
  0
LINE
  5
4C4
330
1F
100
AcDbEntity
  8
cuerpo
  6
Continuous
100
AcDbLine
 10
2629.304837892716
 20
969.0004645965608
 30
0.0
 11
2629.304837892716
 21
972.090506800084
 31
0.0
  0
LINE
  5
4C5
330
1F
100
AcDbEntity
  8
cuerpo
  6
Continuous
100
AcDbLine
 10
2629.604837892717
 20
956.1828720525658
 30
0.0
 11
2629.604837892717
 21
956.4508306268761
 31
0.0
  0
LINE
  5
4C6
330
1F
100
AcDbEntity
  8
cuerpo
  6
Continuous
100
AcDbLine
 10
2629.604837892717
 20
957.1382169811208
 30
0.0
 11
2629.604837892717
 21
957.1454856983219
 31
0.0
  0
LINE
  5
4C7
330
1F
100
AcDbEntity
  8
cuerpo
  6
Continuous
100
AcDbLine
 10
2630.354837892716
 20
957.1382169811208
 30
0.0
 11
2630.354837892716
 21
957.1454856983219
 31
0.0
  0
LINE
  5
4C8
330
1F
100
AcDbEntity
  8
cuerpo
  6
Continuous
100
AcDbLine
 10
2630.354837892716
 20
956.4508306268761
 30
0.0
 11
2630.354837892716
 21
956.1828720525658
 31
0.0
  0
LINE
  5
4C9
330
1F
100
AcDbEntity
  8
cuerpo
  6
Continuous
100
AcDbLine
 10
2630.354837892716
 20
956.1828720525658
 30
0.0
 11
2629.604837892717
 21
956.1828720525658
 31
0.0
  0
LINE
  5
4CA
330
1F
100
AcDbEntity
  8
cuerpo
  6
Continuous
100
AcDbLine
 10
2629.604837892717
 20
956.4508306268761
 30
0.0
 11
2630.354837892716
 21
956.4508306268761
 31
0.0
  0
LINE
  5
4CB
330
1F
100
AcDbEntity
  8
cuerpo
  6
Continuous
100
AcDbLine
 10
2630.354837892716
 20
957.1382169811208
 30
0.0
 11
2629.604837892717
 21
957.1382169811208
 31
0.0
  0
LINE
  5
4CC
330
1F
100
AcDbEntity
  8
cuerpo
  6
Continuous
100
AcDbLine
 10
2630.654837892715
 20
970.1384588983486
 30
0.0
 11
2630.654837892715
 21
969.3442177762269
 31
0.0
  0
LINE
  5
4CD
330
1F
100
AcDbEntity
  8
cuerpo
  6
Continuous
100
AcDbLine
 10
2630.654837892715
 20
969.3442177762269
 30
0.0
 11
2630.604837892716
 21
969.3442177762269
 31
0.0
  0
LINE
  5
4CE
330
1F
100
AcDbEntity
  8
cuerpo
  6
Continuous
100
AcDbLine
 10
2630.604837892716
 20
969.3442177762269
 30
0.0
 11
2630.604837892716
 21
968.98619971429
 31
0.0
  0
LINE
  5
4CF
330
1F
100
AcDbEntity
  8
cuerpo
  6
Continuous
100
AcDbLine
 10
2630.604837892716
 20
957.0547716823538
 30
0.0
 11
2630.604837892716
 21
956.696753620417
 31
0.0
  0
LINE
  5
4D0
330
1F
100
AcDbEntity
  8
cuerpo
  6
Continuous
100
AcDbLine
 10
2630.604837892716
 20
956.696753620417
 30
0.0
 11
2630.654837892715
 21
956.696753620417
 31
0.0
  0
LINE
  5
4D1
330
1F
100
AcDbEntity
  8
cuerpo
  6
Continuous
100
AcDbLine
 10
2630.654837892715
 20
956.6967536204179
 30
0.0
 11
2630.654837892715
 21
955.9025124982948
 31
0.0
  0
LINE
  5
4D2
330
1F
100
AcDbEntity
  8
cuerpo
  6
Continuous
100
AcDbLine
 10
2633.979863464658
 20
965.4953598429438
 30
0.0
 11
2633.979350088356
 21
965.495372891605
 31
0.0
  0
LINE
  5
4D3
330
1F
100
AcDbEntity
  8
cuerpo
  6
Continuous
100
AcDbLine
 10
2629.604837892717
 20
956.1828720525658
 30
0.0
 11
2629.604837892717
 21
956.4508306268761
 31
0.0
  0
LINE
  5
4D4
330
1F
100
AcDbEntity
  8
cuerpo
  6
Continuous
100
AcDbLine
 10
2629.604837892717
 20
957.1382169811208
 30
0.0
 11
2629.604837892717
 21
957.1454856983219
 31
0.0
  0
LINE
  5
4D5
330
1F
100
AcDbEntity
  8
cuerpo
  6
Continuous
100
AcDbLine
 10
2630.354837892716
 20
957.1382169811208
 30
0.0
 11
2630.354837892716
 21
957.1454856983219
 31
0.0
  0
LINE
  5
4D6
330
1F
100
AcDbEntity
  8
cuerpo
  6
Continuous
100
AcDbLine
 10
2630.354837892716
 20
956.4508306268761
 30
0.0
 11
2630.354837892716
 21
956.1828720525658
 31
0.0
  0
LINE
  5
4D7
330
1F
100
AcDbEntity
  8
cuerpo
  6
Continuous
100
AcDbLine
 10
2630.354837892716
 20
956.1828720525658
 30
0.0
 11
2629.604837892717
 21
956.1828720525658
 31
0.0
  0
LINE
  5
4D8
330
1F
100
AcDbEntity
  8
cuerpo
  6
Continuous
100
AcDbLine
 10
2629.604837892717
 20
956.4508306268761
 30
0.0
 11
2630.354837892716
 21
956.4508306268761
 31
0.0
  0
LINE
  5
4D9
330
1F
100
AcDbEntity
  8
cuerpo
  6
Continuous
100
AcDbLine
 10
2630.354837892716
 20
957.1382169811208
 30
0.0
 11
2629.604837892717
 21
957.1382169811208
 31
0.0
  0
LINE
  5
4DA
330
1F
100
AcDbEntity
  8
cuerpo
  6
Continuous
100
AcDbLine
 10
2630.354837892716
 20
957.1382169811208
 30
0.0
 11
2630.354837892716
 21
957.1454856983219
 31
0.0
  0
LINE
  5
4DB
330
1F
100
AcDbEntity
  8
cuerpo
  6
Continuous
100
AcDbLine
 10
2630.354837892716
 20
956.4508306268761
 30
0.0
 11
2630.354837892716
 21
956.1828720525658
 31
0.0
  0
LINE
  5
4DC
330
1F
100
AcDbEntity
  8
cuerpo
  6
Continuous
100
AcDbLine
 10
2629.604837892717
 20
956.1828720525658
 30
0.0
 11
2629.604837892717
 21
956.4508306268761
 31
0.0
  0
LINE
  5
4DD
330
1F
100
AcDbEntity
  8
cuerpo
  6
Continuous
100
AcDbLine
 10
2629.604837892717
 20
957.1382169811208
 30
0.0
 11
2629.604837892717
 21
957.1454856983219
 31
0.0
  0
LINE
  5
4DE
330
1F
100
AcDbEntity
  8
cuerpo
  6
Continuous
100
AcDbLine
 10
2630.354837892716
 20
956.1828720525658
 30
0.0
 11
2629.604837892717
 21
956.1828720525658
 31
0.0
  0
LINE
  5
4DF
330
1F
100
AcDbEntity
  8
cuerpo
  6
Continuous
100
AcDbLine
 10
2629.604837892717
 20
956.4508306268761
 30
0.0
 11
2630.354837892716
 21
956.4508306268761
 31
0.0
  0
LINE
  5
4E0
330
1F
100
AcDbEntity
  8
cuerpo
  6
Continuous
100
AcDbLine
 10
2630.354837892716
 20
957.1382169811208
 30
0.0
 11
2629.604837892717
 21
957.1382169811208
 31
0.0
  0
LINE
  5
4E1
330
1F
100
AcDbEntity
  8
cuerpo
  6
Continuous
100
AcDbLine
 10
2633.97935129423
 20
960.5455988858947
 30
0.0
 11
2633.979864738896
 21
960.5456119774778
 31
0.0
  0
LINE
  5
4E2
330
1F
100
AcDbEntity
  8
cuerpo
  6
Continuous
100
AcDbLine
 10
2629.604837892717
 20
954.8080993440787
 30
0.0
 11
2630.354837892716
 21
954.8080993440787
 31
0.0
  0
LINE
  5
4E3
330
1F
100
AcDbEntity
  8
cuerpo
  6
Continuous
100
AcDbLine
 10
2629.604837892717
 20
954.5401407697667
 30
0.0
 11
2629.604837892717
 21
954.8080993440787
 31
0.0
  0
LINE
  5
4E4
330
1F
100
AcDbEntity
  8
cuerpo
  6
Continuous
100
AcDbLine
 10
2629.604837892717
 20
954.8080993440787
 30
0.0
 11
2630.354837892716
 21
954.8080993440787
 31
0.0
  0
LINE
  5
4E5
330
1F
100
AcDbEntity
  8
cuerpo
  6
Continuous
100
AcDbLine
 10
2630.654837892715
 20
955.495485698322
 30
0.0
 11
2630.654837892715
 21
955.9025619442468
 31
0.0
  0
LINE
  5
4E6
330
1F
100
AcDbEntity
  8
cuerpo
  6
Continuous
100
AcDbLine
 10
2630.654837892715
 20
954.1454856983209
 30
0.0
 11
2630.654837892715
 21
955.495485698322
 31
0.0
  0
LINE
  5
4E7
330
1F
100
AcDbEntity
  8
cuerpo
  6
Continuous
100
AcDbLine
 10
2629.604837892717
 20
953.8527544155238
 30
0.0
 11
2630.354837892716
 21
953.8527544155238
 31
0.0
  0
LINE
  5
4E8
330
1F
100
AcDbEntity
  8
cuerpo
  6
Continuous
100
AcDbLine
 10
2630.354837892716
 20
954.5401407697667
 30
0.0
 11
2629.604837892717
 21
954.5401407697667
 31
0.0
  0
LINE
  5
4E9
330
1F
100
AcDbEntity
  8
cuerpo
  6
Continuous
100
AcDbLine
 10
2629.604837892717
 20
953.8527544155238
 30
0.0
 11
2629.604837892717
 21
953.845485698323
 31
0.0
  0
LINE
  5
4EA
330
1F
100
AcDbEntity
  8
cuerpo
  6
Continuous
100
AcDbLine
 10
2629.604837892717
 20
954.5401407697667
 30
0.0
 11
2629.604837892717
 21
954.8080993440787
 31
0.0
  0
LINE
  5
4EB
330
1F
100
AcDbEntity
  8
cuerpo
  6
Continuous
100
AcDbLine
 10
2630.354837892716
 20
954.8080993440787
 30
0.0
 11
2630.354837892716
 21
954.5401407697667
 31
0.0
  0
LINE
  5
4EC
330
1F
100
AcDbEntity
  8
cuerpo
  6
Continuous
100
AcDbLine
 10
2630.354837892716
 20
953.8527544155238
 30
0.0
 11
2630.354837892716
 21
953.845485698323
 31
0.0
  0
LINE
  5
4ED
330
1F
100
AcDbEntity
  8
cuerpo
  6
Continuous
100
AcDbLine
 10
2630.654837892715
 20
955.495485698322
 30
0.0
 11
2630.654837892715
 21
955.9025619442468
 31
0.0
  0
LINE
  5
4EE
330
1F
100
AcDbEntity
  8
cuerpo
  6
Continuous
100
AcDbLine
 10
2630.654837892715
 20
954.1454856983209
 30
0.0
 11
2630.654837892715
 21
955.495485698322
 31
0.0
  0
LINE
  5
4EF
330
1F
100
AcDbEntity
  8
cuerpo
  6
Continuous
100
AcDbLine
 10
2629.604837892717
 20
954.8080993440787
 30
0.0
 11
2630.354837892716
 21
954.8080993440787
 31
0.0
  0
LINE
  5
4F0
330
1F
100
AcDbEntity
  8
cuerpo
  6
Continuous
100
AcDbLine
 10
2629.604837892717
 20
953.8527544155238
 30
0.0
 11
2629.604837892717
 21
953.845485698323
 31
0.0
  0
LINE
  5
4F1
330
1F
100
AcDbEntity
  8
cuerpo
  6
Continuous
100
AcDbLine
 10
2630.654837892715
 20
955.495485698322
 30
0.0
 11
2630.654837892715
 21
955.9025619442468
 31
0.0
  0
LINE
  5
4F2
330
1F
100
AcDbEntity
  8
cuerpo
  6
Continuous
100
AcDbLine
 10
2630.654837892715
 20
954.1454856983209
 30
0.0
 11
2630.654837892715
 21
955.495485698322
 31
0.0
  0
LINE
  5
4F3
330
1F
100
AcDbEntity
  8
cuerpo
  6
Continuous
100
AcDbLine
 10
2630.354837892716
 20
954.5401407697667
 30
0.0
 11
2629.604837892717
 21
954.5401407697667
 31
0.0
  0
LINE
  5
4F4
330
1F
100
AcDbEntity
  8
cuerpo
  6
Continuous
100
AcDbLine
 10
2629.604837892717
 20
953.8527544155238
 30
0.0
 11
2630.354837892716
 21
953.8527544155238
 31
0.0
  0
LINE
  5
4F5
330
1F
100
AcDbEntity
  8
cuerpo
  6
Continuous
100
AcDbLine
 10
2630.679837892716
 20
958.0004856983229
 30
0.0
 11
2630.679837892716
 21
968.0404856983217
 31
0.0
  0
LINE
  5
4F6
330
1F
100
AcDbEntity
  8
cuerpo
  6
Continuous
100
AcDbLine
 10
2630.354837892716
 20
953.8527544155238
 30
0.0
 11
2630.354837892716
 21
953.845485698323
 31
0.0
  0
LINE
  5
4F7
330
1F
100
AcDbEntity
  8
cuerpo
  6
Continuous
100
AcDbLine
 10
2630.354837892716
 20
954.8080993440787
 30
0.0
 11
2630.354837892716
 21
954.5401407697667
 31
0.0
  0
LINE
  5
4F8
330
1F
100
AcDbEntity
  8
cuerpo
  6
Continuous
100
AcDbLine
 10
2635.836773491688
 20
965.4185500993509
 30
0.0
 11
2635.836293142033
 21
964.2278341457959
 31
0.0
  0
LINE
  5
4F9
330
1F
100
AcDbEntity
  8
cuerpo
  6
Continuous
100
AcDbLine
 10
2635.835319023215
 20
961.8131372508479
 30
0.0
 11
2635.834837892716
 21
960.6204856983211
 31
0.0
  0
LINE
  5
4FA
330
1F
100
AcDbEntity
  8
cuerpo
  6
Continuous
100
AcDbLine
 10
2627.504837892716
 20
952.095485698323
 30
0.0
 11
2627.504837892716
 21
958.8954856983219
 31
0.0
  0
LINE
  5
4FB
330
1F
100
AcDbEntity
  8
cuerpo
  6
Continuous
100
AcDbLine
 10
2629.304837892716
 20
953.9504645965598
 30
0.0
 11
2629.304837892716
 21
957.0405068000839
 31
0.0
  0
LINE
  5
4FC
330
1F
100
AcDbEntity
  8
cuerpo
  6
Continuous
100
AcDbLine
 10
2629.604837892717
 20
953.8527544155238
 30
0.0
 11
2630.354837892716
 21
953.8527544155238
 31
0.0
  0
LINE
  5
4FD
330
1F
100
AcDbEntity
  8
cuerpo
  6
Continuous
100
AcDbLine
 10
2630.354837892716
 20
954.5401407697667
 30
0.0
 11
2629.604837892717
 21
954.5401407697667
 31
0.0
  0
LINE
  5
4FE
330
1F
100
AcDbEntity
  8
cuerpo
  6
Continuous
100
AcDbLine
 10
2629.604837892717
 20
953.8527544155238
 30
0.0
 11
2629.604837892717
 21
953.845485698323
 31
0.0
  0
LINE
  5
4FF
330
1F
100
AcDbEntity
  8
cuerpo
  6
Continuous
100
AcDbLine
 10
2629.604837892717
 20
954.5401407697667
 30
0.0
 11
2629.604837892717
 21
954.8080993440787
 31
0.0
  0
LINE
  5
500
330
1F
100
AcDbEntity
  8
cuerpo
  6
Continuous
100
AcDbLine
 10
2630.354837892716
 20
954.8080993440787
 30
0.0
 11
2630.354837892716
 21
954.5401407697667
 31
0.0
  0
LINE
  5
501
330
1F
100
AcDbEntity
  8
cuerpo
  6
Continuous
100
AcDbLine
 10
2630.354837892716
 20
953.8527544155238
 30
0.0
 11
2630.354837892716
 21
953.845485698323
 31
0.0
  0
ARC
  5
502
330
1F
100
AcDbEntity
  8
cuerpo
  6
Continuous
100
AcDbCircle
 10
2635.864837892717
 20
988.5195072525389
 30
0.0
 40
0.03
100
AcDbArc
 50
90.0
 51
180.0
  0
ARC
  5
503
330
1F
100
AcDbEntity
  8
cuerpo
  6
Continuous
100
AcDbCircle
 10
2635.864837892717
 20
983.7795072525379
 30
0.0
 40
0.03
100
AcDbArc
 50
180.0
 51
270.0
  0
ARC
  5
504
330
1F
100
AcDbEntity
  8
cuerpo
  6
Continuous
100
AcDbCircle
 10
2635.864837892717
 20
986.7495072525398
 30
0.0
 40
3.000000000000011
100
AcDbArc
 50
270.0
 51
304.5677107043322
  0
ARC
  5
505
330
1F
100
AcDbEntity
  8
cuerpo
  6
Continuous
100
AcDbCircle
 10
2635.864837892717
 20
985.549507252537
 30
0.0
 40
3.000000000000011
100
AcDbArc
 50
70.78996653781281
 51
90.0
  0
ARC
  5
506
330
1F
100
AcDbEntity
  8
cuerpo
  6
Continuous
100
AcDbCircle
 10
2628.304837892717
 20
983.6694861507778
 30
0.0
 40
0.9999999999999998
100
AcDbArc
 50
307.0000000000324
 51
0.0
  0
ARC
  5
507
330
1F
100
AcDbEntity
  8
cuerpo
  6
Continuous
100
AcDbCircle
 10
2628.304837892717
 20
986.7595283543009
 30
0.0
 40
0.9999999999999998
100
AcDbArc
 50
0.0
 51
52.99999999996764
  0
ARC
  5
508
330
1F
100
AcDbEntity
  8
cuerpo
  6
Continuous
100
AcDbCircle
 10
2628.304837892717
 20
969.0004645965608
 30
0.0
 40
0.9999999999999998
100
AcDbArc
 50
307.0000000000324
 51
0.0
  0
ARC
  5
509
330
1F
100
AcDbEntity
  8
cuerpo
  6
Continuous
100
AcDbCircle
 10
2628.304837892717
 20
972.090506800084
 30
0.0
 40
0.9999999999999998
100
AcDbArc
 50
0.0
 51
52.99999999996764
  0
ARC
  5
50A
330
1F
100
AcDbEntity
  8
cuerpo
  6
Continuous
100
AcDbCircle
 10
2635.864306022575
 20
960.6499376966578
 30
0.0
 40
0.0294570190358494
100
AcDbArc
 50
179.5618373197951
 51
271.0578680754596
  0
ARC
  5
50B
330
1F
100
AcDbEntity
  8
cuerpo
  6
Continuous
100
AcDbCircle
 10
2635.864837892717
 20
965.3904856983231
 30
0.0
 40
0.0299999999999997
100
AcDbArc
 50
90.0
 51
159.3439850571875
  0
ARC
  5
50C
330
1F
100
AcDbEntity
  8
cuerpo
  6
Continuous
100
AcDbCircle
 10
2628.304837892717
 20
957.0405068000848
 30
0.0
 40
0.9999999999999998
100
AcDbArc
 50
0.0
 51
52.99999999996764
  0
ARC
  5
50D
330
1F
100
AcDbEntity
  8
cuerpo
  6
Continuous
100
AcDbCircle
 10
2628.304837892717
 20
953.9504645965598
 30
0.0
 40
0.9999999999999998
100
AcDbArc
 50
307.0000000000324
 51
0.0
  0
SPLINE
  5
50E
330
1F
100
AcDbEntity
  8
cuerpo
  6
Continuous
100
AcDbSpline
210
0.0
220
0.0
230
1.0
 70
     8
 71
     3
 72
    19
 73
    15
 74
     0
 42
0.000000001
 43
0.0000000001
 40
0.0
 40
0.0
 40
0.0
 40
0.0
 40
0.070191662279966
 40
0.1540126121937198
 40
0.2417990010647568
 40
0.3318425300574269
 40
0.4232515884119356
 40
0.5154783987033711
 40
0.6081732054770417
 40
0.7083931438627788
 40
0.8041100119895439
 40
0.8956787923910527
 40
0.983514942284979
 40
1.0
 40
1.0
 40
1.0
 40
1.0
 10
2633.427451589018
 20
988.6248451384737
 30
0.0
 10
2633.414584613863
 20
988.6247777779908
 30
0.0
 10
2633.386575999202
 20
988.6262404785489
 30
0.0
 10
2633.343062308389
 20
988.634375567096
 30
0.0
 10
2633.297594633726
 20
988.6492236983007
 30
0.0
 10
2633.253362554798
 20
988.6708942384238
 30
0.0
 10
2633.211965516936
 20
988.6990479405699
 30
0.0
 10
2633.174665402777
 20
988.733170236442
 30
0.0
 10
2633.141641645787
 20
988.7735571768978
 30
0.0
 10
2633.11476067453
 20
988.8190293564086
 30
0.0
 10
2633.095069937619
 20
988.8678686811909
 30
0.0
 10
2633.083784198057
 20
988.9168043721079
 30
0.0
 10
2633.079316639386
 20
988.9525078719277
 30
0.0
 10
2633.080130751156
 20
988.9715047157658
 30
0.0
 10
2633.080267586805
 20
989.124425907423
 30
0.0
  0
SPLINE
  5
50F
330
1F
100
AcDbEntity
  8
cuerpo
  6
Continuous
100
AcDbSpline
210
0.0
220
0.0
230
1.0
 70
    24
 71
     3
 72
     8
 73
     4
 74
     0
 42
0.000000001
 43
0.0000000001
 40
0.0
 40
0.0
 40
0.0
 40
0.0
 40
1.0
 40
1.0
 40
1.0
 40
1.0
 10
2629.604837892717
 20
986.7145072525389
 30
0.0
 10
2629.515404206713
 20
986.7145072525389
 30
0.0
 10
2629.455012170492
 20
986.7145072525389
 30
0.0
 10
2629.454838292716
 20
986.7145072525389
 30
0.0
  0
SPLINE
  5
510
330
1F
100
AcDbEntity
  8
cuerpo
  6
Continuous
100
AcDbSpline
210
0.0
220
0.0
230
1.0
 70
     8
 71
     3
 72
    10
 73
     6
 74
     0
 42
0.000000001
 43
0.0000000001
 40
0.0
 40
0.0
 40
0.0
 40
0.0
 40
0.5
 40
0.5
 40
1.0
 40
1.0
 40
1.0
 40
1.0
 10
2629.604837892717
 20
983.8692132075498
 30
0.0
 10
2629.513410963862
 20
984.0592719279586
 30
0.0
 10
2629.454871476643
 20
984.2585108333878
 30
0.0
 10
2629.454804338718
 20
984.6701366871277
 30
0.0
 10
2629.513271580904
 20
984.8694528271858
 30
0.0
 10
2629.604837892717
 20
985.0598012975288
 30
0.0
  0
SPLINE
  5
511
330
1F
100
AcDbEntity
  8
cuerpo
  6
Continuous
100
AcDbSpline
210
0.0
220
0.0
230
1.0
 70
     8
 71
     3
 72
    10
 73
     6
 74
     0
 42
0.000000001
 43
0.0000000001
 40
0.0
 40
0.0
 40
0.0
 40
0.0
 40
0.5
 40
0.5
 40
1.0
 40
1.0
 40
1.0
 40
1.0
 10
2630.354837892716
 20
985.0598012975288
 30
0.0
 10
2630.446264821571
 20
984.8697425771188
 30
0.0
 10
2630.50480430879
 20
984.6705036716889
 30
0.0
 10
2630.504871446715
 20
984.2588778179468
 30
0.0
 10
2630.446404204528
 20
984.0595616778928
 30
0.0
 10
2630.354837892716
 20
983.8692132075498
 30
0.0
  0
SPLINE
  5
512
330
1F
100
AcDbEntity
  8
cuerpo
  6
Continuous
100
AcDbSpline
210
0.0
220
0.0
230
1.0
 70
     8
 71
     3
 72
    10
 73
     6
 74
     0
 42
0.000000001
 43
0.0000000001
 40
0.0
 40
0.0
 40
0.0
 40
0.0
 40
0.5000000000000001
 40
0.5000000000000001
 40
1.0
 40
1.0
 40
1.0
 40
1.0
 10
2629.604837892717
 20
985.3692132075488
 30
0.0
 10
2629.513410963862
 20
985.5592719279586
 30
0.0
 10
2629.454871476643
 20
985.7585108333879
 30
0.0
 10
2629.454804338718
 20
986.1701366871288
 30
0.0
 10
2629.513271580904
 20
986.3694528271848
 30
0.0
 10
2629.604837892717
 20
986.5598012975288
 30
0.0
  0
SPLINE
  5
513
330
1F
100
AcDbEntity
  8
cuerpo
  6
Continuous
100
AcDbSpline
210
0.0
220
0.0
230
1.0
 70
     8
 71
     3
 72
    10
 73
     6
 74
     0
 42
0.000000001
 43
0.0000000001
 40
0.0
 40
0.0
 40
0.0
 40
0.0
 40
0.5
 40
0.5
 40
1.0
 40
1.0
 40
1.0
 40
1.0
 10
2630.354837892716
 20
986.5598012975288
 30
0.0
 10
2630.446264821571
 20
986.3697425771189
 30
0.0
 10
2630.50480430879
 20
986.1705036716898
 30
0.0
 10
2630.504871446715
 20
985.758877817949
 30
0.0
 10
2630.446404204528
 20
985.5595616778918
 30
0.0
 10
2630.354837892716
 20
985.3692132075488
 30
0.0
  0
SPLINE
  5
514
330
1F
100
AcDbEntity
  8
cuerpo
  6
Continuous
100
AcDbSpline
210
0.0
220
0.0
230
1.0
 70
    24
 71
     3
 72
     8
 73
     4
 74
     0
 42
0.000000001
 43
0.0000000001
 40
0.0
 40
0.0
 40
0.0
 40
0.0
 40
1.0
 40
1.0
 40
1.0
 40
1.0
 10
2629.454838292716
 20
983.7145072525398
 30
0.0
 10
2629.455012170342
 20
983.7145072525398
 30
0.0
 10
2629.515404206602
 20
983.7145072525398
 30
0.0
 10
2629.604837892717
 20
983.7145072525398
 30
0.0
  0
SPLINE
  5
515
330
1F
100
AcDbEntity
  8
cuerpo
  6
Continuous
100
AcDbSpline
210
0.0
220
0.0
230
1.0
 70
    24
 71
     3
 72
     8
 73
     4
 74
     0
 42
0.000000001
 43
0.0000000001
 40
0.0
 40
0.0
 40
0.0
 40
0.0
 40
1.0
 40
1.0
 40
1.0
 40
1.0
 10
2629.604837892717
 20
986.7145072525389
 30
0.0
 10
2629.515404206713
 20
986.7145072525389
 30
0.0
 10
2629.455012170492
 20
986.7145072525389
 30
0.0
 10
2629.454838292716
 20
986.7145072525389
 30
0.0
  0
SPLINE
  5
516
330
1F
100
AcDbEntity
  8
cuerpo
  6
Continuous
100
AcDbSpline
210
0.0
220
0.0
230
1.0
 70
    24
 71
     3
 72
     8
 73
     4
 74
     0
 42
0.000000001
 43
0.0000000001
 40
0.0
 40
0.0
 40
0.0
 40
0.0
 40
1.0
 40
1.0
 40
1.0
 40
1.0
 10
2630.504837492717
 20
986.7145072525389
 30
0.0
 10
2630.504663615076
 20
986.7145072525389
 30
0.0
 10
2630.44427157882
 20
986.7145072525389
 30
0.0
 10
2630.354837892716
 20
986.7145072525389
 30
0.0
  0
SPLINE
  5
517
330
1F
100
AcDbEntity
  8
cuerpo
  6
Continuous
100
AcDbSpline
210
0.0
220
0.0
230
1.0
 70
    24
 71
     3
 72
     8
 73
     4
 74
     0
 42
0.000000001
 43
0.0000000001
 40
0.0
 40
0.0
 40
0.0
 40
0.0
 40
1.0
 40
1.0
 40
1.0
 40
1.0
 10
2630.354837892716
 20
983.7145072525398
 30
0.0
 10
2630.44427157872
 20
983.7145072525398
 30
0.0
 10
2630.504663614942
 20
983.7145072525398
 30
0.0
 10
2630.504837492717
 20
983.7145072525398
 30
0.0
  0
SPLINE
  5
518
330
1F
100
AcDbEntity
  8
cuerpo
  6
Continuous
100
AcDbSpline
210
0.0
220
0.0
230
1.0
 70
    24
 71
     3
 72
     8
 73
     4
 74
     0
 42
0.000000001
 43
0.0000000001
 40
0.0
 40
0.0
 40
0.0
 40
0.0
 40
1.0
 40
1.0
 40
1.0
 40
1.0
 10
2629.454838292716
 20
983.7145072525398
 30
0.0
 10
2629.455012170342
 20
983.7145072525398
 30
0.0
 10
2629.515404206602
 20
983.7145072525398
 30
0.0
 10
2629.604837892717
 20
983.7145072525398
 30
0.0
  0
SPLINE
  5
519
330
1F
100
AcDbEntity
  8
cuerpo
  6
Continuous
100
AcDbSpline
210
0.0
220
0.0
230
1.0
 70
     8
 71
     3
 72
     8
 73
     4
 74
     0
 42
0.000000001
 43
0.0000000001
 40
0.0
 40
0.0
 40
0.0
 40
0.0
 40
1.0
 40
1.0
 40
1.0
 40
1.0
 10
2630.679837892716
 20
986.8735235698977
 30
0.0
 10
2630.679837892716
 20
986.8352941213638
 30
0.0
 10
2630.654769285532
 20
986.7936771809969
 30
0.0
 10
2630.604837892716
 20
986.7488031943558
 30
0.0
  0
SPLINE
  5
51A
330
1F
100
AcDbEntity
  8
cuerpo
  6
Continuous
100
AcDbSpline
210
0.0
220
0.0
230
1.0
 70
     8
 71
     3
 72
    10
 73
     6
 74
     0
 42
0.000000001
 43
0.0000000001
 40
0.0
 40
0.0
 40
0.0
 40
0.0
 40
0.5
 40
0.5
 40
1.0
 40
1.0
 40
1.0
 40
1.0
 10
2629.604837892717
 20
983.8692132075498
 30
0.0
 10
2629.513410963862
 20
984.0592719279586
 30
0.0
 10
2629.454871476643
 20
984.2585108333878
 30
0.0
 10
2629.454804338718
 20
984.6701366871277
 30
0.0
 10
2629.513271580904
 20
984.8694528271858
 30
0.0
 10
2629.604837892717
 20
985.0598012975288
 30
0.0
  0
SPLINE
  5
51B
330
1F
100
AcDbEntity
  8
cuerpo
  6
Continuous
100
AcDbSpline
210
0.0
220
0.0
230
1.0
 70
     8
 71
     3
 72
     8
 73
     4
 74
     0
 42
0.000000001
 43
0.0000000001
 40
0.0
 40
0.0
 40
0.0
 40
0.0
 40
1.0
 40
1.0
 40
1.0
 40
1.0
 10
2630.632025487723
 20
983.840915053712
 30
0.0
 10
2630.663894396925
 20
983.826457451421
 30
0.0
 10
2630.679837892716
 20
983.8128686766888
 30
0.0
 10
2630.679837892716
 20
983.8001771357809
 30
0.0
  0
SPLINE
  5
51C
330
1F
100
AcDbEntity
  8
cuerpo
  6
Continuous
100
AcDbSpline
210
0.0
220
0.0
230
1.0
 70
     8
 71
     3
 72
    10
 73
     6
 74
     0
 42
0.000000001
 43
0.0000000001
 40
0.0
 40
0.0
 40
0.0
 40
0.0
 40
0.5000000000000001
 40
0.5000000000000001
 40
1.0
 40
1.0
 40
1.0
 40
1.0
 10
2629.604837892717
 20
985.3692132075488
 30
0.0
 10
2629.513410963862
 20
985.5592719279586
 30
0.0
 10
2629.454871476643
 20
985.7585108333879
 30
0.0
 10
2629.454804338718
 20
986.1701366871288
 30
0.0
 10
2629.513271580904
 20
986.3694528271848
 30
0.0
 10
2629.604837892717
 20
986.5598012975288
 30
0.0
  0
SPLINE
  5
51D
330
1F
100
AcDbEntity
  8
cuerpo
  6
Continuous
100
AcDbSpline
210
0.0
220
0.0
230
1.0
 70
    24
 71
     3
 72
     8
 73
     4
 74
     0
 42
0.000000001
 43
0.0000000001
 40
0.0
 40
0.0
 40
0.0
 40
0.0
 40
1.0
 40
1.0
 40
1.0
 40
1.0
 10
2630.354837892716
 20
983.7145072525398
 30
0.0
 10
2630.44427157872
 20
983.7145072525398
 30
0.0
 10
2630.504663614942
 20
983.7145072525398
 30
0.0
 10
2630.504837492717
 20
983.7145072525398
 30
0.0
  0
SPLINE
  5
51E
330
1F
100
AcDbEntity
  8
cuerpo
  6
Continuous
100
AcDbSpline
210
0.0
220
0.0
230
1.0
 70
     8
 71
     3
 72
    10
 73
     6
 74
     0
 42
0.000000001
 43
0.0000000001
 40
0.0
 40
0.0
 40
0.0
 40
0.0
 40
0.5
 40
0.5
 40
1.0
 40
1.0
 40
1.0
 40
1.0
 10
2630.354837892716
 20
985.0598012975288
 30
0.0
 10
2630.446264821571
 20
984.8697425771188
 30
0.0
 10
2630.50480430879
 20
984.6705036716889
 30
0.0
 10
2630.504871446715
 20
984.2588778179468
 30
0.0
 10
2630.446404204528
 20
984.0595616778928
 30
0.0
 10
2630.354837892716
 20
983.8692132075498
 30
0.0
  0
SPLINE
  5
51F
330
1F
100
AcDbEntity
  8
cuerpo
  6
Continuous
100
AcDbSpline
210
0.0
220
0.0
230
1.0
 70
    24
 71
     3
 72
     8
 73
     4
 74
     0
 42
0.000000001
 43
0.0000000001
 40
0.0
 40
0.0
 40
0.0
 40
0.0
 40
1.0
 40
1.0
 40
1.0
 40
1.0
 10
2630.504837492717
 20
986.7145072525389
 30
0.0
 10
2630.504663615076
 20
986.7145072525389
 30
0.0
 10
2630.44427157882
 20
986.7145072525389
 30
0.0
 10
2630.354837892716
 20
986.7145072525389
 30
0.0
  0
SPLINE
  5
520
330
1F
100
AcDbEntity
  8
cuerpo
  6
Continuous
100
AcDbSpline
210
0.0
220
0.0
230
1.0
 70
    24
 71
     1
 72
     4
 73
     2
 74
     0
 42
0.000000001
 43
0.0000000001
 40
0.0
 40
0.0
 40
1.0
 40
1.0
 10
2635.834837892716
 20
984.2004399049988
 30
0.0
 10
2635.834837892716
 20
984.1340991289508
 30
0.0
  0
SPLINE
  5
521
330
1F
100
AcDbEntity
  8
cuerpo
  6
Continuous
100
AcDbSpline
210
0.0
220
0.0
230
1.0
 70
    24
 71
     2
 72
     6
 73
     3
 74
     0
 42
0.000000001
 43
0.0000000001
 40
0.0
 40
0.0
 40
0.0
 40
1.0
 40
1.0
 40
1.0
 10
2635.834837892716
 20
984.1340991289508
 30
0.0
 10
2635.834837892716
 20
983.9274944237917
 30
0.0
 10
2635.834837892716
 20
983.7795072525379
 30
0.0
  0
SPLINE
  5
522
330
1F
100
AcDbEntity
  8
cuerpo
  6
Continuous
100
AcDbSpline
210
0.0
220
0.0
230
1.0
 70
     8
 71
     3
 72
    10
 73
     6
 74
     0
 42
0.000000001
 43
0.0000000001
 40
0.0
 40
0.0
 40
0.0
 40
0.0
 40
0.5
 40
0.5
 40
1.0
 40
1.0
 40
1.0
 40
1.0
 10
2630.354837892716
 20
986.5598012975288
 30
0.0
 10
2630.446264821571
 20
986.3697425771189
 30
0.0
 10
2630.50480430879
 20
986.1705036716898
 30
0.0
 10
2630.504871446715
 20
985.758877817949
 30
0.0
 10
2630.446404204528
 20
985.5595616778918
 30
0.0
 10
2630.354837892716
 20
985.3692132075488
 30
0.0
  0
SPLINE
  5
523
330
1F
100
AcDbEntity
  8
cuerpo
  6
Continuous
100
AcDbSpline
210
0.0
220
0.0
230
1.0
 70
     8
 71
     3
 72
    10
 73
     6
 74
     0
 42
0.000000001
 43
0.0000000001
 40
0.0
 40
0.0
 40
0.0
 40
0.0
 40
0.5
 40
0.5
 40
1.0
 40
1.0
 40
1.0
 40
1.0
 10
2629.604837892717
 20
983.8692132075498
 30
0.0
 10
2629.513410963862
 20
984.0592719279586
 30
0.0
 10
2629.454871476643
 20
984.2585108333878
 30
0.0
 10
2629.454804338718
 20
984.6701366871277
 30
0.0
 10
2629.513271580904
 20
984.8694528271858
 30
0.0
 10
2629.604837892717
 20
985.0598012975288
 30
0.0
  0
SPLINE
  5
524
330
1F
100
AcDbEntity
  8
cuerpo
  6
Continuous
100
AcDbSpline
210
0.0
220
0.0
230
1.0
 70
     8
 71
     3
 72
    10
 73
     6
 74
     0
 42
0.000000001
 43
0.0000000001
 40
0.0
 40
0.0
 40
0.0
 40
0.0
 40
0.5
 40
0.5
 40
1.0
 40
1.0
 40
1.0
 40
1.0
 10
2630.354837892716
 20
985.0598012975288
 30
0.0
 10
2630.446264821571
 20
984.8697425771188
 30
0.0
 10
2630.50480430879
 20
984.6705036716889
 30
0.0
 10
2630.504871446715
 20
984.2588778179468
 30
0.0
 10
2630.446404204528
 20
984.0595616778928
 30
0.0
 10
2630.354837892716
 20
983.8692132075498
 30
0.0
  0
SPLINE
  5
525
330
1F
100
AcDbEntity
  8
cuerpo
  6
Continuous
100
AcDbSpline
210
0.0
220
0.0
230
1.0
 70
     8
 71
     3
 72
    10
 73
     6
 74
     0
 42
0.000000001
 43
0.0000000001
 40
0.0
 40
0.0
 40
0.0
 40
0.0
 40
0.5000000000000001
 40
0.5000000000000001
 40
1.0
 40
1.0
 40
1.0
 40
1.0
 10
2629.604837892717
 20
985.3692132075488
 30
0.0
 10
2629.513410963862
 20
985.5592719279586
 30
0.0
 10
2629.454871476643
 20
985.7585108333879
 30
0.0
 10
2629.454804338718
 20
986.1701366871288
 30
0.0
 10
2629.513271580904
 20
986.3694528271848
 30
0.0
 10
2629.604837892717
 20
986.5598012975288
 30
0.0
  0
SPLINE
  5
526
330
1F
100
AcDbEntity
  8
cuerpo
  6
Continuous
100
AcDbSpline
210
0.0
220
0.0
230
1.0
 70
     8
 71
     3
 72
    10
 73
     6
 74
     0
 42
0.000000001
 43
0.0000000001
 40
0.0
 40
0.0
 40
0.0
 40
0.0
 40
0.5
 40
0.5
 40
1.0
 40
1.0
 40
1.0
 40
1.0
 10
2630.354837892716
 20
986.5598012975288
 30
0.0
 10
2630.446264821571
 20
986.3697425771189
 30
0.0
 10
2630.50480430879
 20
986.1705036716898
 30
0.0
 10
2630.504871446715
 20
985.758877817949
 30
0.0
 10
2630.446404204528
 20
985.5595616778918
 30
0.0
 10
2630.354837892716
 20
985.3692132075488
 30
0.0
  0
SPLINE
  5
527
330
1F
100
AcDbEntity
  8
cuerpo
  6
Continuous
100
AcDbSpline
210
0.0
220
0.0
230
1.0
 70
    24
 71
     3
 72
     8
 73
     4
 74
     0
 42
0.000000001
 43
0.0000000001
 40
0.0
 40
0.0
 40
0.0
 40
0.0
 40
1.0
 40
1.0
 40
1.0
 40
1.0
 10
2629.454838292716
 20
983.7145072525398
 30
0.0
 10
2629.455012170342
 20
983.7145072525398
 30
0.0
 10
2629.515404206602
 20
983.7145072525398
 30
0.0
 10
2629.604837892717
 20
983.7145072525398
 30
0.0
  0
SPLINE
  5
528
330
1F
100
AcDbEntity
  8
cuerpo
  6
Continuous
100
AcDbSpline
210
0.0
220
0.0
230
1.0
 70
    24
 71
     3
 72
     8
 73
     4
 74
     0
 42
0.000000001
 43
0.0000000001
 40
0.0
 40
0.0
 40
0.0
 40
0.0
 40
1.0
 40
1.0
 40
1.0
 40
1.0
 10
2629.604837892717
 20
986.7145072525389
 30
0.0
 10
2629.515404206713
 20
986.7145072525389
 30
0.0
 10
2629.455012170492
 20
986.7145072525389
 30
0.0
 10
2629.454838292716
 20
986.7145072525389
 30
0.0
  0
SPLINE
  5
529
330
1F
100
AcDbEntity
  8
cuerpo
  6
Continuous
100
AcDbSpline
210
0.0
220
0.0
230
1.0
 70
    24
 71
     3
 72
     8
 73
     4
 74
     0
 42
0.000000001
 43
0.0000000001
 40
0.0
 40
0.0
 40
0.0
 40
0.0
 40
1.0
 40
1.0
 40
1.0
 40
1.0
 10
2630.504837492717
 20
986.7145072525389
 30
0.0
 10
2630.504663615076
 20
986.7145072525389
 30
0.0
 10
2630.44427157882
 20
986.7145072525389
 30
0.0
 10
2630.354837892716
 20
986.7145072525389
 30
0.0
  0
SPLINE
  5
52A
330
1F
100
AcDbEntity
  8
cuerpo
  6
Continuous
100
AcDbSpline
210
0.0
220
0.0
230
1.0
 70
    24
 71
     3
 72
     8
 73
     4
 74
     0
 42
0.000000001
 43
0.0000000001
 40
0.0
 40
0.0
 40
0.0
 40
0.0
 40
1.0
 40
1.0
 40
1.0
 40
1.0
 10
2630.354837892716
 20
983.7145072525398
 30
0.0
 10
2630.44427157872
 20
983.7145072525398
 30
0.0
 10
2630.504663614942
 20
983.7145072525398
 30
0.0
 10
2630.504837492717
 20
983.7145072525398
 30
0.0
  0
SPLINE
  5
52B
330
1F
100
AcDbEntity
  8
cuerpo
  6
Continuous
100
AcDbSpline
210
0.0
220
0.0
230
1.0
 70
     8
 71
     3
 72
    20
 73
    16
 74
     0
 42
0.000000001
 43
0.0000000001
 40
0.0
 40
0.0
 40
0.0
 40
0.0
 40
0.0102321332269989
 40
0.106141152384302
 40
0.1993469642544106
 40
0.2899904795131655
 40
0.3780467780361105
 40
0.4633141847575029
 40
0.5455243750010136
 40
0.624675184426712
 40
0.7014510855818197
 40
0.7773651564997578
 40
0.8542204356229408
 40
0.9313205038459159
 40
1.0
 40
1.0
 40
1.0
 40
1.0
 10
2633.979918640907
 20
960.5455491475577
 30
0.0
 10
2633.977720573158
 20
960.5456920942877
 30
0.0
 10
2633.954935029502
 20
960.546937039369
 30
0.0
 10
2633.912153541065
 20
960.5420663037589
 30
0.0
 10
2633.853691896874
 20
960.530765876342
 30
0.0
 10
2633.799402944186
 20
960.5125708638029
 30
0.0
 10
2633.750156839506
 20
960.4896507247387
 30
0.0
 10
2633.706687480545
 20
960.4632264068747
 30
0.0
 10
2633.669509599549
 20
960.4350262520279
 30
0.0
 10
2633.638740420168
 20
960.4067159196997
 30
0.0
 10
2633.614053574649
 20
960.3797509219578
 30
0.0
 10
2633.594749864025
 20
960.3551118346119
 30
0.0
 10
2633.580392326716
 20
960.3339566381448
 30
0.0
 10
2633.570775520616
 20
960.3178324118911
 30
0.0
 10
2633.566536221065
 20
960.3099401530707
 30
0.0
 10
2633.564898194757
 20
960.3067744150839
 30
0.0
  0
SPLINE
  5
52C
330
1F
100
AcDbEntity
  8
cuerpo
  6
Continuous
100
AcDbSpline
210
0.0
220
0.0
230
1.0
 70
     8
 71
     3
 72
    20
 73
    16
 74
     0
 42
0.000000001
 43
0.0000000001
 40
0.0
 40
0.0
 40
0.0
 40
0.0
 40
0.0193027005229931
 40
0.1031698262107221
 40
0.1817609697349164
 40
0.258763345424174
 40
0.3372874740937215
 40
0.4170618953938912
 40
0.4998153777759111
 40
0.5859858417658193
 40
0.6750040037807829
 40
0.7659130383822032
 40
0.8579098166820731
 40
0.9504833371254756
 40
1.0
 40
1.0
 40
1.0
 40
1.0
 10
2633.564842362975
 20
965.7343040752619
 30
0.0
 10
2633.565301214609
 20
965.733417333571
 30
0.0
 10
2633.567905807201
 20
965.7284437558578
 30
0.0
 10
2633.574023317287
 20
965.717413579029
 30
0.0
 10
2633.586298406086
 20
965.6979409610537
 30
0.0
 10
2633.603291605174
 20
965.6744736058525
 30
0.0
 10
2633.625617545641
 20
965.6479981120737
 30
0.0
 10
2633.654158020276
 20
965.6193826901349
 30
0.0
 10
2633.689279897985
 20
965.5901755511667
 30
0.0
 10
2633.73112815384
 20
965.5620536546306
 30
0.0
 10
2633.779148077254
 20
965.5369638744828
 30
0.0
 10
2633.832233683863
 20
965.5165487346449
 30
0.0
 10
2633.889008924184
 20
965.5024605875537
 30
0.0
 10
2633.938878770577
 20
965.4954487789769
 30
0.0
 10
2633.969413548585
 20
965.4956310043251
 30
0.0
 10
2633.980110334654
 20
965.4961319133079
 30
0.0
  0
SPLINE
  5
52D
330
1F
100
AcDbEntity
  8
cuerpo
  6
Continuous
100
AcDbSpline
210
0.0
220
0.0
230
1.0
 70
     8
 71
     3
 72
    33
 73
    29
 74
     0
 42
0.000000001
 43
0.0000000001
 40
0.0
 40
0.0
 40
0.0
 40
0.0
 40
0.0016073770327304
 40
0.0420633994550514
 40
0.0809762953051746
 40
0.1183410012352488
 40
0.1541584568177297
 40
0.1951330308427401
 40
0.2339440437145071
 40
0.2704976539454849
 40
0.3046887164811115
 40
0.336583439532836
 40
0.3662631435511339
 40
0.3937623895851528
 40
0.4214954652020479
 40
0.4465926321326814
 40
0.4690538882958098
 40
0.4897301185914247
 40
0.5125212579676867
 40
0.5491865136713776
 40
0.591048000136663
 40
0.6381057018348471
 40
0.6903595952968479
 40
0.7478096446276467
 40
0.8104557890090728
 40
0.8742809317952142
 40
0.9427238174787458
 40
1.0
 40
1.0
 40
1.0
 40
1.0
 10
2631.559770390572
 20
971.7080071092649
 30
0.0
 10
2631.562237419855
 20
971.7056321963427
 30
0.0
 10
2631.62668687589
 20
971.6433654144328
 30
0.0
 10
2631.745199860153
 20
971.5175343657991
 30
0.0
 10
2631.902391812904
 20
971.3244592193518
 30
0.0
 10
2632.039242820375
 20
971.128357324174
 30
0.0
 10
2632.164105024076
 20
970.9193151487699
 30
0.0
 10
2632.274401037819
 20
970.6987196094058
 30
0.0
 10
2632.368611026519
 20
970.4690839758988
 30
0.0
 10
2632.43941633595
 20
970.246343860207
 30
0.0
 10
2632.493156924224
 20
970.0342594607247
 30
0.0
 10
2632.542581145333
 20
969.8362362396057
 30
0.0
 10
2632.58819499419
 20
969.6519528286478
 30
0.0
 10
2632.631848609541
 20
969.4763240062497
 30
0.0
 10
2632.673198261681
 20
969.3101859224681
 30
0.0
 10
2632.712010616432
 20
969.1544815336719
 30
0.0
 10
2632.747216624101
 20
969.01337865447
 30
0.0
 10
2632.781254405846
 20
968.8770498184348
 30
0.0
 10
2632.822643138085
 20
968.7113540148869
 30
0.0
 10
2632.874990517269
 20
968.5018560820498
 30
0.0
 10
2632.939855155765
 20
968.2421763696497
 30
0.0
 10
2633.012721605765
 20
967.950250520229
 30
0.0
 10
2633.093593415559
 20
967.626079591742
 30
0.0
 10
2633.182471498447
 20
967.2696640801168
 30
0.0
 10
2633.277304018797
 20
966.8893163672098
 30
0.0
 10
2633.377790380992
 20
966.4862320195906
 30
0.0
 10
2633.475462555607
 20
966.0942413952886
 30
0.0
 10
2633.540170598069
 20
965.83422693226
 30
0.0
 10
2633.569638656035
 20
965.7157642536299
 30
0.0
  0
SPLINE
  5
52E
330
1F
100
AcDbEntity
  8
cuerpo
  6
Continuous
100
AcDbSpline
210
0.0
220
0.0
230
1.0
 70
     8
 71
     3
 72
    33
 73
    29
 74
     0
 42
0.000000001
 43
0.0000000001
 40
0.0
 40
0.0
 40
0.0
 40
0.0
 40
0.0359860239127203
 40
0.0968886943189366
 40
0.1525898358965577
 40
0.2030885805316353
 40
0.2391161560195927
 40
0.2719316050485987
 40
0.3015349107397538
 40
0.3279260616393534
 40
0.3513826658253225
 40
0.376515533057992
 40
0.4090971631674955
 40
0.445957042022071
 40
0.4870951659728448
 40
0.5325115247643975
 40
0.5822061036504626
 40
0.6361788948860181
 40
0.6706178003424263
 40
0.7066410793967696
 40
0.7443542580225963
 40
0.7837974283388909
 40
0.8248357046081247
 40
0.8601888287819351
 40
0.8966190010287109
 40
0.9341496373124622
 40
0.972780067726252
 40
1.0
 40
1.0
 40
1.0
 40
1.0
 10
2633.569691110944
 20
960.3254220611137
 30
0.0
 10
2633.551409963188
 20
960.251917225967
 30
0.0
 10
2633.502174112915
 20
960.0540168793338
 30
0.0
 10
2633.424543635822
 20
959.7423661241139
 30
0.0
 10
2633.339488717896
 20
959.4010847024737
 30
0.0
 10
2633.267069572707
 20
959.1106132413537
 30
0.0
 10
2633.206300270111
 20
958.8668820434927
 30
0.0
 10
2633.156168328547
 20
958.6658261815127
 30
0.0
 10
2633.110937606998
 20
958.4844521670838
 30
0.0
 10
2633.070466444812
 20
958.3221931793348
 30
0.0
 10
2633.032264976553
 20
958.169065813491
 30
0.0
 10
2632.990899993704
 20
958.003298476772
 30
0.0
 10
2632.942689638655
 20
957.8101627697108
 30
0.0
 10
2632.886292392223
 20
957.5843488247439
 30
0.0
 10
2632.823320392838
 20
957.3323323394689
 30
0.0
 10
2632.753819370428
 20
957.0541021233831
 30
0.0
 10
2632.677876031205
 20
956.749635852223
 30
0.0
 10
2632.607664585993
 20
956.4675556359739
 30
0.0
 10
2632.544696103098
 20
956.2133199281371
 30
0.0
 10
2632.489677672315
 20
955.9923940441819
 30
0.0
 10
2632.430542261882
 20
955.7615569448149
 30
0.0
 10
2632.351486186727
 20
955.5253649648516
 30
0.0
 10
2632.255020160899
 20
955.3011626784018
 30
0.0
 10
2632.146058449235
 20
955.0899830021469
 30
0.0
 10
2632.026535167503
 20
954.8931552581068
 30
0.0
 10
2631.889436016683
 20
954.6995907891178
 30
0.0
 10
2631.750961478738
 20
954.5315444210686
 30
0.0
 10
2631.656556401262
 20
954.4298719364789
 30
0.0
 10
2631.616393087479
 20
954.3890014542899
 30
0.0
  0
SPLINE
  5
52F
330
1F
100
AcDbEntity
  8
cuerpo
  6
Continuous
100
AcDbSpline
210
0.0
220
0.0
230
1.0
 70
     8
 71
     3
 72
    10
 73
     6
 74
     0
 42
0.000000001
 43
0.0000000001
 40
0.0
 40
0.0
 40
0.0
 40
0.0
 40
0.5
 40
0.5
 40
1.0
 40
1.0
 40
1.0
 40
1.0
 10
2629.604837892717
 20
969.5901407697679
 30
0.0
 10
2629.513410963862
 20
969.4804103163779
 30
0.0
 10
2629.454871476643
 20
969.365379680695
 30
0.0
 10
2629.454804338718
 20
969.1277273832318
 30
0.0
 10
2629.513271580904
 20
969.0126521561158
 30
0.0
 10
2629.604837892717
 20
968.902754415525
 30
0.0
  0
SPLINE
  5
530
330
1F
100
AcDbEntity
  8
cuerpo
  6
Continuous
100
AcDbSpline
210
0.0
220
0.0
230
1.0
 70
     8
 71
     3
 72
    10
 73
     6
 74
     0
 42
0.000000001
 43
0.0000000001
 40
0.0
 40
0.0
 40
0.0
 40
0.0
 40
0.5
 40
0.5
 40
1.0
 40
1.0
 40
1.0
 40
1.0
 10
2629.604837892717
 20
971.2328720525659
 30
0.0
 10
2629.514134545983
 20
971.0151480299918
 30
0.0
 10
2629.454674139645
 20
970.7817070940327
 30
0.0
 10
2629.455002363461
 20
970.3071892034348
 30
0.0
 10
2629.515396945029
 20
970.0727931080377
 30
0.0
 10
2629.604837892717
 20
969.8580993440778
 30
0.0
  0
SPLINE
  5
531
330
1F
100
AcDbEntity
  8
cuerpo
  6
Continuous
100
AcDbSpline
210
0.0
220
0.0
230
1.0
 70
     8
 71
     3
 72
    10
 73
     6
 74
     0
 42
0.000000001
 43
0.0000000001
 40
0.0
 40
0.0
 40
0.0
 40
0.0
 40
0.5
 40
0.5
 40
1.0
 40
1.0
 40
1.0
 40
1.0
 10
2629.604837892717
 20
972.1882169811211
 30
0.0
 10
2629.513410963862
 20
972.0784865277307
 30
0.0
 10
2629.454871476643
 20
971.9634558920477
 30
0.0
 10
2629.454804338718
 20
971.7258035945837
 30
0.0
 10
2629.513271580904
 20
971.610728367469
 30
0.0
 10
2629.604837892717
 20
971.5008306268769
 30
0.0
  0
SPLINE
  5
532
330
1F
100
AcDbEntity
  8
cuerpo
  6
Continuous
100
AcDbSpline
210
0.0
220
0.0
230
1.0
 70
     8
 71
     3
 72
    10
 73
     6
 74
     0
 42
0.000000001
 43
0.0000000001
 40
0.0
 40
0.0
 40
0.0
 40
0.0
 40
0.5
 40
0.5
 40
1.0
 40
1.0
 40
1.0
 40
1.0
 10
2630.354837892716
 20
971.5008306268769
 30
0.0
 10
2630.446264821571
 20
971.6105610802681
 30
0.0
 10
2630.50480430879
 20
971.7255917159498
 30
0.0
 10
2630.504871446715
 20
971.9632440134118
 30
0.0
 10
2630.446404204528
 20
972.078319240529
 30
0.0
 10
2630.354837892716
 20
972.1882169811211
 30
0.0
  0
SPLINE
  5
533
330
1F
100
AcDbEntity
  8
cuerpo
  6
Continuous
100
AcDbSpline
210
0.0
220
0.0
230
1.0
 70
     8
 71
     3
 72
    10
 73
     6
 74
     0
 42
0.000000001
 43
0.0000000001
 40
0.0
 40
0.0
 40
0.0
 40
0.0
 40
0.5
 40
0.5
 40
1.0
 40
1.0
 40
1.0
 40
1.0
 10
2630.354837892716
 20
969.8580993440778
 30
0.0
 10
2630.444278840405
 20
970.0727931080377
 30
0.0
 10
2630.504673421972
 20
970.3071892034348
 30
0.0
 10
2630.505001645788
 20
970.7817070940327
 30
0.0
 10
2630.445541239448
 20
971.0151480299918
 30
0.0
 10
2630.354837892716
 20
971.2328720525659
 30
0.0
  0
SPLINE
  5
534
330
1F
100
AcDbEntity
  8
cuerpo
  6
Continuous
100
AcDbSpline
210
0.0
220
0.0
230
1.0
 70
     8
 71
     3
 72
    10
 73
     6
 74
     0
 42
0.000000001
 43
0.0000000001
 40
0.0
 40
0.0
 40
0.0
 40
0.0
 40
0.5
 40
0.5
 40
1.0
 40
1.0
 40
1.0
 40
1.0
 10
2630.354837892716
 20
968.902754415525
 30
0.0
 10
2630.446264821571
 20
969.0124848689141
 30
0.0
 10
2630.50480430879
 20
969.1275155045969
 30
0.0
 10
2630.504871446715
 20
969.3651678020588
 30
0.0
 10
2630.446404204528
 20
969.4802430291749
 30
0.0
 10
2630.354837892716
 20
969.5901407697679
 30
0.0
  0
SPLINE
  5
535
330
1F
100
AcDbEntity
  8
cuerpo
  6
Continuous
100
AcDbSpline
210
0.0
220
0.0
230
1.0
 70
     8
 71
     3
 72
    10
 73
     6
 74
     0
 42
0.000000001
 43
0.0000000001
 40
0.0
 40
0.0
 40
0.0
 40
0.0
 40
0.5
 40
0.5
 40
1.0
 40
1.0
 40
1.0
 40
1.0
 10
2629.604837892717
 20
971.2328720525659
 30
0.0
 10
2629.514134545983
 20
971.0151480299918
 30
0.0
 10
2629.454674139645
 20
970.7817070940327
 30
0.0
 10
2629.455002363461
 20
970.3071892034348
 30
0.0
 10
2629.515396945029
 20
970.0727931080377
 30
0.0
 10
2629.604837892717
 20
969.8580993440778
 30
0.0
  0
SPLINE
  5
536
330
1F
100
AcDbEntity
  8
cuerpo
  6
Continuous
100
AcDbSpline
210
0.0
220
0.0
230
1.0
 70
     8
 71
     3
 72
    10
 73
     6
 74
     0
 42
0.000000001
 43
0.0000000001
 40
0.0
 40
0.0
 40
0.0
 40
0.0
 40
0.5
 40
0.5
 40
1.0
 40
1.0
 40
1.0
 40
1.0
 10
2629.604837892717
 20
972.1882169811211
 30
0.0
 10
2629.513410963862
 20
972.0784865277307
 30
0.0
 10
2629.454871476643
 20
971.9634558920477
 30
0.0
 10
2629.454804338718
 20
971.7258035945837
 30
0.0
 10
2629.513271580904
 20
971.610728367469
 30
0.0
 10
2629.604837892717
 20
971.5008306268769
 30
0.0
  0
SPLINE
  5
537
330
1F
100
AcDbEntity
  8
cuerpo
  6
Continuous
100
AcDbSpline
210
0.0
220
0.0
230
1.0
 70
     8
 71
     3
 72
    10
 73
     6
 74
     0
 42
0.000000001
 43
0.0000000001
 40
0.0
 40
0.0
 40
0.0
 40
0.0
 40
0.5
 40
0.5
 40
1.0
 40
1.0
 40
1.0
 40
1.0
 10
2630.354837892716
 20
971.5008306268769
 30
0.0
 10
2630.446264821571
 20
971.6105610802681
 30
0.0
 10
2630.50480430879
 20
971.7255917159498
 30
0.0
 10
2630.504871446715
 20
971.9632440134118
 30
0.0
 10
2630.446404204528
 20
972.078319240529
 30
0.0
 10
2630.354837892716
 20
972.1882169811211
 30
0.0
  0
SPLINE
  5
538
330
1F
100
AcDbEntity
  8
cuerpo
  6
Continuous
100
AcDbSpline
210
0.0
220
0.0
230
1.0
 70
     8
 71
     3
 72
    10
 73
     6
 74
     0
 42
0.000000001
 43
0.0000000001
 40
0.0
 40
0.0
 40
0.0
 40
0.0
 40
0.5
 40
0.5
 40
1.0
 40
1.0
 40
1.0
 40
1.0
 10
2630.354837892716
 20
969.8580993440778
 30
0.0
 10
2630.444278840405
 20
970.0727931080377
 30
0.0
 10
2630.504673421972
 20
970.3071892034348
 30
0.0
 10
2630.505001645788
 20
970.7817070940327
 30
0.0
 10
2630.445541239448
 20
971.0151480299918
 30
0.0
 10
2630.354837892716
 20
971.2328720525659
 30
0.0
  0
SPLINE
  5
539
330
1F
100
AcDbEntity
  8
cuerpo
  6
Continuous
100
AcDbSpline
210
0.0
220
0.0
230
1.0
 70
     8
 71
     3
 72
    10
 73
     6
 74
     0
 42
0.000000001
 43
0.0000000001
 40
0.0
 40
0.0
 40
0.0
 40
0.0
 40
0.5
 40
0.5
 40
1.0
 40
1.0
 40
1.0
 40
1.0
 10
2629.604837892717
 20
969.5901407697679
 30
0.0
 10
2629.513410963862
 20
969.4804103163779
 30
0.0
 10
2629.454871476643
 20
969.365379680695
 30
0.0
 10
2629.454804338718
 20
969.1277273832318
 30
0.0
 10
2629.513271580904
 20
969.0126521561158
 30
0.0
 10
2629.604837892717
 20
968.902754415525
 30
0.0
  0
SPLINE
  5
53A
330
1F
100
AcDbEntity
  8
cuerpo
  6
Continuous
100
AcDbSpline
210
0.0
220
0.0
230
1.0
 70
     8
 71
     3
 72
    10
 73
     6
 74
     0
 42
0.000000001
 43
0.0000000001
 40
0.0
 40
0.0
 40
0.0
 40
0.0
 40
0.5
 40
0.5
 40
1.0
 40
1.0
 40
1.0
 40
1.0
 10
2630.354837892716
 20
968.902754415525
 30
0.0
 10
2630.446264821571
 20
969.0124848689141
 30
0.0
 10
2630.50480430879
 20
969.1275155045969
 30
0.0
 10
2630.504871446715
 20
969.3651678020588
 30
0.0
 10
2630.446404204528
 20
969.4802430291749
 30
0.0
 10
2630.354837892716
 20
969.5901407697679
 30
0.0
  0
SPLINE
  5
53B
330
1F
100
AcDbEntity
  8
cuerpo
  6
Continuous
100
AcDbSpline
210
0.0
220
0.0
230
1.0
 70
     8
 71
     3
 72
    10
 73
     6
 74
     0
 42
0.000000001
 43
0.0000000001
 40
0.0
 40
0.0
 40
0.0
 40
0.0
 40
0.5
 40
0.5
 40
1.0
 40
1.0
 40
1.0
 40
1.0
 10
2629.604837892717
 20
971.2328720525659
 30
0.0
 10
2629.514134545983
 20
971.0151480299918
 30
0.0
 10
2629.454674139645
 20
970.7817070940327
 30
0.0
 10
2629.455002363461
 20
970.3071892034348
 30
0.0
 10
2629.515396945029
 20
970.0727931080377
 30
0.0
 10
2629.604837892717
 20
969.8580993440778
 30
0.0
  0
SPLINE
  5
53C
330
1F
100
AcDbEntity
  8
cuerpo
  6
Continuous
100
AcDbSpline
210
0.0
220
0.0
230
1.0
 70
     8
 71
     3
 72
    10
 73
     6
 74
     0
 42
0.000000001
 43
0.0000000001
 40
0.0
 40
0.0
 40
0.0
 40
0.0
 40
0.5
 40
0.5
 40
1.0
 40
1.0
 40
1.0
 40
1.0
 10
2629.604837892717
 20
972.1882169811211
 30
0.0
 10
2629.513410963862
 20
972.0784865277307
 30
0.0
 10
2629.454871476643
 20
971.9634558920477
 30
0.0
 10
2629.454804338718
 20
971.7258035945837
 30
0.0
 10
2629.513271580904
 20
971.610728367469
 30
0.0
 10
2629.604837892717
 20
971.5008306268769
 30
0.0
  0
SPLINE
  5
53D
330
1F
100
AcDbEntity
  8
cuerpo
  6
Continuous
100
AcDbSpline
210
0.0
220
0.0
230
1.0
 70
     8
 71
     3
 72
    10
 73
     6
 74
     0
 42
0.000000001
 43
0.0000000001
 40
0.0
 40
0.0
 40
0.0
 40
0.0
 40
0.5
 40
0.5
 40
1.0
 40
1.0
 40
1.0
 40
1.0
 10
2629.604837892717
 20
969.5901407697679
 30
0.0
 10
2629.513410963862
 20
969.4804103163779
 30
0.0
 10
2629.454871476643
 20
969.365379680695
 30
0.0
 10
2629.454804338718
 20
969.1277273832318
 30
0.0
 10
2629.513271580904
 20
969.0126521561158
 30
0.0
 10
2629.604837892717
 20
968.902754415525
 30
0.0
  0
SPLINE
  5
53E
330
1F
100
AcDbEntity
  8
cuerpo
  6
Continuous
100
AcDbSpline
210
0.0
220
0.0
230
1.0
 70
     8
 71
     3
 72
    10
 73
     6
 74
     0
 42
0.000000001
 43
0.0000000001
 40
0.0
 40
0.0
 40
0.0
 40
0.0
 40
0.5
 40
0.5
 40
1.0
 40
1.0
 40
1.0
 40
1.0
 10
2630.354837892716
 20
968.902754415525
 30
0.0
 10
2630.446264821571
 20
969.0124848689141
 30
0.0
 10
2630.50480430879
 20
969.1275155045969
 30
0.0
 10
2630.504871446715
 20
969.3651678020588
 30
0.0
 10
2630.446404204528
 20
969.4802430291749
 30
0.0
 10
2630.354837892716
 20
969.5901407697679
 30
0.0
  0
SPLINE
  5
53F
330
1F
100
AcDbEntity
  8
cuerpo
  6
Continuous
100
AcDbSpline
210
0.0
220
0.0
230
1.0
 70
     8
 71
     3
 72
    10
 73
     6
 74
     0
 42
0.000000001
 43
0.0000000001
 40
0.0
 40
0.0
 40
0.0
 40
0.0
 40
0.5
 40
0.5
 40
1.0
 40
1.0
 40
1.0
 40
1.0
 10
2630.354837892716
 20
971.5008306268769
 30
0.0
 10
2630.446264821571
 20
971.6105610802681
 30
0.0
 10
2630.50480430879
 20
971.7255917159498
 30
0.0
 10
2630.504871446715
 20
971.9632440134118
 30
0.0
 10
2630.446404204528
 20
972.078319240529
 30
0.0
 10
2630.354837892716
 20
972.1882169811211
 30
0.0
  0
SPLINE
  5
540
330
1F
100
AcDbEntity
  8
cuerpo
  6
Continuous
100
AcDbSpline
210
0.0
220
0.0
230
1.0
 70
     8
 71
     3
 72
    10
 73
     6
 74
     0
 42
0.000000001
 43
0.0000000001
 40
0.0
 40
0.0
 40
0.0
 40
0.0
 40
0.5
 40
0.5
 40
1.0
 40
1.0
 40
1.0
 40
1.0
 10
2630.354837892716
 20
969.8580993440778
 30
0.0
 10
2630.444278840405
 20
970.0727931080377
 30
0.0
 10
2630.504673421972
 20
970.3071892034348
 30
0.0
 10
2630.505001645788
 20
970.7817070940327
 30
0.0
 10
2630.445541239448
 20
971.0151480299918
 30
0.0
 10
2630.354837892716
 20
971.2328720525659
 30
0.0
  0
SPLINE
  5
541
330
1F
100
AcDbEntity
  8
cuerpo
  6
Continuous
100
AcDbSpline
210
0.0
220
0.0
230
1.0
 70
     8
 71
     3
 72
    10
 73
     6
 74
     0
 42
0.000000001
 43
0.0000000001
 40
0.0
 40
0.0
 40
0.0
 40
0.0
 40
0.5
 40
0.5
 40
1.0
 40
1.0
 40
1.0
 40
1.0
 10
2629.604837892717
 20
957.1382169811208
 30
0.0
 10
2629.513410963862
 20
957.0284865277308
 30
0.0
 10
2629.454871476643
 20
956.9134558920492
 30
0.0
 10
2629.454804338718
 20
956.6758035945847
 30
0.0
 10
2629.513271580904
 20
956.560728367469
 30
0.0
 10
2629.604837892717
 20
956.4508306268761
 30
0.0
  0
SPLINE
  5
542
330
1F
100
AcDbEntity
  8
cuerpo
  6
Continuous
100
AcDbSpline
210
0.0
220
0.0
230
1.0
 70
     8
 71
     3
 72
    10
 73
     6
 74
     0
 42
0.000000001
 43
0.0000000001
 40
0.0
 40
0.0
 40
0.0
 40
0.0
 40
0.5
 40
0.5
 40
1.0
 40
1.0
 40
1.0
 40
1.0
 10
2630.354837892716
 20
956.4508306268761
 30
0.0
 10
2630.446264821571
 20
956.5605610802679
 30
0.0
 10
2630.50480430879
 20
956.6755917159481
 30
0.0
 10
2630.504871446715
 20
956.9132440134128
 30
0.0
 10
2630.446404204528
 20
957.0283192405288
 30
0.0
 10
2630.354837892716
 20
957.1382169811208
 30
0.0
  0
SPLINE
  5
543
330
1F
100
AcDbEntity
  8
cuerpo
  6
Continuous
100
AcDbSpline
210
0.0
220
0.0
230
1.0
 70
     8
 71
     3
 72
     8
 73
     4
 74
     0
 42
0.000000001
 43
0.0000000001
 40
0.0
 40
0.0
 40
0.0
 40
0.0
 40
1.0
 40
1.0
 40
1.0
 40
1.0
 10
2630.679837892716
 20
968.0404856983217
 30
0.0
 10
2630.679837892716
 20
968.3577824923897
 30
0.0
 10
2630.654826049287
 20
968.6730185382979
 30
0.0
 10
2630.604837892716
 20
968.98619971429
 30
0.0
  0
SPLINE
  5
544
330
1F
100
AcDbEntity
  8
cuerpo
  6
Continuous
100
AcDbSpline
210
0.0
220
0.0
230
1.0
 70
     8
 71
     3
 72
    14
 73
    10
 74
     0
 42
0.000000001
 43
0.0000000001
 40
0.0
 40
0.0
 40
0.0
 40
0.0
 40
0.4848372271115342
 40
0.4848372271115342
 40
0.7272558406673021
 40
0.7272558406673021
 40
0.9696744542230703
 40
0.9696744542230703
 40
1.0
 40
1.0
 40
1.0
 40
1.0
 10
2632.251067886742
 20
970.6910551976978
 30
0.0
 10
2632.114088929654
 20
970.9944514032057
 30
0.0
 10
2631.9417141115
 20
971.2609202603628
 30
0.0
 10
2631.691921751735
 20
971.5696259158347
 30
0.0
 10
2631.611969011642
 20
971.6559207334627
 30
0.0
 10
2631.479153122236
 20
971.7881854483078
 30
0.0
 10
2631.428789121536
 20
971.8319107824109
 30
0.0
 10
2631.411717091103
 20
971.8441021919685
 30
0.0
 10
2631.41039429021
 20
971.8449307034589
 30
0.0
 10
2631.409628076645
 20
971.8452425365747
 30
0.0
  0
SPLINE
  5
545
330
1F
100
AcDbEntity
  8
cuerpo
  6
Continuous
100
AcDbSpline
210
0.0
220
0.0
230
1.0
 70
     8
 71
     3
 72
    10
 73
     6
 74
     0
 42
0.000000001
 43
0.0000000001
 40
0.0
 40
0.0
 40
0.0
 40
0.0
 40
0.5
 40
0.5
 40
1.0
 40
1.0
 40
1.0
 40
1.0
 10
2629.604837892717
 20
957.1382169811208
 30
0.0
 10
2629.513410963862
 20
957.0284865277308
 30
0.0
 10
2629.454871476643
 20
956.9134558920492
 30
0.0
 10
2629.454804338718
 20
956.6758035945847
 30
0.0
 10
2629.513271580904
 20
956.560728367469
 30
0.0
 10
2629.604837892717
 20
956.4508306268761
 30
0.0
  0
SPLINE
  5
546
330
1F
100
AcDbEntity
  8
cuerpo
  6
Continuous
100
AcDbSpline
210
0.0
220
0.0
230
1.0
 70
     8
 71
     3
 72
    10
 73
     6
 74
     0
 42
0.000000001
 43
0.0000000001
 40
0.0
 40
0.0
 40
0.0
 40
0.0
 40
0.5
 40
0.5
 40
1.0
 40
1.0
 40
1.0
 40
1.0
 10
2630.354837892716
 20
956.4508306268761
 30
0.0
 10
2630.446264821571
 20
956.5605610802679
 30
0.0
 10
2630.50480430879
 20
956.6755917159481
 30
0.0
 10
2630.504871446715
 20
956.9132440134128
 30
0.0
 10
2630.446404204528
 20
957.0283192405288
 30
0.0
 10
2630.354837892716
 20
957.1382169811208
 30
0.0
  0
SPLINE
  5
547
330
1F
100
AcDbEntity
  8
cuerpo
  6
Continuous
100
AcDbSpline
210
0.0
220
0.0
230
1.0
 70
     8
 71
     3
 72
    10
 73
     6
 74
     0
 42
0.000000001
 43
0.0000000001
 40
0.0
 40
0.0
 40
0.0
 40
0.0
 40
0.5
 40
0.5
 40
1.0
 40
1.0
 40
1.0
 40
1.0
 10
2630.354837892716
 20
956.4508306268761
 30
0.0
 10
2630.446264821571
 20
956.5605610802679
 30
0.0
 10
2630.50480430879
 20
956.6755917159481
 30
0.0
 10
2630.504871446715
 20
956.9132440134128
 30
0.0
 10
2630.446404204528
 20
957.0283192405288
 30
0.0
 10
2630.354837892716
 20
957.1382169811208
 30
0.0
  0
SPLINE
  5
548
330
1F
100
AcDbEntity
  8
cuerpo
  6
Continuous
100
AcDbSpline
210
0.0
220
0.0
230
1.0
 70
     8
 71
     3
 72
    10
 73
     6
 74
     0
 42
0.000000001
 43
0.0000000001
 40
0.0
 40
0.0
 40
0.0
 40
0.0
 40
0.5
 40
0.5
 40
1.0
 40
1.0
 40
1.0
 40
1.0
 10
2629.604837892717
 20
957.1382169811208
 30
0.0
 10
2629.513410963862
 20
957.0284865277308
 30
0.0
 10
2629.454871476643
 20
956.9134558920492
 30
0.0
 10
2629.454804338718
 20
956.6758035945847
 30
0.0
 10
2629.513271580904
 20
956.560728367469
 30
0.0
 10
2629.604837892717
 20
956.4508306268761
 30
0.0
  0
SPLINE
  5
549
330
1F
100
AcDbEntity
  8
cuerpo
  6
Continuous
100
AcDbSpline
210
0.0
220
0.0
230
1.0
 70
     8
 71
     3
 72
    10
 73
     6
 74
     0
 42
0.000000001
 43
0.0000000001
 40
0.0
 40
0.0
 40
0.0
 40
0.0
 40
0.5
 40
0.5
 40
1.0
 40
1.0
 40
1.0
 40
1.0
 10
2629.604837892717
 20
954.5401407697667
 30
0.0
 10
2629.513410963862
 20
954.430410316378
 30
0.0
 10
2629.454871476643
 20
954.3153796806951
 30
0.0
 10
2629.454804338718
 20
954.0777273832318
 30
0.0
 10
2629.513271580904
 20
953.9626521561149
 30
0.0
 10
2629.604837892717
 20
953.8527544155238
 30
0.0
  0
SPLINE
  5
54A
330
1F
100
AcDbEntity
  8
cuerpo
  6
Continuous
100
AcDbSpline
210
0.0
220
0.0
230
1.0
 70
     8
 71
     3
 72
    10
 73
     6
 74
     0
 42
0.000000001
 43
0.0000000001
 40
0.0
 40
0.0
 40
0.0
 40
0.0
 40
0.5
 40
0.5
 40
1.0
 40
1.0
 40
1.0
 40
1.0
 10
2630.354837892716
 20
953.8527544155238
 30
0.0
 10
2630.446264821571
 20
953.9624848689138
 30
0.0
 10
2630.50480430879
 20
954.077515504596
 30
0.0
 10
2630.504871446715
 20
954.3151678020599
 30
0.0
 10
2630.446404204528
 20
954.4302430291757
 30
0.0
 10
2630.354837892716
 20
954.5401407697667
 30
0.0
  0
SPLINE
  5
54B
330
1F
100
AcDbEntity
  8
cuerpo
  6
Continuous
100
AcDbSpline
210
0.0
220
0.0
230
1.0
 70
     8
 71
     3
 72
    10
 73
     6
 74
     0
 42
0.000000001
 43
0.0000000001
 40
0.0
 40
0.0
 40
0.0
 40
0.0
 40
0.5
 40
0.5
 40
1.0
 40
1.0
 40
1.0
 40
1.0
 10
2629.604837892717
 20
956.1828720525658
 30
0.0
 10
2629.514134545983
 20
955.9651480299908
 30
0.0
 10
2629.454674139645
 20
955.7317070940348
 30
0.0
 10
2629.455002363461
 20
955.2571892034357
 30
0.0
 10
2629.515396945029
 20
955.0227931080378
 30
0.0
 10
2629.604837892717
 20
954.8080993440787
 30
0.0
  0
SPLINE
  5
54C
330
1F
100
AcDbEntity
  8
cuerpo
  6
Continuous
100
AcDbSpline
210
0.0
220
0.0
230
1.0
 70
     8
 71
     3
 72
    10
 73
     6
 74
     0
 42
0.000000001
 43
0.0000000001
 40
0.0
 40
0.0
 40
0.0
 40
0.0
 40
0.5
 40
0.5
 40
1.0
 40
1.0
 40
1.0
 40
1.0
 10
2630.354837892716
 20
954.8080993440787
 30
0.0
 10
2630.444278840405
 20
955.0227931080378
 30
0.0
 10
2630.504673421972
 20
955.2571892034357
 30
0.0
 10
2630.505001645788
 20
955.7317070940348
 30
0.0
 10
2630.445541239448
 20
955.9651480299908
 30
0.0
 10
2630.354837892716
 20
956.1828720525658
 30
0.0
  0
SPLINE
  5
54D
330
1F
100
AcDbEntity
  8
cuerpo
  6
Continuous
100
AcDbSpline
210
0.0
220
0.0
230
1.0
 70
     8
 71
     3
 72
    14
 73
    10
 74
     0
 42
0.000000001
 43
0.0000000001
 40
0.0
 40
0.0
 40
0.0
 40
0.0
 40
0.0428542470869761
 40
0.0428542470869761
 40
0.2821406853152319
 40
0.2821406853152319
 40
0.5214271235434879
 40
0.5214271235434879
 40
1.0
 40
1.0
 40
1.0
 40
1.0
 10
2631.408909566016
 20
954.1956123927038
 30
0.0
 10
2631.409289889145
 20
954.195390504813
 30
0.0
 10
2631.410796503016
 20
954.1962200327391
 30
0.0
 10
2631.428508750758
 20
954.2088157158119
 30
0.0
 10
2631.479344741491
 20
954.2529945667579
 30
0.0
 10
2631.611233002755
 20
954.3843000124038
 30
0.0
 10
2631.69192495967
 20
954.4713831158478
 30
0.0
 10
2631.940678128825
 20
954.7787037269868
 30
0.0
 10
2632.114112840398
 20
955.0465729451271
 30
0.0
 10
2632.251067885466
 20
955.3499161989469
 30
0.0
  0
SPLINE
  5
54E
330
1F
100
AcDbEntity
  8
cuerpo
  6
Continuous
100
AcDbSpline
210
0.0
220
0.0
230
1.0
 70
     8
 71
     3
 72
    10
 73
     6
 74
     0
 42
0.000000001
 43
0.0000000001
 40
0.0
 40
0.0
 40
0.0
 40
0.0
 40
0.5
 40
0.5
 40
1.0
 40
1.0
 40
1.0
 40
1.0
 10
2629.604837892717
 20
956.1828720525658
 30
0.0
 10
2629.514134545983
 20
955.9651480299908
 30
0.0
 10
2629.454674139645
 20
955.7317070940348
 30
0.0
 10
2629.455002363461
 20
955.2571892034357
 30
0.0
 10
2629.515396945029
 20
955.0227931080378
 30
0.0
 10
2629.604837892717
 20
954.8080993440787
 30
0.0
  0
SPLINE
  5
54F
330
1F
100
AcDbEntity
  8
cuerpo
  6
Continuous
100
AcDbSpline
210
0.0
220
0.0
230
1.0
 70
     8
 71
     3
 72
    10
 73
     6
 74
     0
 42
0.000000001
 43
0.0000000001
 40
0.0
 40
0.0
 40
0.0
 40
0.0
 40
0.5
 40
0.5
 40
1.0
 40
1.0
 40
1.0
 40
1.0
 10
2629.604837892717
 20
954.5401407697667
 30
0.0
 10
2629.513410963862
 20
954.430410316378
 30
0.0
 10
2629.454871476643
 20
954.3153796806951
 30
0.0
 10
2629.454804338718
 20
954.0777273832318
 30
0.0
 10
2629.513271580904
 20
953.9626521561149
 30
0.0
 10
2629.604837892717
 20
953.8527544155238
 30
0.0
  0
SPLINE
  5
550
330
1F
100
AcDbEntity
  8
cuerpo
  6
Continuous
100
AcDbSpline
210
0.0
220
0.0
230
1.0
 70
     8
 71
     3
 72
     8
 73
     4
 74
     0
 42
0.000000001
 43
0.0000000001
 40
0.0
 40
0.0
 40
0.0
 40
0.0
 40
1.0
 40
1.0
 40
1.0
 40
1.0
 10
2630.604837892716
 20
957.0547716823538
 30
0.0
 10
2630.654826049287
 20
957.3679528583468
 30
0.0
 10
2630.679837892716
 20
957.6831889042539
 30
0.0
 10
2630.679837892716
 20
958.0004856983229
 30
0.0
  0
SPLINE
  5
551
330
1F
100
AcDbEntity
  8
cuerpo
  6
Continuous
100
AcDbSpline
210
0.0
220
0.0
230
1.0
 70
     8
 71
     3
 72
    10
 73
     6
 74
     0
 42
0.000000001
 43
0.0000000001
 40
0.0
 40
0.0
 40
0.0
 40
0.0
 40
0.5
 40
0.5
 40
1.0
 40
1.0
 40
1.0
 40
1.0
 10
2630.354837892716
 20
954.8080993440787
 30
0.0
 10
2630.444278840405
 20
955.0227931080378
 30
0.0
 10
2630.504673421972
 20
955.2571892034357
 30
0.0
 10
2630.505001645788
 20
955.7317070940348
 30
0.0
 10
2630.445541239448
 20
955.9651480299908
 30
0.0
 10
2630.354837892716
 20
956.1828720525658
 30
0.0
  0
SPLINE
  5
552
330
1F
100
AcDbEntity
  8
cuerpo
  6
Continuous
100
AcDbSpline
210
0.0
220
0.0
230
1.0
 70
     8
 71
     3
 72
    10
 73
     6
 74
     0
 42
0.000000001
 43
0.0000000001
 40
0.0
 40
0.0
 40
0.0
 40
0.0
 40
0.5
 40
0.5
 40
1.0
 40
1.0
 40
1.0
 40
1.0
 10
2630.354837892716
 20
953.8527544155238
 30
0.0
 10
2630.446264821571
 20
953.9624848689138
 30
0.0
 10
2630.50480430879
 20
954.077515504596
 30
0.0
 10
2630.504871446715
 20
954.3151678020599
 30
0.0
 10
2630.446404204528
 20
954.4302430291757
 30
0.0
 10
2630.354837892716
 20
954.5401407697667
 30
0.0
  0
SPLINE
  5
553
330
1F
100
AcDbEntity
  8
cuerpo
  6
Continuous
100
AcDbSpline
210
0.0
220
0.0
230
1.0
 70
     8
 71
     3
 72
    10
 73
     6
 74
     0
 42
0.000000001
 43
0.0000000001
 40
0.0
 40
0.0
 40
0.0
 40
0.0
 40
0.5
 40
0.5
 40
1.0
 40
1.0
 40
1.0
 40
1.0
 10
2629.604837892717
 20
954.5401407697667
 30
0.0
 10
2629.513410963862
 20
954.430410316378
 30
0.0
 10
2629.454871476643
 20
954.3153796806951
 30
0.0
 10
2629.454804338718
 20
954.0777273832318
 30
0.0
 10
2629.513271580904
 20
953.9626521561149
 30
0.0
 10
2629.604837892717
 20
953.8527544155238
 30
0.0
  0
SPLINE
  5
554
330
1F
100
AcDbEntity
  8
cuerpo
  6
Continuous
100
AcDbSpline
210
0.0
220
0.0
230
1.0
 70
     8
 71
     3
 72
    10
 73
     6
 74
     0
 42
0.000000001
 43
0.0000000001
 40
0.0
 40
0.0
 40
0.0
 40
0.0
 40
0.5
 40
0.5
 40
1.0
 40
1.0
 40
1.0
 40
1.0
 10
2630.354837892716
 20
953.8527544155238
 30
0.0
 10
2630.446264821571
 20
953.9624848689138
 30
0.0
 10
2630.50480430879
 20
954.077515504596
 30
0.0
 10
2630.504871446715
 20
954.3151678020599
 30
0.0
 10
2630.446404204528
 20
954.4302430291757
 30
0.0
 10
2630.354837892716
 20
954.5401407697667
 30
0.0
  0
SPLINE
  5
555
330
1F
100
AcDbEntity
  8
cuerpo
  6
Continuous
100
AcDbSpline
210
0.0
220
0.0
230
1.0
 70
     8
 71
     3
 72
    10
 73
     6
 74
     0
 42
0.000000001
 43
0.0000000001
 40
0.0
 40
0.0
 40
0.0
 40
0.0
 40
0.5
 40
0.5
 40
1.0
 40
1.0
 40
1.0
 40
1.0
 10
2629.604837892717
 20
956.1828720525658
 30
0.0
 10
2629.514134545983
 20
955.9651480299908
 30
0.0
 10
2629.454674139645
 20
955.7317070940348
 30
0.0
 10
2629.455002363461
 20
955.2571892034357
 30
0.0
 10
2629.515396945029
 20
955.0227931080378
 30
0.0
 10
2629.604837892717
 20
954.8080993440787
 30
0.0
  0
SPLINE
  5
556
330
1F
100
AcDbEntity
  8
cuerpo
  6
Continuous
100
AcDbSpline
210
0.0
220
0.0
230
1.0
 70
     8
 71
     3
 72
    10
 73
     6
 74
     0
 42
0.000000001
 43
0.0000000001
 40
0.0
 40
0.0
 40
0.0
 40
0.0
 40
0.5
 40
0.5
 40
1.0
 40
1.0
 40
1.0
 40
1.0
 10
2630.354837892716
 20
954.8080993440787
 30
0.0
 10
2630.444278840405
 20
955.0227931080378
 30
0.0
 10
2630.504673421972
 20
955.2571892034357
 30
0.0
 10
2630.505001645788
 20
955.7317070940348
 30
0.0
 10
2630.445541239448
 20
955.9651480299908
 30
0.0
 10
2630.354837892716
 20
956.1828720525658
 30
0.0
  0
LINE
  5
557
330
1F
100
AcDbEntity
  8
cuerpo
  6
Continuous
100
AcDbLine
 10
2633.079837892717
 20
990.4745072525388
 30
0.0
 11
2633.080267586805
 21
989.124425907423
 31
0.0
  0
ARC
  5
558
330
1F
100
AcDbEntity
  8
cuerpo
  6
Continuous
100
AcDbCircle
 10
2631.845473589704
 20
991.4557711240309
 30
0.0
 40
2.638159724935633
100
AcDbArc
 50
243.7788735152619
 51
297.9078741242206
  0
ARC
  5
559
330
1F
100
AcDbEntity
  8
cuerpo
  6
Continuous
100
AcDbCircle
 10
2627.702078632802
 20
986.1760984244108
 30
0.0
 40
5.754906770522562
100
AcDbArc
 50
334.2345325442517
 51
25.62952001894768
  0
ARC
  5
55A
330
1F
100
AcDbEntity
  8
cuerpo
  6
Continuous
100
AcDbCircle
 10
2635.371893912902
 20
986.1341968495239
 30
0.0
 40
3.808833257756853
100
AcDbArc
 50
157.2842321743677
 51
206.8225920032078
  0
ARC
  5
55B
330
1F
100
AcDbEntity
  8
cuerpo
  6
Continuous
100
AcDbCircle
 10
2633.203587065672
 20
984.9984816479709
 30
0.0
 40
1.361803669777424
100
AcDbArc
 50
205.3449191580099
 51
256.4635465729168
  0
ARC
  5
55C
330
1F
100
AcDbEntity
  8
cuerpo
  6
Continuous
100
AcDbCircle
 10
2634.916975553029
 20
985.6602667302329
 30
0.0
 40
3.624402212695524
100
AcDbArc
 50
119.6935319438357
 51
147.5494898170182
  0
SPLINE
  5
55D
330
1F
100
AcDbEntity
  8
cuerpo
  6
Continuous
100
AcDbSpline
210
0.0
220
0.0
230
1.0
 70
     8
 71
     3
 72
    10
 73
     6
 74
     0
 42
0.000000001
 43
0.0000000001
 40
0.0
 40
0.0
 40
0.0
 40
0.0
 40
9.793377912182997
 40
14.60906894783952
 40
15.4186676045592
 40
15.4186676045592
 40
15.4186676045592
 40
15.4186676045592
 10
2633.564842362975
 20
965.7343040752619
 30
0.0
 10
2633.632235454832
 20
965.4151013441968
 30
0.0
 10
2633.732767705741
 20
964.9389372720797
 30
0.0
 10
2633.830893844006
 20
964.433230489284
 30
0.0
 10
2633.883610749628
 20
964.253599836009
 30
0.0
 10
2633.891499988467
 20
964.2278341457959
 30
0.0
  0
SPLINE
  5
55E
330
1F
100
AcDbEntity
  8
cuerpo
  6
Continuous
100
AcDbSpline
210
0.0
220
0.0
230
1.0
 70
     8
 71
     3
 72
    10
 73
     6
 74
     0
 42
0.000000001
 43
0.0000000001
 40
0.0
 40
0.0
 40
0.0
 40
0.0
 40
9.793377912182938
 40
14.60906894783941
 40
15.41866760455914
 40
15.41866760455914
 40
15.41866760455914
 40
15.41866760455914
 10
2633.564842362975
 20
960.306667321381
 30
0.0
 10
2633.632235454832
 20
960.6258700524456
 30
0.0
 10
2633.732767705741
 20
961.1020341245657
 30
0.0
 10
2633.830893844006
 20
961.6077409073586
 30
0.0
 10
2633.883610749628
 20
961.787371560637
 30
0.0
 10
2633.891499988467
 20
961.8131372508479
 30
0.0
  0
LINE
  5
55F
330
1F
100
AcDbEntity
  8
cuerpo
  6
Continuous
100
AcDbLine
 10
2655.249877007742
 20
1004.421491907263
 30
0.0
 11
2652.859009732322
 21
1004.212318124669
 31
0.0
  0
LINE
  5
560
330
1F
100
AcDbEntity
  8
cuerpo
  6
Continuous
100
AcDbLine
 10
2652.859009732322
 20
1004.212318124669
 30
0.0
 11
2652.806716286673
 21
1004.810034943524
 31
0.0
  0
LINE
  5
561
330
1F
100
AcDbEntity
  8
cuerpo
  6
Continuous
100
AcDbLine
 10
2652.806716286673
 20
1004.810034943524
 30
0.0
 11
2655.197583562094
 21
1005.019208726119
 31
0.0
  0
LINE
  5
562
330
1F
100
AcDbEntity
  8
cuerpo
  6
Continuous
100
AcDbLine
 10
2655.197583562094
 20
1005.019208726119
 30
0.0
 11
2655.249877007742
 21
1004.421491907263
 31
0.0
  0
LINE
  5
563
330
1F
100
AcDbEntity
  8
cuerpo
  6
Continuous
100
AcDbLine
 10
2630.679837892716
 20
990.4745072525388
 30
0.0
 11
2630.679837892716
 21
991.4745072525397
 31
0.0
  0
LINE
  5
564
330
1F
100
AcDbEntity
  8
cuerpo
  6
Continuous
100
AcDbLine
 10
2630.679837892716
 20
991.4745072525397
 30
0.0
 11
2633.079519619976
 21
991.4745072525397
 31
0.0
  0
LINE
  5
565
330
1F
100
AcDbEntity
  8
cuerpo
  6
Continuous
100
AcDbLine
 10
2633.079519619976
 20
991.4745072525397
 30
0.0
 11
2633.079519619976
 21
990.4745072525388
 31
0.0
  0
LINE
  5
566
330
1F
100
AcDbEntity
  8
cuerpo
  6
Continuous
100
AcDbLine
 10
2630.679837892716
 20
991.4745072525397
 30
0.0
 11
2630.679837892716
 21
994.4745072525389
 31
0.0
  0
LINE
  5
567
330
1F
100
AcDbEntity
  8
cuerpo
  6
Continuous
100
AcDbLine
 10
2633.079519619976
 20
994.4745072525389
 30
0.0
 11
2633.079519619976
 21
991.4745072525397
 31
0.0
  0
SPLINE
  5
568
330
1F
100
AcDbEntity
  8
cuerpo
  6
Continuous
100
AcDbSpline
210
0.0
220
0.0
230
1.0
 70
  1064
 71
     3
 72
    14
 73
    10
 74
     8
 42
0.000000001
 43
0.0000000001
 44
0.0000000001
 40
0.0
 40
0.0
 40
0.0
 40
0.0
 40
8.514939986899214
 40
18.60572287711462
 40
24.86156290468228
 40
26.99001404900597
 40
27.88551849793576
 40
28.8761118490274
 40
29.9831768644502
 40
29.9831768644502
 40
29.9831768644502
 40
29.9831768644502
 10
2633.079519619976
 20
994.4745072525389
 30
0.0
 10
2633.403438396809
 20
997.4087442115422
 30
0.0
 10
2634.111222950278
 20
1003.82025149157
 30
0.0
 10
2642.31458733678
 20
1008.85835525947
 30
0.0
 10
2648.457868190079
 20
1008.655711779043
 30
0.0
 10
2651.586114981239
 20
1007.908511515906
 30
0.0
 10
2652.523676741927
 20
1006.873720382595
 30
0.0
 10
2652.728469782286
 20
1005.871112961183
 30
0.0
 10
2652.779686194755
 20
1005.176582134025
 30
0.0
 10
2652.806716286673
 20
1004.810034943524
 30
0.0
 11
2633.079519619976
 21
994.4745072525389
 31
0.0
 11
2635.188854085727
 21
1002.724047305905
 31
0.0
 11
2643.595890178318
 21
1008.304875512841
 31
0.0
 11
2649.851701116734
 21
1008.285797952342
 31
0.0
 11
2651.846594791538
 21
1007.543703955601
 31
0.0
 11
2652.431263808131
 21
1006.865404346955
 31
0.0
 11
2652.699915749692
 21
1005.9119362974
 31
0.0
 11
2652.806716286673
 21
1004.810034943524
 31
0.0
  0
SPLINE
  5
569
330
1F
100
AcDbEntity
  8
cuerpo
  6
Continuous
100
AcDbSpline
210
0.0
220
0.0
230
1.0
 70
     8
 71
     3
 72
    80
 73
    76
 74
     0
 42
0.000000001
 43
0.0000000001
 40
0.0
 40
0.0
 40
0.0
 40
0.0
 40
17.23214079737838
 40
17.23214079737838
 40
34.46428159475676
 40
34.46428159475676
 40
51.69642239213516
 40
51.69642239213516
 40
68.92856318951352
 40
68.92856318951352
 40
77.11947618040318
 40
77.11947618040318
 40
84.93303090231263
 40
84.93303090231263
 40
92.50349798423213
 40
92.50349798423213
 40
100.0739650661516
 40
100.0739650661516
 40
115.2148992299907
 40
115.2148992299907
 40
130.3558333938297
 40
130.3558333938297
 40
152.1201807066149
 40
152.1201807066149
 40
173.8845280194001
 40
173.8845280194001
 40
186.3803228460698
 40
186.3803228460698
 40
198.8761176727395
 40
198.8761176727395
 40
220.1087536130096
 40
220.1087536130096
 40
241.3413895532799
 40
241.3413895532799
 40
245.6233844894766
 40
245.6233844894766
 40
248.5285696276367
 40
248.5285696276367
 40
250.9996972630948
 40
250.9996972630948
 40
253.4708248985529
 40
253.4708248985529
 40
258.5403068466322
 40
258.5403068466322
 40
263.6097887947114
 40
263.6097887947114
 40
267.5043526001123
 40
267.5043526001123
 40
271.3989164055132
 40
271.3989164055132
 40
275.2934802109141
 40
275.2934802109141
 40
276.7554145375724
 40
276.7554145375724
 40
278.5487472706387
 40
278.5487472706387
 40
279.1833588728378
 40
279.1833588728378
 40
280.4042635186061
 40
280.4042635186061
 40
283.1469113932666
 40
283.1469113932666
 40
285.8895592679271
 40
285.8895592679271
 40
288.6322071425876
 40
288.6322071425876
 40
289.6337029100394
 40
289.6337029100394
 40
290.635198677491
 40
290.635198677491
 40
292.6381902123944
 40
292.6381902123944
 40
296.6441732822011
 40
296.6441732822011
 40
299.8317686444945
 40
299.8317686444945
 40
299.8317686444945
 40
299.8317686444945
 10
2630.694011198841
 20
994.4745072525389
 30
0.0
 10
2630.759564379227
 20
995.3316675956786
 30
0.0
 10
2630.826447996807
 20
995.9385673939149
 30
0.0
 10
2630.983166438909
 20
997.1701117671669
 30
0.0
 10
2631.072979053241
 20
997.7947996679059
 30
0.0
 10
2631.299024224672
 20
999.0544705717779
 30
0.0
 10
2631.435246783797
 20
999.6895706943549
 30
0.0
 10
2631.781431488551
 20
1000.961314025568
 30
0.0
 10
2631.991500830422
 20
1001.598153129929
 30
0.0
 10
2632.378097223186
 20
1002.527890201117
 30
0.0
 10
2632.514405579862
 20
1002.825868243101
 30
0.0
 10
2632.806678334387
 20
1003.402593221801
 30
0.0
 10
2632.961454634515
 20
1003.681589589777
 30
0.0
 10
2633.292203770041
 20
1004.223220261602
 30
0.0
 10
2633.465400141823
 20
1004.482789807213
 30
0.0
 10
2633.829744602966
 20
1004.986640543316
 30
0.0
 10
2634.021014088571
 20
1005.231125773182
 30
0.0
 10
2634.619177910469
 20
1005.942269967357
 30
0.0
 10
2635.05034298588
 20
1006.386624626495
 30
0.0
 10
2635.964137061634
 20
1007.21637489755
 30
0.0
 10
2636.44679925397
 20
1007.601800010458
 30
0.0
 10
2637.672613074452
 20
1008.469492849195
 30
0.0
 10
2638.437304925107
 20
1008.920490268303
 30
0.0
 10
2640.022392430254
 20
1009.69730672182
 30
0.0
 10
2640.842841282453
 20
1010.023146299266
 30
0.0
 10
2642.159057946134
 20
1010.430553996172
 30
0.0
 10
2642.644496109195
 20
1010.557041676906
 30
0.0
 10
2643.620831090131
 20
1010.762992917635
 30
0.0
 10
2644.108700946315
 20
1010.841818074861
 30
0.0
 10
2645.42165419552
 20
1010.994181504972
 30
0.0
 10
2646.243825436375
 20
1011.025434430139
 30
0.0
 10
2647.872266460787
 20
1010.979665833088
 30
0.0
 10
2648.678569735761
 20
1010.90277115638
 30
0.0
 10
2649.637110957361
 20
1010.758663237206
 30
0.0
 10
2649.797635114386
 20
1010.732726636043
 30
0.0
 10
2650.066501732729
 20
1010.686398241578
 30
0.0
 10
2650.175026765639
 20
1010.666905011529
 30
0.0
 10
2650.375578527538
 20
1010.629461810812
 30
0.0
 10
2650.470924921273
 20
1010.611130370976
 30
0.0
 10
2650.669057310924
 20
1010.570849281277
 30
0.0
 10
2650.771591990569
 20
1010.548947088878
 30
0.0
 10
2651.094498450035
 20
1010.474689454368
 30
0.0
 10
2651.32549815115
 20
1010.414692012876
 30
0.0
 10
2651.811499117931
 20
1010.259294817275
 30
0.0
 10
2652.066751095914
 20
1010.163801992731
 30
0.0
 10
2652.531042889571
 20
1009.946356965818
 30
0.0
 10
2652.737037334095
 20
1009.835530445855
 30
0.0
 10
2653.147842238102
 20
1009.573277606275
 30
0.0
 10
2653.352744173735
 20
1009.421485707332
 30
0.0
 10
2653.744877669411
 20
1009.076245894831
 30
0.0
 10
2653.933464791507
 20
1008.882403712182
 30
0.0
 10
2654.176005565389
 20
1008.578870391859
 30
0.0
 10
2654.240422847114
 20
1008.492229311416
 30
0.0
 10
2654.378827551791
 20
1008.290157593018
 30
0.0
 10
2654.45168694864
 20
1008.172640382939
 30
0.0
 10
2654.544090607646
 20
1008.004542949616
 30
0.0
 10
2654.56777435107
 20
1007.959518094068
 30
0.0
 10
2654.633227164526
 20
1007.829436369257
 30
0.0
 10
2654.672088533393
 20
1007.744848508918
 30
0.0
 10
2654.786259942137
 20
1007.47528925768
 30
0.0
 10
2654.846672205955
 20
1007.296835994333
 30
0.0
 10
2654.942679888081
 20
1006.962593183434
 30
0.0
 10
2654.978347987027
 20
1006.806652516157
 30
0.0
 10
2655.035074510774
 20
1006.519112432034
 30
0.0
 10
2655.056127250233
 20
1006.387418809426
 30
0.0
 10
2655.079631268201
 20
1006.224921046163
 30
0.0
 10
2655.08549803379
 20
1006.182467366802
 30
0.0
 10
2655.096710967353
 20
1006.097885716662
 30
0.0
 10
2655.102017769498
 20
1006.056022639856
 30
0.0
 10
2655.117134221401
 20
1005.931739446943
 30
0.0
 10
2655.126141014065
 20
1005.850626671136
 30
0.0
 10
2655.150674280346
 20
1005.61264686814
 30
0.0
 10
2655.163735896709
 20
1005.461152280926
 30
0.0
 10
2655.184326272621
 20
1005.202208928571
 30
0.0
 10
2655.192434409462
 20
1005.092078290545
 30
0.0
 10
2655.20021724014
 20
1004.98653759436
 30
0.0
  0
ARC
  5
56A
330
1F
100
AcDbEntity
  8
cuerpo
  6
Continuous
100
AcDbCircle
 10
2631.887208840058
 20
963.0204856983219
 30
0.0
 40
1.207370947341313
100
AcDbArc
 50
90.3497904252689
 51
269.6502095747312
  0
LINE
  5
56B
330
1F
100
AcDbEntity
  8
cuerpo
  6
Continuous
100
AcDbLine
 10
2631.879837892716
 20
964.2278341457959
 30
0.0
 11
2654.049877007743
 21
964.2278341457959
 31
0.0
  0
ARC
  5
56C
330
1F
100
AcDbEntity
  8
cuerpo
  6
Continuous
100
AcDbCircle
 10
2654.049877007743
 20
963.027834145797
 30
0.0
 40
1.199999999999999
100
AcDbArc
 50
0.0
 51
90.0
  0
LINE
  5
56D
330
1F
100
AcDbEntity
  8
cuerpo
  6
Continuous
100
AcDbLine
 10
2631.879837892716
 20
961.8131372508479
 30
0.0
 11
2654.049877007743
 21
961.8131372508479
 31
0.0
  0
ARC
  5
56E
330
1F
100
AcDbEntity
  8
cuerpo
  6
Continuous
100
AcDbCircle
 10
2654.049877007743
 20
963.013137250847
 30
0.0
 40
1.199999999999999
100
AcDbArc
 50
270.0
 51
0.0
  0
LINE
  5
56F
330
1F
100
AcDbEntity
  8
cuerpo
  6
Continuous
100
AcDbLine
 10
2655.249877007742
 20
963.027834145797
 30
0.0
 11
2655.249877007742
 21
963.013137250847
 31
0.0
  0
LINE
  5
570
330
1F
100
AcDbEntity
  8
cuerpo
  6
Continuous
100
AcDbLine
 10
2636.307536694191
 20
965.0642163690818
 30
0.0
 11
2636.307536694191
 21
965.3154802983188
 31
0.0
  0
LINE
  5
571
330
1F
100
AcDbEntity
  8
cuerpo
  6
Continuous
100
AcDbLine
 10
2636.307536694191
 20
960.7254910983197
 30
0.0
 11
2636.307536694191
 21
960.9767550275599
 31
0.0
  0
LINE
  5
572
330
1F
100
AcDbEntity
  8
cuerpo
  6
Continuous
100
AcDbLine
 10
2636.30753759419
 20
965.3154802983188
 30
0.0
 11
2636.35804019419
 21
965.3118271983199
 31
0.0
  0
ARC
  5
573
330
1F
100
AcDbEntity
  8
cuerpo
  6
Continuous
100
AcDbCircle
 10
2636.311397319486
 20
964.9895391055418
 30
0.0
 40
0.3256457776597943
100
AcDbArc
 50
72.50988790632786
 51
81.76509218945808
  0
ARC
  5
574
330
1F
100
AcDbEntity
  8
cuerpo
  6
Continuous
100
AcDbCircle
 10
2636.298957217041
 20
964.935778412325
 30
0.0
 40
0.3806840139369302
100
AcDbArc
 50
64.75842371355222
 51
73.15592796644233
  0
ARC
  5
575
330
1F
100
AcDbEntity
  8
cuerpo
  6
Continuous
100
AcDbCircle
 10
2636.275447471708
 20
964.873932329637
 30
0.0
 40
0.4466795075942132
100
AcDbArc
 50
57.75134176215825
 51
65.4136943596006
  0
ARC
  5
576
330
1F
100
AcDbEntity
  8
cuerpo
  6
Continuous
100
AcDbCircle
 10
2636.245043823061
 20
964.8201097084809
 30
0.0
 40
0.5084315799268331
100
AcDbArc
 50
50.79711858837185
 51
58.09007942443176
  0
ARC
  5
577
330
1F
100
AcDbEntity
  8
cuerpo
  6
Continuous
100
AcDbCircle
 10
2636.186723908096
 20
964.734561459047
 30
0.0
 40
0.6116506294526133
100
AcDbArc
 50
45.05442429508014
 51
51.62892555420198
  0
ARC
  5
578
330
1F
100
AcDbEntity
  8
cuerpo
  6
Continuous
100
AcDbCircle
 10
2636.094029724753
 20
964.6304360971738
 30
0.0
 40
0.7508727760613048
100
AcDbArc
 50
39.82760188615504
 51
45.66113078769522
  0
ARC
  5
579
330
1F
100
AcDbEntity
  8
cuerpo
  6
Continuous
100
AcDbCircle
 10
2635.963346712843
 20
964.5057112243071
 30
0.0
 40
0.9311962574235879
100
AcDbArc
 50
35.47591350048053
 51
40.57125081713641
  0
ARC
  5
57A
330
1F
100
AcDbEntity
  8
cuerpo
  6
Continuous
100
AcDbCircle
 10
2635.80047712508
 20
964.3783378842488
 30
0.0
 40
1.137790372771702
100
AcDbArc
 50
31.42410761014834
 51
35.93943499917972
  0
ARC
  5
57B
330
1F
100
AcDbEntity
  8
cuerpo
  6
Continuous
100
AcDbCircle
 10
2635.589657257414
 20
964.2333865860019
 30
0.0
 40
1.39333079083701
100
AcDbArc
 50
28.03241164004198
 51
31.99063156591958
  0
ARC
  5
57C
330
1F
100
AcDbEntity
  8
cuerpo
  6
Continuous
100
AcDbCircle
 10
2635.343047387925
 20
964.0908458911539
 30
0.0
 40
1.678028154727993
100
AcDbArc
 50
24.85396094449005
 51
28.37108165530214
  0
ARC
  5
57D
330
1F
100
AcDbEntity
  8
cuerpo
  6
Continuous
100
AcDbCircle
 10
2635.050661086273
 20
963.9395733104938
 30
0.0
 40
2.006966579017368
100
AcDbArc
 50
22.14680129270867
 51
25.26420736870182
  0
ARC
  5
57E
330
1F
100
AcDbEntity
  8
cuerpo
  6
Continuous
100
AcDbCircle
 10
2634.731611448076
 20
963.7995456826798
 30
0.0
 40
2.355283647471265
100
AcDbArc
 50
19.57258167391644
 51
22.37597911248435
  0
ARC
  5
57F
330
1F
100
AcDbEntity
  8
cuerpo
  6
Continuous
100
AcDbCircle
 10
2634.378732464218
 20
963.65916661239
 30
0.0
 40
2.73483572798773
100
AcDbArc
 50
17.34229910578641
 51
19.86699737714079
  0
ARC
  5
580
330
1F
100
AcDbEntity
  8
cuerpo
  6
Continuous
100
AcDbCircle
 10
2634.011241267905
 20
963.5356455201899
 30
0.0
 40
3.122451469265556
100
AcDbArc
 50
15.19532035387394
 51
17.49578093732321
  0
ARC
  5
581
330
1F
100
AcDbEntity
  8
cuerpo
  6
Continuous
100
AcDbCircle
 10
2633.632385034431
 20
963.4191687771178
 30
0.0
 40
3.518616251144089
100
AcDbArc
 50
13.30265673971124
 51
15.40867407222334
  0
ARC
  5
582
330
1F
100
AcDbEntity
  8
cuerpo
  6
Continuous
100
AcDbCircle
 10
2633.252957187459
 20
963.3224123555878
 30
0.0
 40
3.910132533641783
100
AcDbArc
 50
13.38880485698595
 51
13.4031169909783
  0
ARC
  5
583
330
1F
100
AcDbEntity
  8
cuerpo
  6
Continuous
100
AcDbCircle
 10
2632.682358349305
 20
962.8443978366028
 30
0.0
 40
4.494370463768228
100
AcDbArc
 50
346.722504302216
 51
346.7349495344798
  0
ARC
  5
584
330
1F
100
AcDbEntity
  8
cuerpo
  6
Continuous
100
AcDbCircle
 10
2633.077850362252
 20
962.7639163548767
 30
0.0
 40
4.090985408832596
100
AcDbArc
 50
344.7360433910001
 51
346.5474157072133
  0
ARC
  5
585
330
1F
100
AcDbEntity
  8
cuerpo
  6
Continuous
100
AcDbCircle
 10
2633.461340496588
 20
962.6664235016669
 30
0.0
 40
3.695363449186227
100
AcDbArc
 50
342.6852318668196
 51
344.6289614953092
  0
ARC
  5
586
330
1F
100
AcDbEntity
  8
cuerpo
  6
Continuous
100
AcDbCircle
 10
2633.847813597413
 20
962.5598524168317
 30
0.0
 40
3.294712696436731
100
AcDbArc
 50
340.3588612042262
 51
342.4542756976298
  0
ARC
  5
587
330
1F
100
AcDbEntity
  8
cuerpo
  6
Continuous
100
AcDbCircle
 10
2634.253315265015
 20
962.425401918505
 30
0.0
 40
2.867628346155551
100
AcDbArc
 50
337.8628898421717
 51
340.1655975688123
  0
ARC
  5
588
330
1F
100
AcDbEntity
  8
cuerpo
  6
Continuous
100
AcDbCircle
 10
2634.657394438921
 20
962.276174294354
 30
0.0
 40
2.43714381150042
100
AcDbArc
 50
334.9644518277766
 51
337.5328260917588
  0
ARC
  5
589
330
1F
100
AcDbEntity
  8
cuerpo
  6
Continuous
100
AcDbCircle
 10
2634.95517410817
 20
962.1424835416288
 30
0.0
 40
2.110772244617032
100
AcDbArc
 50
332.037589101232
 51
334.8318604540571
  0
ARC
  5
58A
330
1F
100
AcDbEntity
  8
cuerpo
  6
Continuous
100
AcDbCircle
 10
2635.17111891516
 20
962.0423349714258
 30
0.0
 40
1.873122665739984
100
AcDbArc
 50
328.7099210651425
 51
331.6461138763108
  0
ARC
  5
58B
330
1F
100
AcDbEntity
  8
cuerpo
  6
Continuous
100
AcDbCircle
 10
2635.544174988788
 20
961.8394376678969
 30
0.0
 40
1.449092212428442
100
AcDbArc
 50
324.348569243078
 51
327.904526097166
  0
ARC
  5
58C
330
1F
100
AcDbEntity
  8
cuerpo
  6
Continuous
100
AcDbCircle
 10
2635.896506015895
 20
961.603814682623
 30
0.0
 40
1.025556470690881
100
AcDbArc
 50
318.8794940209388
 51
323.5722582870546
  0
ARC
  5
58D
330
1F
100
AcDbEntity
  8
cuerpo
  6
Continuous
100
AcDbCircle
 10
2635.907514605108
 20
961.564119246392
 30
0.0
 40
0.9914169746183471
100
AcDbArc
 50
315.8450506161805
 51
320.1893984210027
  0
ARC
  5
58E
330
1F
100
AcDbEntity
  8
cuerpo
  6
Continuous
100
AcDbCircle
 10
2635.377420743303
 20
962.0820937664328
 30
0.0
 40
1.732560628255203
100
AcDbArc
 50
313.6215025037965
 51
315.7669646095514
  0
ARC
  5
58F
330
1F
100
AcDbEntity
  8
cuerpo
  6
Continuous
100
AcDbCircle
 10
2636.216348055724
 20
961.3073387350036
 30
0.0
 40
0.5973908502655198
100
AcDbArc
 50
299.861641425358
 51
306.6205335169248
  0
ARC
  5
590
330
1F
100
AcDbEntity
  8
cuerpo
  6
Continuous
100
AcDbCircle
 10
2636.333630276608
 20
961.1267474409178
 30
0.0
 40
0.382562752250441
100
AcDbArc
 50
283.6970039695411
 51
298.0951470849853
  0
ARC
  5
591
330
1F
100
AcDbEntity
  8
cuerpo
  6
Continuous
100
AcDbCircle
 10
2636.176914731495
 20
961.4858154961138
 30
0.0
 40
0.7714632344705647
100
AcDbArc
 50
279.7481874101089
 51
288.6968972600939
  0
LINE
  5
592
330
1F
100
AcDbEntity
  8
cuerpo
  6
Continuous
100
AcDbLine
 10
2636.30753759419
 20
960.7254883983209
 30
0.0
 11
2639.94130041092
 21
960.7254883983209
 31
0.0
  0
LINE
  5
593
330
1F
100
AcDbEntity
  8
cuerpo
  6
Continuous
100
AcDbLine
 10
2639.94130041092
 20
965.3154829983197
 30
0.0
 11
2636.30753759419
 21
965.3154829983197
 31
0.0
  0
ARC
  5
594
330
1F
100
AcDbEntity
  8
cuerpo
  6
Continuous
100
AcDbCircle
 10
2636.075447471708
 20
964.873932329637
 30
0.0
 40
0.4466795075942132
100
AcDbArc
 50
57.75134176215825
 51
58.69539402803298
  0
ARC
  5
595
330
1F
100
AcDbEntity
  8
cuerpo
  6
Continuous
100
AcDbCircle
 10
2636.045043823057
 20
964.8201097084809
 30
0.0
 40
0.5084315799268331
100
AcDbArc
 50
50.79711858837185
 51
58.09007942443176
  0
ARC
  5
596
330
1F
100
AcDbEntity
  8
cuerpo
  6
Continuous
100
AcDbCircle
 10
2635.986723908096
 20
964.734561459047
 30
0.0
 40
0.6116506294526133
100
AcDbArc
 50
45.05442429508014
 51
51.62892555420198
  0
ARC
  5
597
330
1F
100
AcDbEntity
  8
cuerpo
  6
Continuous
100
AcDbCircle
 10
2635.894029724752
 20
964.6304360971738
 30
0.0
 40
0.7508727760613048
100
AcDbArc
 50
39.82760188615504
 51
45.66113078769522
  0
ARC
  5
598
330
1F
100
AcDbEntity
  8
cuerpo
  6
Continuous
100
AcDbCircle
 10
2635.763346712844
 20
964.5057112243071
 30
0.0
 40
0.9311962574235879
100
AcDbArc
 50
35.47591350048053
 51
40.57125081713641
  0
ARC
  5
599
330
1F
100
AcDbEntity
  8
cuerpo
  6
Continuous
100
AcDbCircle
 10
2635.600477125079
 20
964.3783378842488
 30
0.0
 40
1.137790372771702
100
AcDbArc
 50
31.42410761014834
 51
35.93943499917972
  0
ARC
  5
59A
330
1F
100
AcDbEntity
  8
cuerpo
  6
Continuous
100
AcDbCircle
 10
2635.389657257413
 20
964.2333865860019
 30
0.0
 40
1.39333079083701
100
AcDbArc
 50
28.03241164004198
 51
31.99063156591958
  0
ARC
  5
59B
330
1F
100
AcDbEntity
  8
cuerpo
  6
Continuous
100
AcDbCircle
 10
2635.143047387925
 20
964.0908458911539
 30
0.0
 40
1.678028154727993
100
AcDbArc
 50
24.85396094449005
 51
28.37108165530214
  0
ARC
  5
59C
330
1F
100
AcDbEntity
  8
cuerpo
  6
Continuous
100
AcDbCircle
 10
2634.850661086271
 20
963.9395733104938
 30
0.0
 40
2.006966579017368
100
AcDbArc
 50
22.14680129270867
 51
25.26420736870182
  0
ARC
  5
59D
330
1F
100
AcDbEntity
  8
cuerpo
  6
Continuous
100
AcDbCircle
 10
2634.531611448076
 20
963.7995456826798
 30
0.0
 40
2.355283647471265
100
AcDbArc
 50
19.57258167391644
 51
22.37597911248435
  0
ARC
  5
59E
330
1F
100
AcDbEntity
  8
cuerpo
  6
Continuous
100
AcDbCircle
 10
2634.178732464217
 20
963.65916661239
 30
0.0
 40
2.73483572798773
100
AcDbArc
 50
17.34229910578641
 51
19.86699737714079
  0
ARC
  5
59F
330
1F
100
AcDbEntity
  8
cuerpo
  6
Continuous
100
AcDbCircle
 10
2633.811241267906
 20
963.5356455201899
 30
0.0
 40
3.122451469265556
100
AcDbArc
 50
15.19532035387394
 51
17.49578093732321
  0
ARC
  5
5A0
330
1F
100
AcDbEntity
  8
cuerpo
  6
Continuous
100
AcDbCircle
 10
2633.432385034431
 20
963.4191687771178
 30
0.0
 40
3.518616251144089
100
AcDbArc
 50
13.30265673971124
 51
15.40867407222334
  0
ARC
  5
5A1
330
1F
100
AcDbEntity
  8
cuerpo
  6
Continuous
100
AcDbCircle
 10
2633.052957187459
 20
963.3224123555878
 30
0.0
 40
3.910132533641783
100
AcDbArc
 50
13.38880485698595
 51
13.4031169909783
  0
ARC
  5
5A2
330
1F
100
AcDbEntity
  8
cuerpo
  6
Continuous
100
AcDbCircle
 10
2632.482358349305
 20
962.8443978366028
 30
0.0
 40
4.494370463768228
100
AcDbArc
 50
346.722504302216
 51
346.7349495344798
  0
ARC
  5
5A3
330
1F
100
AcDbEntity
  8
cuerpo
  6
Continuous
100
AcDbCircle
 10
2632.877850362254
 20
962.7639163548767
 30
0.0
 40
4.090985408832596
100
AcDbArc
 50
344.7360433910001
 51
346.5474157072133
  0
ARC
  5
5A4
330
1F
100
AcDbEntity
  8
cuerpo
  6
Continuous
100
AcDbCircle
 10
2633.261340496588
 20
962.6664235016669
 30
0.0
 40
3.695363449186227
100
AcDbArc
 50
342.6852318668196
 51
344.6289614953092
  0
ARC
  5
5A5
330
1F
100
AcDbEntity
  8
cuerpo
  6
Continuous
100
AcDbCircle
 10
2633.647813597413
 20
962.5598524168317
 30
0.0
 40
3.294712696436731
100
AcDbArc
 50
340.3588612042262
 51
342.4542756976298
  0
ARC
  5
5A6
330
1F
100
AcDbEntity
  8
cuerpo
  6
Continuous
100
AcDbCircle
 10
2634.053315265016
 20
962.425401918505
 30
0.0
 40
2.867628346155551
100
AcDbArc
 50
337.8628898421717
 51
340.1655975688123
  0
ARC
  5
5A7
330
1F
100
AcDbEntity
  8
cuerpo
  6
Continuous
100
AcDbCircle
 10
2634.45739443892
 20
962.276174294354
 30
0.0
 40
2.43714381150042
100
AcDbArc
 50
334.9644518277766
 51
337.5328260917588
  0
ARC
  5
5A8
330
1F
100
AcDbEntity
  8
cuerpo
  6
Continuous
100
AcDbCircle
 10
2634.755174108169
 20
962.1424835416288
 30
0.0
 40
2.110772244617032
100
AcDbArc
 50
332.037589101232
 51
334.8318604540571
  0
ARC
  5
5A9
330
1F
100
AcDbEntity
  8
cuerpo
  6
Continuous
100
AcDbCircle
 10
2634.971118915159
 20
962.0423349714258
 30
0.0
 40
1.873122665739984
100
AcDbArc
 50
328.7099210651425
 51
331.6461138763108
  0
ARC
  5
5AA
330
1F
100
AcDbEntity
  8
cuerpo
  6
Continuous
100
AcDbCircle
 10
2635.344174988788
 20
961.8394376678969
 30
0.0
 40
1.449092212428442
100
AcDbArc
 50
324.348569243078
 51
327.904526097166
  0
ARC
  5
5AB
330
1F
100
AcDbEntity
  8
cuerpo
  6
Continuous
100
AcDbCircle
 10
2635.696506015895
 20
961.603814682623
 30
0.0
 40
1.025556470690881
100
AcDbArc
 50
318.8794940209388
 51
323.5722582870546
  0
ARC
  5
5AC
330
1F
100
AcDbEntity
  8
cuerpo
  6
Continuous
100
AcDbCircle
 10
2635.707514605107
 20
961.564119246392
 30
0.0
 40
0.9914169746183471
100
AcDbArc
 50
315.8450506161805
 51
320.1893984210027
  0
ARC
  5
5AD
330
1F
100
AcDbEntity
  8
cuerpo
  6
Continuous
100
AcDbCircle
 10
2635.177420743305
 20
962.0820937664328
 30
0.0
 40
1.732560628255203
100
AcDbArc
 50
313.6215025037965
 51
315.7669646095514
  0
ARC
  5
5AE
330
1F
100
AcDbEntity
  8
cuerpo
  6
Continuous
100
AcDbCircle
 10
2636.016348055725
 20
961.3073387350036
 30
0.0
 40
0.5973908502655198
100
AcDbArc
 50
299.861641425358
 51
306.6205335169248
  0
ARC
  5
5AF
330
1F
100
AcDbEntity
  8
cuerpo
  6
Continuous
100
AcDbCircle
 10
2636.13363027661
 20
961.1267474409178
 30
0.0
 40
0.382562752250441
100
AcDbArc
 50
297.0380890987252
 51
298.0951470849853
  0
LINE
  5
5B0
330
1F
100
AcDbEntity
  8
cuerpo
100
AcDbLine
 10
2639.94130041092
 20
960.7254883983209
 30
0.0
 11
2639.94130041092
 21
961.8131372508479
 31
0.0
  0
LINE
  5
5B1
330
1F
100
AcDbEntity
  8
cuerpo
100
AcDbLine
 10
2639.94130041092
 20
964.2278341457959
 30
0.0
 11
2639.94130041092
 21
965.3154829983197
 31
0.0
  0
LINE
  5
5B2
330
1F
100
AcDbEntity
  8
cuerpo
  6
Continuous
100
AcDbLine
 10
2636.554291254183
 20
961.043003219814
 30
0.0
 11
2635.835806082623
 21
960.8504856983218
 31
0.0
  0
LINE
  5
5B3
330
1F
100
AcDbEntity
  8
cuerpo
  6
Continuous
100
AcDbLine
 10
2636.554249690245
 20
964.997979313852
 30
0.0
 11
2635.835806082623
 21
965.190485698322
 31
0.0
  0
LINE
  5
5B4
330
1F
100
AcDbEntity
  8
cuerpo
  6
Continuous
100
AcDbLine
 10
2640.019083938588
 20
994.7415022525389
 30
0.0
 11
2639.815341538587
 21
994.7128680525388
 31
0.0
  0
LINE
  5
5B5
330
1F
100
AcDbEntity
  8
cuerpo
  6
Continuous
100
AcDbLine
 10
2640.076042638587
 20
994.2449476525379
 30
0.0
 11
2640.076042638587
 21
990.0124847525388
 31
0.0
  0
LINE
  5
5B6
330
1F
100
AcDbEntity
  8
cuerpo
  6
Continuous
100
AcDbLine
 10
2637.588663538587
 20
983.9995072525377
 30
0.0
 11
2640.026042638588
 21
983.9995072525377
 31
0.0
  0
LINE
  5
5B7
330
1F
100
AcDbEntity
  8
cuerpo
  6
Continuous
100
AcDbLine
 10
2636.676042638588
 20
986.1495072525388
 30
0.0
 11
2637.588663538587
 21
983.9995072525377
 31
0.0
  0
LINE
  5
5B8
330
1F
100
AcDbEntity
  8
cuerpo
  6
Continuous
100
AcDbLine
 10
2638.316042638589
 20
988.4995072525386
 30
0.0
 11
2639.215974238587
 21
988.4995071525388
 31
0.0
  0
LINE
  5
5B9
330
1F
100
AcDbEntity
  8
cuerpo
  6
Continuous
100
AcDbLine
 10
2636.676042638588
 20
988.4995072525386
 30
0.0
 11
2637.636042638589
 21
988.4995072525386
 31
0.0
  0
LINE
  5
5BA
330
1F
100
AcDbEntity
  8
cuerpo
  6
Continuous
100
AcDbLine
 10
2640.076042638587
 20
994.3810734525388
 30
0.0
 11
2640.076042638587
 21
994.6919888525387
 31
0.0
  0
LINE
  5
5BB
330
1F
100
AcDbEntity
  8
cuerpo
  6
Continuous
100
AcDbLine
 10
2639.569315038587
 20
990.0146657525388
 30
0.0
 11
2639.752572138588
 21
994.2119441525388
 31
0.0
  0
LINE
  5
5BC
330
1F
100
AcDbEntity
  8
cuerpo
  6
Continuous
100
AcDbLine
 10
2640.026042638588
 20
994.2449476525379
 30
0.0
 11
2639.802524538587
 21
994.2097631525388
 31
0.0
  0
LINE
  5
5BD
330
1F
100
AcDbEntity
  8
cuerpo
  6
Continuous
100
AcDbLine
 10
2640.076042638587
 20
990.0124847525388
 30
0.0
 11
2640.076042638587
 21
987.1444856525387
 31
0.0
  0
LINE
  5
5BE
330
1F
100
AcDbEntity
  8
cuerpo
  6
Continuous
100
AcDbLine
 10
2640.076042638587
 20
984.0495072525389
 30
0.0
 11
2640.076042638587
 21
987.1444856525387
 31
0.0
  0
LINE
  5
5BF
330
1F
100
AcDbEntity
  8
cuerpo
  6
Continuous
100
AcDbLine
 10
2636.676042638588
 20
988.4995072525386
 30
0.0
 11
2636.676042638588
 21
986.1495072525388
 31
0.0
  0
ARC
  5
5C0
330
1F
100
AcDbEntity
  8
cuerpo
  6
Continuous
100
AcDbCircle
 10
2639.215974238587
 20
988.7995070525388
 30
0.0
 40
0.299999973533
100
AcDbArc
 50
270.0
 51
357.5000409999989
  0
ARC
  5
5C1
330
1F
100
AcDbEntity
  8
cuerpo
  6
Continuous
100
AcDbCircle
 10
2640.026042638588
 20
984.0495072525389
 30
0.0
 40
0.05
100
AcDbArc
 50
270.0
 51
0.0
  0
ARC
  5
5C2
330
1F
100
AcDbEntity
  8
cuerpo
  6
Continuous
100
AcDbCircle
 10
2640.026042638588
 20
994.6919888525387
 30
0.0
 40
0.05
100
AcDbArc
 50
0.0
 51
97.99999999998798
  0
SPLINE
  5
5C3
330
1F
100
AcDbEntity
  8
cuerpo
  6
Continuous
100
AcDbSpline
210
0.0
220
0.0
230
1.0
 70
     8
 71
     3
 72
    26
 73
    22
 74
     0
 42
0.000000001
 43
0.0000000001
 40
0.0
 40
0.0
 40
0.0
 40
0.0
 40
0.1065928630284554
 40
0.1065928630284554
 40
0.2131351495854313
 40
0.2131351495854313
 40
0.3204378719620005
 40
0.3204378719620005
 40
0.4283004241969267
 40
0.4283004241969267
 40
0.5353307360128407
 40
0.5353307360128407
 40
0.6414326354232443
 40
0.6414326354232443
 40
0.7479582682980578
 40
0.7479582682980578
 40
0.8555924098493424
 40
0.8555924098493424
 40
0.9633037048859318
 40
0.9633037048859318
 40
1.0
 40
1.0
 40
1.0
 40
1.0
 10
2638.316043132746
 20
988.4995073290729
 30
0.0
 10
2638.31604214443
 20
988.4995071760037
 30
0.0
 10
2638.309551391419
 20
988.4985018975699
 30
0.0
 10
2638.284709186233
 20
988.4949524075857
 30
0.0
 10
2638.266029924327
 20
988.4923743544177
 30
0.0
 10
2638.219066135894
 20
988.4867852898437
 30
0.0
 10
2638.190067345407
 20
988.4837149430232
 30
0.0
 10
2638.12574079375
 20
988.4784704411099
 30
0.0
 10
2638.089478044406
 20
988.4762494110749
 30
0.0
 10
2638.01523618158
 20
988.4737083102947
 30
0.0
 10
2637.976243239632
 20
988.4733501318157
 30
0.0
 10
2637.901104855462
 20
988.4746176824501
 30
0.0
 10
2637.863912656004
 20
988.4762372294037
 30
0.0
 10
2637.795901180952
 20
988.4806941182908
 30
0.0
 10
2637.76417438919
 20
988.4835788631418
 30
0.0
 10
2637.710222383147
 20
988.4893362034979
 30
0.0
 10
2637.687348970954
 20
988.4922664627117
 30
0.0
 10
2637.653853406022
 20
988.4968235336778
 30
0.0
 10
2637.642778781877
 20
988.4984949283328
 30
0.0
 10
2637.63681221405
 20
988.4993905806839
 30
0.0
 10
2637.636041550907
 20
988.4995074174369
 30
0.0
 10
2637.636043108268
 20
988.4995071813328
 30
0.0
  0
SPLINE
  5
5C4
330
1F
100
AcDbEntity
  8
cuerpo
  6
Continuous
100
AcDbSpline
210
0.0
220
0.0
230
1.0
 70
    24
 71
     1
 72
     4
 73
     2
 74
     0
 42
0.000000001
 43
0.0000000001
 40
0.0
 40
0.0
 40
1.0
 40
1.0
 10
2639.490481161228
 20
988.1908427814689
 30
0.0
 10
2639.487313523615
 20
988.1518081669311
 30
0.0
  0
SPLINE
  5
5C5
330
1F
100
AcDbEntity
  8
cuerpo
  6
Continuous
100
AcDbSpline
210
0.0
220
0.0
230
1.0
 70
     8
 71
     3
 72
    11
 73
     7
 74
     0
 42
0.000000001
 43
0.0000000001
 40
0.0
 40
0.0
 40
0.0
 40
0.0
 40
0.2368622315380254
 40
0.4881362484041809
 40
0.7456630528843437
 40
1.0
 40
1.0
 40
1.0
 40
1.0
 10
2639.815986651063
 20
994.7129527337677
 30
0.0
 10
2639.811720176556
 20
994.7123896541599
 30
0.0
 10
2639.803375527226
 20
994.7102339049838
 30
0.0
 10
2639.791670496871
 20
994.7036460873757
 30
0.0
 10
2639.781957877957
 20
994.6938957277039
 30
0.0
 10
2639.777542630301
 20
994.6860155671457
 30
0.0
 10
2639.775819990933
 20
994.6817121563217
 30
0.0
  0
SPLINE
  5
5C6
330
1F
100
AcDbEntity
  8
cuerpo
  6
Continuous
100
AcDbSpline
210
0.0
220
0.0
230
1.0
 70
     8
 71
     3
 72
    13
 73
     9
 74
     0
 42
0.000000001
 43
0.0000000001
 40
0.0
 40
0.0
 40
0.0
 40
0.0
 40
0.1668886297795008
 40
0.3336943671331041
 40
0.5004129803211665
 40
0.6670389793890159
 40
0.8335687228374968
 40
1.0
 40
1.0
 40
1.0
 40
1.0
 10
2639.775819981619
 20
994.6817121327237
 30
0.0
 10
2639.775642161206
 20
994.681254041034
 30
0.0
 10
2639.775039326694
 20
994.6743537613828
 30
0.0
 10
2639.773390924495
 20
994.6459939156058
 30
0.0
 10
2639.7710085011
 20
994.5998598639757
 30
0.0
 10
2639.767905695979
 20
994.5362715852438
 30
0.0
 10
2639.764097724024
 20
994.4555859508769
 30
0.0
 10
2639.761109562851
 20
994.3908809979921
 30
0.0
 10
2639.759501708633
 20
994.3557669714666
 30
0.0
  0
SPLINE
  5
5C7
330
1F
100
AcDbEntity
  8
cuerpo
  6
Continuous
100
AcDbSpline
210
0.0
220
0.0
230
1.0
 70
     8
 71
     3
 72
    12
 73
     8
 74
     0
 42
0.000000001
 43
0.0000000001
 40
0.0
 40
0.0
 40
0.0
 40
0.0
 40
0.2
 40
0.4
 40
0.6
 40
0.8
 40
1.0
 40
1.0
 40
1.0
 40
1.0
 10
2640.076042638493
 20
994.3810734049538
 30
0.0
 10
2640.076042638493
 20
994.3760613288247
 30
0.0
 10
2640.07604263863
 20
994.3640786952649
 30
0.0
 10
2640.076042638579
 20
994.3398584908839
 30
0.0
 10
2640.076042638582
 20
994.3109408098369
 30
0.0
 10
2640.076042638624
 20
994.2784597992279
 30
0.0
 10
2640.076042638509
 20
994.2563058638119
 30
0.0
 10
2640.076042638509
 20
994.244947604694
 30
0.0
  0
SPLINE
  5
5C8
330
1F
100
AcDbEntity
  8
cuerpo
  6
Continuous
100
AcDbSpline
210
0.0
220
0.0
230
1.0
 70
    28
 71
     3
 72
    21
 73
    17
 74
     0
 42
0.000000001
 43
0.0000000001
 40
0.0
 40
0.0
 40
0.0
 40
0.0
 40
0.076953114910023
 40
0.1550982740433942
 40
0.2305713294610639
 40
0.3045285410538908
 40
0.3780550733065311
 40
0.4516787063734867
 40
0.5251156925171406
 40
0.598664600193473
 40
0.6733492464598956
 40
0.7466082791591761
 40
0.8195505454779425
 40
0.8952986488784649
 40
0.9722259207823956
 40
1.0
 40
1.0
 40
1.0
 40
1.0
 10
2639.215974224758
 20
988.4995070949619
 30
0.0
 41
1.163591645846937
 10
2639.215974175332
 20
988.4995060960816
 30
0.0
 41
1.163591645846937
 10
2639.215679937897
 20
988.4935597915109
 30
0.0
 41
1.163591645846937
 10
2639.214364259194
 20
988.4669709709955
 30
0.0
 41
1.163591645846937
 10
2639.212217737232
 20
988.4235914688229
 30
0.0
 41
1.163591645846937
 10
2639.209322574674
 20
988.3650825354928
 30
0.0
 41
1.163591645846937
 10
2639.205696960674
 20
988.2918117592538
 30
0.0
 41
1.163591645846937
 10
2639.201354995519
 20
988.2040640957969
 30
0.0
 41
1.163591645846937
 10
2639.196319459775
 20
988.102299922172
 30
0.0
 41
1.163591645846937
 10
2639.19060001976
 20
987.986714586967
 30
0.0
 41
1.163591645846937
 10
2639.184261744157
 20
987.8586230766078
 30
0.0
 41
1.163591645846937
 10
2639.177367035625
 20
987.7192864991316
 30
0.0
 41
1.163591645846937
 10
2639.169918636626
 20
987.5687602776677
 30
0.0
 41
1.163591645846937
 10
2639.16186317769
 20
987.4059658574768
 30
0.0
 41
1.163591645846937
 10
2639.155072529971
 20
987.2687322663367
 30
0.0
 41
1.163591645846937
 10
2639.151015031583
 20
987.1867334500432
 30
0.0
 41
1.163591645846937
 10
2639.149930997657
 20
987.1648259862839
 30
0.0
 41
1.163591645846937
  0
SPLINE
  5
5C9
330
1F
100
AcDbEntity
  8
cuerpo
  6
Continuous
100
AcDbSpline
210
0.0
220
0.0
230
1.0
 70
     8
 71
     3
 72
    15
 73
    11
 74
     0
 42
0.000000001
 43
0.0000000001
 40
0.0
 40
0.0
 40
0.0
 40
0.0
 40
0.1882670948147932
 40
0.2750826422878693
 40
0.3569783760798322
 40
0.5074510123015945
 40
0.6428420380253752
 40
0.8706564463765026
 40
0.9658372528592348
 40
1.0
 40
1.0
 40
1.0
 40
1.0
 10
2639.149930993871
 20
987.1648259864389
 30
0.0
 10
2639.177148184438
 20
987.2231242179289
 30
0.0
 10
2639.216916029714
 20
987.308305494958
 30
0.0
 10
2639.266931734262
 20
987.4198667332587
 30
0.0
 10
2639.310411766572
 20
987.5202478812369
 30
0.0
 10
2639.357895361687
 20
987.6372032674078
 30
0.0
 10
2639.417411036751
 20
987.8034661731661
 30
0.0
 10
2639.459447760191
 20
987.9561731140839
 30
0.0
 10
2639.480157711519
 20
988.0782489554819
 30
0.0
 10
2639.484525126208
 20
988.1229393644479
 30
0.0
 10
2639.485547036842
 20
988.1347633908667
 30
0.0
  0
SPLINE
  5
5CA
330
1F
100
AcDbEntity
  8
cuerpo
  6
Continuous
100
AcDbSpline
210
0.0
220
0.0
230
1.0
 70
     8
 71
     3
 72
     8
 73
     4
 74
     0
 42
0.000000001
 43
0.0000000001
 40
0.0
 40
0.0
 40
0.0
 40
0.0
 40
1.0
 40
1.0
 40
1.0
 40
1.0
 10
2639.485547028549
 20
988.1347632949047
 30
0.0
 10
2639.486495800348
 20
988.1457410600058
 30
0.0
 10
2639.487331110616
 20
988.1567362485547
 30
0.0
 10
2639.488122510614
 20
988.1677381800786
 30
0.0
  0
SPLINE
  5
5CB
330
1F
100
AcDbEntity
  8
cuerpo
  6
Continuous
100
AcDbSpline
210
0.0
220
0.0
230
1.0
 70
     8
 71
     3
 72
     8
 73
     4
 74
     0
 42
0.000000001
 43
0.0000000001
 40
0.0
 40
0.0
 40
0.0
 40
0.0
 40
1.0
 40
1.0
 40
1.0
 40
1.0
 10
2639.488122510615
 20
988.1677381800786
 30
0.0
 10
2639.488622150564
 20
988.1746841044147
 30
0.0
 10
2639.489104288488
 20
988.1816327164047
 30
0.0
 10
2639.489586426409
 20
988.1885813283979
 30
0.0
  0
SPLINE
  5
5CC
330
1F
100
AcDbEntity
  8
cuerpo
  6
Continuous
100
AcDbSpline
210
0.0
220
0.0
230
1.0
 70
     8
 71
     3
 72
     8
 73
     4
 74
     0
 42
0.000000001
 43
0.0000000001
 40
0.0
 40
0.0
 40
0.0
 40
0.0
 40
1.0
 40
1.0
 40
1.0
 40
1.0
 10
2640.019083983439
 20
994.425355006234
 30
0.0
 10
2639.94656520471
 20
994.413795429055
 30
0.0
 10
2639.87404870348
 20
994.4022195694858
 30
0.0
 10
2639.801534572073
 20
994.3906267844077
 30
0.0
  0
SPLINE
  5
5CD
330
1F
100
AcDbEntity
  8
cuerpo
  6
Continuous
100
AcDbSpline
210
0.0
220
0.0
230
1.0
 70
    12
 71
     3
 72
     8
 73
     4
 74
     0
 42
0.000000001
 43
0.0000000001
 40
0.0
 40
0.0
 40
0.0
 40
0.0
 40
1.0
 40
1.0
 40
1.0
 40
1.0
 10
2639.752572126701
 20
994.2119441458391
 30
0.0
 41
1.171524422705209
 10
2639.752574898248
 20
994.2119440131747
 30
0.0
 41
0.9428082157557515
 10
2639.77326555324
 20
994.2110406314288
 30
0.0
 41
0.9428251936918318
 10
2639.80252453669
 20
994.2097631566227
 30
0.0
 41
1.171575356513455
  0
SPLINE
  5
5CE
330
1F
100
AcDbEntity
  8
cuerpo
  6
Continuous
100
AcDbSpline
210
0.0
220
0.0
230
1.0
 70
     8
 71
     3
 72
    10
 73
     6
 74
     0
 42
0.000000001
 43
0.0000000001
 40
0.0
 40
0.0
 40
0.0
 40
0.0
 40
0.3333333333332999
 40
0.6666666666667
 40
1.0
 40
1.0
 40
1.0
 40
1.0
 10
2639.489586474322
 20
988.1885813263059
 30
0.0
 10
2639.498256486758
 20
988.3871569064829
 30
0.0
 10
2639.515724521014
 20
988.787242774358
 30
0.0
 10
2639.542458488264
 20
989.3995505241498
 30
0.0
 10
2639.560336935048
 20
989.809034219651
 30
0.0
 10
2639.569314995123
 20
990.0146657663379
 30
0.0
  0
SPLINE
  5
5CF
330
1F
100
AcDbEntity
  8
cuerpo
  6
Continuous
100
AcDbSpline
210
0.0
220
0.0
230
1.0
 70
     8
 71
     3
 72
    11
 73
     7
 74
     0
 42
0.000000001
 43
0.0000000001
 40
0.0
 40
0.0
 40
0.0
 40
0.0
 40
0.25
 40
0.5
 40
0.75
 40
1.0
 40
1.0
 40
1.0
 40
1.0
 10
2639.752572126214
 20
994.2119441381009
 30
0.0
 10
2639.753202373279
 20
994.2263791691287
 30
0.0
 10
2639.754411166684
 20
994.2540650924739
 30
0.0
 10
2639.756135257446
 20
994.2935532616989
 30
0.0
 10
2639.757572425713
 20
994.3264698282616
 30
0.0
 10
2639.758261025643
 20
994.3422413563936
 30
0.0
 10
2639.758540816208
 20
994.3486496139239
 30
0.0
  0
SPLINE
  5
5D0
330
1F
100
AcDbEntity
  8
cuerpo
  6
Continuous
100
AcDbSpline
210
0.0
220
0.0
230
1.0
 70
     8
 71
     3
 72
    12
 73
     8
 74
     0
 42
0.000000001
 43
0.0000000001
 40
0.0
 40
0.0
 40
0.0
 40
0.0
 40
0.2222224252490891
 40
0.4444448504981783
 40
0.6666672757472673
 40
0.8888897009963564
 40
1.0
 40
1.0
 40
1.0
 40
1.0
 10
2639.758540816209
 20
994.3486496139209
 30
0.0
 10
2639.759903666078
 20
994.379864007824
 30
0.0
 10
2639.762776334718
 20
994.4456589400108
 30
0.0
 10
2639.767152892474
 20
994.5458985914877
 30
0.0
 10
2639.77058155929
 20
994.624427972732
 30
0.0
 10
2639.772151153311
 20
994.6603775861017
 30
0.0
 10
2639.772378959605
 20
994.6655952080758
 30
0.0
 10
2639.772375718415
 20
994.6655209725976
 30
0.0
  0
SPLINE
  5
5D1
330
1F
100
AcDbEntity
  8
cuerpo
  6
Continuous
100
AcDbSpline
210
0.0
220
0.0
230
1.0
 70
    12
 71
     3
 72
     8
 73
     4
 74
     0
 42
0.000000001
 43
0.0000000001
 40
0.0
 40
0.0
 40
0.0
 40
0.0
 40
1.0
 40
1.0
 40
1.0
 40
1.0
 10
2639.758540816115
 20
994.3486496139186
 30
0.0
 41
1.131654734759735
 10
2639.759523525463
 20
994.3711551972731
 30
0.0
 41
0.9561145294563651
 10
2639.776485983813
 20
994.3877164921188
 30
0.0
 41
0.9561150884152343
 10
2639.801534597831
 20
994.3906266211689
 30
0.0
 41
1.131656411636343
  0
SPLINE
  5
5D2
330
1F
100
AcDbEntity
  8
cuerpo
  6
Continuous
100
AcDbSpline
210
0.0
220
0.0
230
1.0
 70
    12
 71
     3
 72
     8
 73
     4
 74
     0
 42
0.000000001
 43
0.0000000001
 40
0.0
 40
0.0
 40
0.0
 40
0.0
 40
1.0
 40
1.0
 40
1.0
 40
1.0
 10
2640.076042638303
 20
994.3810733780738
 30
0.0
 41
1.207619450566455
 10
2640.076039149158
 20
994.4102624574608
 30
0.0
 41
0.9307720201981624
 10
2640.051405365232
 20
994.4294106464846
 30
0.0
 41
0.9307935181470254
 10
2640.019084938602
 20
994.4253489631277
 30
0.0
 41
1.207683944413044
  0
SPLINE
  5
5D3
330
1F
100
AcDbEntity
  8
cuerpo
  6
Continuous
100
AcDbSpline
210
0.0
220
0.0
230
1.0
 70
    24
 71
     3
 72
     8
 73
     4
 74
     0
 42
0.000000001
 43
0.0000000001
 40
0.0
 40
0.0
 40
0.0
 40
0.0
 40
1.0
 40
1.0
 40
1.0
 40
1.0
 10
2640.076043138637
 20
994.244947604694
 30
0.0
 10
2640.076042138537
 20
994.244947604694
 30
0.0
 10
2640.052222577367
 20
994.244947604694
 30
0.0
 10
2640.026042638588
 20
994.244947604694
 30
0.0
  0
ENDSEC
  0
SECTION
  2
OBJECTS
  0
DICTIONARY
  5
C
330
0
100
AcDbDictionary
281
     1
  3
ACAD_CIP_PREVIOUS_PRODUCT_INFO
350
216
  3
ACAD_COLOR
350
6B
  3
ACAD_DETAILVIEWSTYLE
350
21B
  3
ACAD_GROUP
350
D
  3
ACAD_LAYOUT
350
1A
  3
ACAD_MATERIAL
350
6A
  3
ACAD_MLEADERSTYLE
350
12D
  3
ACAD_MLINESTYLE
350
17
  3
ACAD_PLOTSETTINGS
350
19
  3
ACAD_PLOTSTYLENAME
350
E
  3
ACAD_SCALELIST
350
10C
  3
ACAD_SECTIONVIEWSTYLE
350
219
  3
ACAD_TABLESTYLE
350
7E
  3
ACAD_VISUALSTYLE
350
EF
  3
ACDB_RECOMPOSE_DATA
350
5D6
  3
AcDbVariableDictionary
350
5E
  3
AcDsDecomposeData
350
5DC
  0
DICTIONARY
  5
1FF
330
2
100
AcDbDictionary
280
     1
281
     1
  3
ACAD_LAYERSTATES
360
200
  0
DICTIONARY
  5
13C
330
10
100
AcDbDictionary
280
     1
281
     1
  0
DICTIONARY
  5
25F
330
25E
100
AcDbDictionary
280
     1
281
     1
  0
DICTIONARY
  5
1CE
330
1F
100
AcDbDictionary
280
     1
281
     1
  0
XRECORD
  5
216
102
{ACAD_REACTORS
330
C
102
}
330
C
100
AcDbXrecord
280
     1
300
ACD
300
2016
300
86445ACD_2016_0F
  0
DICTIONARY
  5
6B
102
{ACAD_REACTORS
330
C
102
}
330
C
100
AcDbDictionary
281
     1
  0
DICTIONARY
  5
21B
102
{ACAD_REACTORS
330
C
102
}
330
C
100
AcDbDictionary
281
     1
  3
Metric50
350
21C
  0
DICTIONARY
  5
D
102
{ACAD_REACTORS
330
C
102
}
330
C
100
AcDbDictionary
281
     1
  0
DICTIONARY
  5
1A
102
{ACAD_REACTORS
330
C
102
}
330
C
100
AcDbDictionary
281
     1
  3
Model
350
22
  3
Presentación1
350
D3
  3
Presentación2
350
D7
  0
DICTIONARY
  5
6A
102
{ACAD_REACTORS
330
C
102
}
330
C
100
AcDbDictionary
281
     1
  3
ByBlock
350
ED
  3
ByLayer
350
EC
  3
Global
350
EE
  0
DICTIONARY
  5
12D
102
{ACAD_REACTORS
330
C
102
}
330
C
100
AcDbDictionary
281
     1
  3
Anotativo
350
13B
  3
Standard
350
12E
  0
DICTIONARY
  5
17
102
{ACAD_REACTORS
330
C
102
}
330
C
100
AcDbDictionary
281
     1
  3
Standard
350
18
  0
DICTIONARY
  5
19
102
{ACAD_REACTORS
330
C
102
}
330
C
100
AcDbDictionary
281
     1
  0
ACDBDICTIONARYWDFLT
  5
E
102
{ACAD_REACTORS
330
C
102
}
330
C
100
AcDbDictionary
281
     1
  3
Normal
350
F
100
AcDbDictionaryWithDefault
340
F
  0
DICTIONARY
  5
10C
102
{ACAD_REACTORS
330
C
102
}
330
C
100
AcDbDictionary
281
     1
  3
A0
350
10D
  3
A1
350
1BE
  3
A2
350
1BF
  3
A3
350
1C0
  3
A4
350
1C1
  3
A5
350
1C2
  3
A6
350
1C3
  3
A7
350
1C4
  3
A8
350
1C5
  3
A9
350
1C6
  3
B0
350
1C7
  3
B1
350
1C8
  3
B2
350
1C9
  3
B3
350
1CA
  3
B4
350
1CB
  3
B5
350
1CC
  3
B6
350
1CD
  0
DICTIONARY
  5
219
102
{ACAD_REACTORS
330
C
102
}
330
C
100
AcDbDictionary
281
     1
  3
Metric50
350
21A
  0
DICTIONARY
  5
7E
102
{ACAD_REACTORS
330
C
102
}
330
C
100
AcDbDictionary
281
     1
  3
Standard
350
7F
  0
DICTIONARY
  5
EF
102
{ACAD_REACTORS
330
C
102
}
330
C
100
AcDbDictionary
281
     1
  3
2dWireframe
350
F5
  3
Basic
350
F4
  3
Brighten
350
FB
  3
ColorChange
350
FF
  3
Conceptual
350
F8
  3
Dim
350
FA
  3
EdgeColorOff
350
1E6
  3
Facepattern
350
FE
  3
Flat
350
F0
  3
FlatWithEdges
350
F1
  3
Gouraud
350
F2
  3
GouraudWithEdges
350
F3
  3
Hidden
350
F7
  3
JitterOff
350
1E4
  3
Linepattern
350
FD
  3
OverhangOff
350
1E5
  3
Realistic
350
F9
  3
Shaded
350
1F3
  3
Shaded with edges
350
1F2
  3
Shades of Gray
350
1EF
  3
Sketchy
350
1F0
  3
Thicken
350
FC
  3
Wireframe
350
F6
  3
X-Ray
350
1F1
  0
XRECORD
  5
5D6
102
{ACAD_REACTORS
330
C
102
}
330
C
100
AcDbXrecord
280
     1
 90
        1
330
7F
  0
DICTIONARY
  5
5E
102
{ACAD_REACTORS
330
C
102
}
330
C
100
AcDbDictionary
281
     1
  3
CANNOSCALE
350
146
  3
CMLEADERSTYLE
350
145
  3
CTABLESTYLE
350
84
  3
CVIEWDETAILSTYLE
350
227
  3
CVIEWSECTIONSTYLE
350
228
  3
DIMASSOC
350
5F
  3
HIDETEXT
350
63
  3
LAYEREVAL
350
1AE
  3
LAYERNOTIFY
350
1AF
  3
XCLIPFRAME
350
5D4
  0
DICTIONARY
  5
5DC
102
{ACAD_REACTORS
330
C
102
}
330
C
100
AcDbDictionary
281
     1
  3
AcDsRecords
350
5DE
  3
AcDsSchemas
350
5DD
1001
ACAD
1070
     2
  0
DICTIONARY
  5
200
102
{ACAD_REACTORS
330
1FF
102
}
330
1FF
100
AcDbDictionary
281
     1
  0
ACDBDETAILVIEWSTYLE
  5
21C
102
{ACAD_XDICTIONARY
360
236
102
}
102
{ACAD_REACTORS
330
21B
102
}
330
21B
100
AcDbModelDocViewStyle
 70
     0
  3
Metric50
290
     0
100
AcDbDetailViewStyle
 70
     0
 71
     0
 90
        3
 71
     1
340
11
 62
   256
 40
5.0
340
0
 62
   256
 40
5.0
300

 40
0.0
280
     1
 71
     2
340
16
 90
       25
 62
   256
 71
     3
340
11
 62
   256
 40
5.0
 90
        0
 40
15.0
 90
        1
300
%<\AcVar ViewDetailId>% (%<\AcVar ViewScale \f "%sn">%)
 71
     4
340
16
 90
       25
 62
   256
340
16
 90
       25
 62
   256
280
     0
  0
LAYOUT
  5
22
102
{ACAD_XDICTIONARY
360
205
102
}
102
{ACAD_REACTORS
330
1A
102
}
330
1A
100
AcDbPlotSettings
  1

  2
none_device
  4
ISO_A4_(210.00_x_297.00_MM)
  6

 40
7.5
 41
20.0
 42
7.5
 43
20.0
 44
210.0
 45
297.0
 46
11.54999923706054
 47
-13.65000009536743
 48
0.0
 49
0.0
140
0.0
141
0.0
142
1.0
143
8.704084754739808
 70
 11952
 72
     1
 73
     0
 74
     0
  7

 75
     0
147
0.1148885871608098
 76
     0
 77
     2
 78
   300
148
0.0
149
0.0
100
AcDbLayout
  1
Model
 70
     1
 71
     0
 10
0.0
 20
0.0
 11
12.0
 21
9.0
 12
0.0
 22
0.0
 32
0.0
 14
0.0
 24
0.0
 34
0.0
 15
0.0
 25
0.0
 35
0.0
146
0.0
 13
0.0
 23
0.0
 33
0.0
 16
1.0
 26
0.0
 36
0.0
 17
0.0
 27
1.0
 37
0.0
 76
     0
330
1F
331
EA
1001
ACAD_PSEXT
1000
None
1000
None
1000
Not applicable
1000
The layout will not be plotted unless a new plotter configuration name is selected.
1070
     0
  0
LAYOUT
  5
D3
102
{ACAD_REACTORS
330
1A
102
}
330
1A
100
AcDbPlotSettings
  1

  2
C:\Documents and Settings\basas\Application Data\Autodesk\AutoCAD 2005\R16.1\enu\plotters\Default Windows System Printer.pc3
  4

  6

 40
0.0
 41
0.0
 42
0.0
 43
0.0
 44
0.0
 45
0.0
 46
0.0
 47
0.0
 48
0.0
 49
0.0
140
0.0
141
0.0
142
1.0
143
1.0
 70
   688
 72
     0
 73
     0
 74
     5
  7

 75
    16
147
1.0
 76
     0
 77
     2
 78
   300
148
0.0
149
0.0
100
AcDbLayout
  1
Presentación1
 70
     1
 71
     1
 10
0.0
 20
0.0
 11
12.0
 21
9.0
 12
0.0
 22
0.0
 32
0.0
 14
0.0
 24
0.0
 34
0.0
 15
0.0
 25
0.0
 35
0.0
146
0.0
 13
0.0
 23
0.0
 33
0.0
 16
1.0
 26
0.0
 36
0.0
 17
0.0
 27
1.0
 37
0.0
 76
     0
330
D2
  0
LAYOUT
  5
D7
102
{ACAD_REACTORS
330
1A
102
}
330
1A
100
AcDbPlotSettings
  1

  2
C:\Documents and Settings\basas\Application Data\Autodesk\AutoCAD 2005\R16.1\enu\plotters\Default Windows System Printer.pc3
  4

  6

 40
0.0
 41
0.0
 42
0.0
 43
0.0
 44
0.0
 45
0.0
 46
0.0
 47
0.0
 48
0.0
 49
0.0
140
0.0
141
0.0
142
1.0
143
1.0
 70
   688
 72
     0
 73
     0
 74
     5
  7

 75
    16
147
1.0
 76
     0
 77
     2
 78
   300
148
0.0
149
0.0
100
AcDbLayout
  1
Presentación2
 70
     1
 71
     2
 10
0.0
 20
0.0
 11
12.0
 21
9.0
 12
0.0
 22
0.0
 32
0.0
 14
0.0
 24
0.0
 34
0.0
 15
0.0
 25
0.0
 35
0.0
146
0.0
 13
0.0
 23
0.0
 33
0.0
 16
1.0
 26
0.0
 36
0.0
 17
0.0
 27
1.0
 37
0.0
 76
     0
330
D6
  0
MATERIAL
  5
ED
102
{ACAD_XDICTIONARY
360
1F9
102
}
102
{ACAD_REACTORS
330
6A
102
}
330
6A
100
AcDbMaterial
  1
ByBlock
 94
       63
  0
MATERIAL
  5
EC
102
{ACAD_XDICTIONARY
360
1F7
102
}
102
{ACAD_REACTORS
330
6A
102
}
330
6A
100
AcDbMaterial
  1
ByLayer
 94
       63
  0
MATERIAL
  5
EE
102
{ACAD_XDICTIONARY
360
173
102
}
102
{ACAD_REACTORS
330
6A
102
}
330
6A
100
AcDbMaterial
  1
Global
 43
0.0007999999797903
 43
0.0
 43
0.0
 43
0.0
 43
0.0
 43
0.0007999999797903
 43
0.0
 43
0.0
 43
0.0
 43
0.0
 43
1.0
 43
0.0
 43
0.0
 43
0.0
 43
0.0
 43
1.0
 49
0.0007999999797903
 49
0.0
 49
0.0
 49
0.0
 49
0.0
 49
0.0007999999797903
 49
0.0
 49
0.0
 49
0.0
 49
0.0
 49
1.0
 49
0.0
 49
0.0
 49
0.0
 49
0.0
 49
1.0
142
0.0007999999797903
142
0.0
142
0.0
142
0.0
142
0.0
142
0.0007999999797903
142
0.0
142
0.0
142
0.0
142
0.0
142
1.0
142
0.0
142
0.0
142
0.0
142
0.0
142
1.0
144
0.0007999999797903
144
0.0
144
0.0
144
0.0
144
0.0
144
0.0007999999797903
144
0.0
144
0.0
144
0.0
144
0.0
144
1.0
144
0.0
144
0.0
144
0.0
144
0.0
144
1.0
 94
       63
1001
ACAD
1070
    -1
1070
     3
1070
     0
1000

1071
        0
1070
     0
  0
MLEADERSTYLE
  5
13B
102
{ACAD_REACTORS
330
12D
102
}
330
12D
100
AcDbMLeaderStyle
170
     2
171
     1
172
     0
 90
        2
 40
0.0
 41
0.0
173
     1
 91
-1056964608
340
14
 92
       -2
290
     1
 42
2.0
291
     1
 43
8.0
  3
Standard
 44
4.0
300

342
11
174
     1
178
     1
175
     1
176
     0
 93
-1056964608
 45
4.0
292
     0
297
     0
 46
4.0
 94
-1056964608
 47
1.0
 49
1.0
140
1.0
293
     1
141
0.0
294
     1
177
     0
142
1.0
295
     0
296
     1
143
3.75
1001
ACAD_MLEADERVER
1070
     2
  0
MLEADERSTYLE
  5
12E
102
{ACAD_REACTORS
330
12D
102
}
330
12D
100
AcDbMLeaderStyle
170
     2
171
     1
172
     0
 90
        2
 40
0.0
 41
0.0
173
     1
 91
-1056964608
340
14
 92
       -2
290
     1
 42
2.0
291
     1
 43
8.0
  3
Standard
 44
4.0
300

342
11
174
     1
178
     1
175
     1
176
     0
 93
-1056964608
 45
4.0
292
     0
297
     0
 46
4.0
 94
-1056964608
 47
1.0
 49
1.0
140
1.0
293
     1
141
0.0
294
     1
177
     0
142
1.0
295
     0
296
     0
143
3.75
1001
ACAD_MLEADERVER
1070
     2
  0
MLINESTYLE
  5
18
102
{ACAD_REACTORS
330
17
102
}
330
17
100
AcDbMlineStyle
  2
STANDARD
 70
     0
  3

 62
   256
 51
90.0
 52
90.0
 71
     2
 49
0.5
 62
   256
  6
BYLAYER
 49
-0.5
 62
   256
  6
BYLAYER
  0
ACDBPLACEHOLDER
  5
F
102
{ACAD_REACTORS
330
E
102
}
330
E
  0
SCALE
  5
10D
102
{ACAD_REACTORS
330
10C
102
}
330
10C
100
AcDbScale
 70
     0
300
1:1
140
1.0
141
1.0
290
     1
  0
SCALE
  5
1BE
102
{ACAD_REACTORS
330
10C
102
}
330
10C
100
AcDbScale
 70
     0
300
1:2
140
1.0
141
2.0
290
     0
  0
SCALE
  5
1BF
102
{ACAD_REACTORS
330
10C
102
}
330
10C
100
AcDbScale
 70
     0
300
1:4
140
1.0
141
4.0
290
     0
  0
SCALE
  5
1C0
102
{ACAD_REACTORS
330
10C
102
}
330
10C
100
AcDbScale
 70
     0
300
1:5
140
1.0
141
5.0
290
     0
  0
SCALE
  5
1C1
102
{ACAD_REACTORS
330
10C
102
}
330
10C
100
AcDbScale
 70
     0
300
1:8
140
1.0
141
8.0
290
     0
  0
SCALE
  5
1C2
102
{ACAD_REACTORS
330
10C
102
}
330
10C
100
AcDbScale
 70
     0
300
1:10
140
1.0
141
10.0
290
     0
  0
SCALE
  5
1C3
102
{ACAD_REACTORS
330
10C
102
}
330
10C
100
AcDbScale
 70
     0
300
1:16
140
1.0
141
16.0
290
     0
  0
SCALE
  5
1C4
102
{ACAD_REACTORS
330
10C
102
}
330
10C
100
AcDbScale
 70
     0
300
1:20
140
1.0
141
20.0
290
     0
  0
SCALE
  5
1C5
102
{ACAD_REACTORS
330
10C
102
}
330
10C
100
AcDbScale
 70
     0
300
1:30
140
1.0
141
30.0
290
     0
  0
SCALE
  5
1C6
102
{ACAD_REACTORS
330
10C
102
}
330
10C
100
AcDbScale
 70
     0
300
1:40
140
1.0
141
40.0
290
     0
  0
SCALE
  5
1C7
102
{ACAD_REACTORS
330
10C
102
}
330
10C
100
AcDbScale
 70
     0
300
1:50
140
1.0
141
50.0
290
     0
  0
SCALE
  5
1C8
102
{ACAD_REACTORS
330
10C
102
}
330
10C
100
AcDbScale
 70
     0
300
1:100
140
1.0
141
100.0
290
     0
  0
SCALE
  5
1C9
102
{ACAD_REACTORS
330
10C
102
}
330
10C
100
AcDbScale
 70
     0
300
2:1
140
2.0
141
1.0
290
     0
  0
SCALE
  5
1CA
102
{ACAD_REACTORS
330
10C
102
}
330
10C
100
AcDbScale
 70
     0
300
4:1
140
4.0
141
1.0
290
     0
  0
SCALE
  5
1CB
102
{ACAD_REACTORS
330
10C
102
}
330
10C
100
AcDbScale
 70
     0
300
8:1
140
8.0
141
1.0
290
     0
  0
SCALE
  5
1CC
102
{ACAD_REACTORS
330
10C
102
}
330
10C
100
AcDbScale
 70
     0
300
10:1
140
10.0
141
1.0
290
     0
  0
SCALE
  5
1CD
102
{ACAD_REACTORS
330
10C
102
}
330
10C
100
AcDbScale
 70
     0
300
100:1
140
100.0
141
1.0
290
     0
  0
ACDBSECTIONVIEWSTYLE
  5
21A
102
{ACAD_XDICTIONARY
360
234
102
}
102
{ACAD_REACTORS
330
219
102
}
330
219
100
AcDbModelDocViewStyle
 70
     0
  3
Metric50
290
     0
100
AcDbSectionViewStyle
 70
     0
 71
     0
 90
      102
 71
     1
340
11
 62
   256
 40
5.0
340
0
340
0
 62
   256
 40
5.0
300
I, O, Q, S, X, Z
 40
10.0
 90
        0
 40
2.5
 90
        0
 71
     2
340
16
 90
       25
 62
   256
340
16
 90
       50
 62
   256
 40
5.0
 40
2.5
 40
5.0
 71
     3
340
11
 62
   256
 40
5.0
 90
        0
 40
15.0
 90
        1
300
%<\AcVar ViewSectionStartId>%-%<\AcVar ViewSectionEndId>% (%<\AcVar ViewScale \f "%sn">%)
 71
     4
 62
   256
 62
   257
300
ANSI31
 40
1.0
 90
        0
290
     0
290
     0
 90
        6
 40
0.0
 40
1.570796326794896
 40
0.2617993877991494
 40
1.308996938995747
 40
-0.2617993877991494
 40
1.832595714594046
  0
TABLESTYLE
  5
7F
102
{ACAD_XDICTIONARY
360
162
102
}
102
{ACAD_REACTORS
330
7E
102
}
330
7E
100
AcDbTableStyle
  3
Standard
 70
     0
 71
     0
 40
1.5
 41
1.5
280
     0
281
     0
  7
Standard
140
4.5
170
     2
 62
     0
 63
     7
283
     0
 90
      512
 91
        0
  1

274
    -2
284
     1
 64
     0
275
    -2
285
     1
 65
     0
276
    -2
286
     1
 66
     0
277
    -2
287
     1
 67
     0
278
    -2
288
     1
 68
     0
279
    -2
289
     1
 69
     0
  7
Standard
140
6.0
170
     5
 62
     0
 63
     7
283
     0
 90
      512
 91
        0
  1

274
    -2
284
     1
 64
     0
275
    -2
285
     1
 65
     0
276
    -2
286
     1
 66
     0
277
    -2
287
     1
 67
     0
278
    -2
288
     1
 68
     0
279
    -2
289
     1
 69
     0
  7
Standard
140
4.5
170
     5
 62
     0
 63
     7
283
     0
 90
      512
 91
        0
  1

274
    -2
284
     1
 64
     0
275
    -2
285
     1
 65
     0
276
    -2
286
     1
 66
     0
277
    -2
287
     1
 67
     0
278
    -2
288
     1
 68
     0
279
    -2
289
     1
 69
     0
  0
VISUALSTYLE
  5
F5
102
{ACAD_XDICTIONARY
360
5E9
102
}
102
{ACAD_REACTORS
330
EF
102
}
330
EF
100
AcDbVisualStyle
  2
2dWireframe
 70
     4
 71
     0
 72
     2
 73
     1
 90
        0
 40
-0.6
 41
-30.0
 62
     5
 63
     7
421
 16777215
 74
     1
 91
        4
 64
     7
 65
   257
 75
     1
175
     1
 42
1.0
 92
        0
 66
   257
 43
1.0
 76
     1
 77
     6
 78
     2
 67
     7
 79
     5
170
     0
171
     0
290
     0
174
     0
 93
        1
 44
0.0
173
     0
291
     0
 45
0.0
1001
ACAD
1000
AcDbSavedByObjectVersion
1070
     0
  0
VISUALSTYLE
  5
F4
102
{ACAD_XDICTIONARY
360
5E7
102
}
102
{ACAD_REACTORS
330
EF
102
}
330
EF
100
AcDbVisualStyle
  2
Basic
 70
     7
 71
     1
 72
     0
 73
     1
 90
        0
 40
-0.6
 41
-30.0
 62
     5
 63
     7
421
 16777215
 74
     0
 91
        4
 64
     7
 65
   257
 75
     1
175
     1
 42
1.0
 92
        8
 66
     7
 43
1.0
 76
     1
 77
     6
 78
     2
 67
     7
 79
     5
170
     0
171
     0
290
     0
174
     0
 93
        1
 44
0.0
173
     0
291
     1
 45
0.0
1001
ACAD
1000
AcDbSavedByObjectVersion
1070
     0
  0
VISUALSTYLE
  5
FB
102
{ACAD_XDICTIONARY
360
5F5
102
}
102
{ACAD_REACTORS
330
EF
102
}
330
EF
100
AcDbVisualStyle
  2
Brighten
 70
    12
 71
     2
 72
     2
 73
     1
 90
        0
 40
-0.6
 41
-30.0
 62
     5
 63
     7
421
 16777215
 74
     1
 91
        4
 64
     7
 65
   257
 75
     1
175
     1
 42
1.0
 92
        8
 66
     7
 43
1.0
 76
     1
 77
     6
 78
     2
 67
     7
 79
     5
170
     0
171
     0
290
     0
174
     0
 93
        1
 44
50.0
173
     0
291
     1
 45
0.0
1001
ACAD
1000
AcDbSavedByObjectVersion
1070
     0
  0
VISUALSTYLE
  5
FF
102
{ACAD_XDICTIONARY
360
5FD
102
}
102
{ACAD_REACTORS
330
EF
102
}
330
EF
100
AcDbVisualStyle
  2
ColorChange
 70
    16
 71
     2
 72
     2
 73
     3
 90
        0
 40
-0.6
 41
-30.0
 62
     5
 63
     8
421
  8421504
 74
     1
 91
        4
 64
     7
 65
   257
 75
     1
175
     1
 42
1.0
 92
        8
 66
     8
424
  8421504
 43
1.0
 76
     1
 77
     6
 78
     2
 67
     7
 79
     5
170
     0
171
     0
290
     0
174
     0
 93
        1
 44
0.0
173
     0
291
     1
 45
0.0
1001
ACAD
1000
AcDbSavedByObjectVersion
1070
     0
  0
VISUALSTYLE
  5
F8
102
{ACAD_XDICTIONARY
360
5EF
102
}
102
{ACAD_REACTORS
330
EF
102
}
330
EF
100
AcDbVisualStyle
  2
Conceptual
 70
     9
 71
     3
 72
     2
 73
     1
 90
        0
 40
-0.6
 41
-30.0
 62
     5
 63
     7
421
 16777215
 74
     2
 91
        2
 64
     7
 65
   257
 75
     1
175
     1
 42
40.0
 92
        8
 66
     7
 43
1.0
 76
     1
 77
     6
 78
     2
 67
     7
 79
     3
170
     0
171
     0
290
     0
174
     0
 93
        1
 44
0.0
173
     0
291
     0
 45
0.0
1001
ACAD
1000
AcDbSavedByObjectVersion
1070
     0
  0
VISUALSTYLE
  5
FA
102
{ACAD_XDICTIONARY
360
5F3
102
}
102
{ACAD_REACTORS
330
EF
102
}
330
EF
100
AcDbVisualStyle
  2
Dim
 70
    11
 71
     2
 72
     2
 73
     1
 90
        0
 40
-0.6
 41
-30.0
 62
     5
 63
     7
421
 16777215
 74
     1
 91
        4
 64
     7
 65
   257
 75
     1
175
     1
 42
1.0
 92
        8
 66
     7
 43
1.0
 76
     1
 77
     6
 78
     2
 67
     7
 79
     5
170
     0
171
     0
290
     0
174
     0
 93
        1
 44
-50.0
173
     0
291
     1
 45
0.0
1001
ACAD
1000
AcDbSavedByObjectVersion
1070
     0
  0
VISUALSTYLE
  5
1E6
102
{ACAD_XDICTIONARY
360
603
102
}
102
{ACAD_REACTORS
330
EF
102
}
330
EF
100
AcDbVisualStyle
  2
EdgeColorOff
 70
    22
 71
     2
 72
     2
 73
     0
 90
        0
 40
-0.6
 41
-30.0
 62
     5
 63
     7
421
 16777215
 74
     1
 91
        4
 64
     7
 65
   257
 75
     1
175
     1
 42
1.0
 92
        8
 66
     7
 43
1.0
 76
     1
 77
     6
 78
     2
 67
     7
 79
     5
170
     0
171
     0
290
     0
174
     0
 93
        1
 44
0.0
173
     0
291
     1
 45
0.0
1001
ACAD
1000
AcDbSavedByObjectVersion
1070
     0
  0
VISUALSTYLE
  5
FE
102
{ACAD_XDICTIONARY
360
5FB
102
}
102
{ACAD_REACTORS
330
EF
102
}
330
EF
100
AcDbVisualStyle
  2
Facepattern
 70
    15
 71
     2
 72
     2
 73
     1
 90
        0
 40
-0.6
 41
-30.0
 62
     5
 63
     7
421
 16777215
 74
     1
 91
        4
 64
     7
 65
   257
 75
     1
175
     1
 42
1.0
 92
        8
 66
     7
 43
1.0
 76
     1
 77
     6
 78
     2
 67
     7
 79
     5
170
     0
171
     0
290
     0
174
     0
 93
        1
 44
0.0
173
     0
291
     1
 45
0.0
1001
ACAD
1000
AcDbSavedByObjectVersion
1070
     0
  0
VISUALSTYLE
  5
F0
102
{ACAD_XDICTIONARY
360
5DF
102
}
102
{ACAD_REACTORS
330
EF
102
}
330
EF
100
AcDbVisualStyle
  2
Flat
 70
     0
 71
     2
 72
     1
 73
     1
 90
        2
 40
-0.6
 41
30.0
 62
     5
 63
     7
421
 16777215
 74
     0
 91
        0
 64
     7
 65
   257
 75
     1
175
     1
 42
1.0
 92
        8
 66
     7
 43
1.0
 76
     1
 77
     6
 78
     2
 67
     7
 79
     5
170
     0
171
     0
290
     0
174
     0
 93
       13
 44
0.0
173
     0
291
     1
 45
0.0
1001
ACAD
1000
AcDbSavedByObjectVersion
1070
     0
  0
VISUALSTYLE
  5
F1
102
{ACAD_XDICTIONARY
360
5E1
102
}
102
{ACAD_REACTORS
330
EF
102
}
330
EF
100
AcDbVisualStyle
  2
FlatWithEdges
 70
     1
 71
     2
 72
     1
 73
     1
 90
        2
 40
-0.6
 41
30.0
 62
     5
 63
     7
421
 16777215
 74
     1
 91
        0
 64
     7
 65
   257
 75
     1
175
     1
 42
1.0
 92
        0
 66
   257
 43
1.0
 76
     1
 77
     6
 78
     2
 67
     7
 79
     5
170
     0
171
     0
290
     0
174
     0
 93
       13
 44
0.0
173
     0
291
     1
 45
0.0
1001
ACAD
1000
AcDbSavedByObjectVersion
1070
     0
  0
VISUALSTYLE
  5
F2
102
{ACAD_XDICTIONARY
360
5E3
102
}
102
{ACAD_REACTORS
330
EF
102
}
330
EF
100
AcDbVisualStyle
  2
Gouraud
 70
     2
 71
     2
 72
     2
 73
     1
 90
        2
 40
-0.6
 41
30.0
 62
     5
 63
     7
421
 16777215
 74
     0
 91
        0
 64
     7
 65
   257
 75
     1
175
     1
 42
1.0
 92
        0
 66
     7
 43
1.0
 76
     1
 77
     6
 78
     2
 67
     7
 79
     5
170
     0
171
     0
290
     0
174
     0
 93
       13
 44
0.0
173
     0
291
     1
 45
0.0
1001
ACAD
1000
AcDbSavedByObjectVersion
1070
     0
  0
VISUALSTYLE
  5
F3
102
{ACAD_XDICTIONARY
360
5E5
102
}
102
{ACAD_REACTORS
330
EF
102
}
330
EF
100
AcDbVisualStyle
  2
GouraudWithEdges
 70
     3
 71
     2
 72
     2
 73
     1
 90
        2
 40
-0.6
 41
30.0
 62
     5
 63
     7
421
 16777215
 74
     1
 91
        0
 64
     7
 65
   257
 75
     1
175
     1
 42
1.0
 92
        0
 66
   257
 43
1.0
 76
     1
 77
     6
 78
     2
 67
     7
 79
     5
170
     0
171
     0
290
     0
174
     0
 93
       13
 44
0.0
173
     0
291
     1
 45
0.0
1001
ACAD
1000
AcDbSavedByObjectVersion
1070
     0
  0
VISUALSTYLE
  5
F7
102
{ACAD_XDICTIONARY
360
5ED
102
}
102
{ACAD_REACTORS
330
EF
102
}
330
EF
100
AcDbVisualStyle
  2
Hidden
 70
     6
 71
     1
 72
     2
 73
     2
 90
        0
 40
-0.6
 41
-30.0
 62
     5
 63
     7
421
 16777215
 74
     2
 91
        2
 64
     7
 65
   257
 75
     2
175
     1
 42
40.0
 92
        0
 66
   257
 43
1.0
 76
     1
 77
     6
 78
     2
 67
     7
 79
     3
170
     0
171
     0
290
     0
174
     0
 93
        1
 44
0.0
173
     0
291
     0
 45
0.0
1001
ACAD
1000
AcDbSavedByObjectVersion
1070
     0
  0
VISUALSTYLE
  5
1E4
102
{ACAD_XDICTIONARY
360
5FF
102
}
102
{ACAD_REACTORS
330
EF
102
}
330
EF
100
AcDbVisualStyle
  2
JitterOff
 70
    20
 71
     2
 72
     2
 73
     0
 90
        0
 40
-0.6
 41
-30.0
 62
     5
 63
     7
421
 16777215
 74
     1
 91
        4
 64
     7
 65
   257
 75
     1
175
     1
 42
1.0
 92
       10
 66
     7
 43
1.0
 76
     1
 77
     6
 78
     2
 67
     7
 79
     5
170
     0
171
     0
290
     0
174
     0
 93
        1
 44
0.0
173
     0
291
     1
 45
0.0
1001
ACAD
1000
AcDbSavedByObjectVersion
1070
     0
  0
VISUALSTYLE
  5
FD
102
{ACAD_XDICTIONARY
360
5F9
102
}
102
{ACAD_REACTORS
330
EF
102
}
330
EF
100
AcDbVisualStyle
  2
Linepattern
 70
    14
 71
     2
 72
     2
 73
     1
 90
        0
 40
-0.6
 41
-30.0
 62
     5
 63
     7
421
 16777215
 74
     1
 91
        4
 64
     7
 65
   257
 75
     7
175
     7
 42
1.0
 92
        8
 66
     7
 43
1.0
 76
     1
 77
     6
 78
     2
 67
     7
 79
     5
170
     0
171
     0
290
     0
174
     0
 93
        1
 44
0.0
173
     0
291
     1
 45
0.0
1001
ACAD
1000
AcDbSavedByObjectVersion
1070
     0
  0
VISUALSTYLE
  5
1E5
102
{ACAD_XDICTIONARY
360
601
102
}
102
{ACAD_REACTORS
330
EF
102
}
330
EF
100
AcDbVisualStyle
  2
OverhangOff
 70
    21
 71
     2
 72
     2
 73
     0
 90
        0
 40
-0.6
 41
-30.0
 62
     5
 63
     7
421
 16777215
 74
     1
 91
        4
 64
     7
 65
   257
 75
     1
175
     1
 42
1.0
 92
        9
 66
     7
 43
1.0
 76
     1
 77
     6
 78
     2
 67
     7
 79
     5
170
     0
171
     0
290
     0
174
     0
 93
        1
 44
0.0
173
     0
291
     1
 45
0.0
1001
ACAD
1000
AcDbSavedByObjectVersion
1070
     0
  0
VISUALSTYLE
  5
F9
102
{ACAD_XDICTIONARY
360
5F1
102
}
102
{ACAD_REACTORS
330
EF
102
}
330
EF
100
AcDbVisualStyle
  2
Realistic
 70
     8
 71
     2
 72
     3
 73
     0
 90
        2
 40
-0.6
 41
30.0
 62
     5
 63
     7
421
 16777215
 74
     0
 91
        0
 64
     7
 65
   257
 75
     1
175
     1
 42
1.0
 92
        8
 66
   257
 43
1.0
 76
     1
 77
     6
 78
     2
 67
     7
 79
     3
170
     0
171
     0
290
     0
174
     0
 93
       13
 44
0.0
173
     0
291
     0
 45
0.0
1001
ACAD
1000
AcDbSavedByObjectVersion
1070
     0
  0
VISUALSTYLE
  5
1F3
102
{ACAD_XDICTIONARY
360
60D
102
}
102
{ACAD_REACTORS
330
EF
102
}
330
EF
100
AcDbVisualStyle
  2
Shaded
 70
    27
 71
     2
 72
     2
 73
     1
 90
        2
 40
-0.6
 41
30.0
 62
     5
 63
     7
421
 16777215
 74
     0
 91
        4
 64
     7
 65
   257
 75
     1
175
     1
 42
1.0
 92
        8
 66
   257
 43
1.0
 76
     1
 77
     6
 78
     2
 67
     8
425
  7895160
 79
     3
170
     0
171
     0
290
     0
174
     0
 93
        5
 44
0.0
173
     0
291
     0
 45
0.0
1001
ACAD
1000
AcDbSavedByObjectVersion
1070
     0
  0
VISUALSTYLE
  5
1F2
102
{ACAD_XDICTIONARY
360
60B
102
}
102
{ACAD_REACTORS
330
EF
102
}
330
EF
100
AcDbVisualStyle
  2
Shaded with edges
 70
    26
 71
     2
 72
     2
 73
     1
 90
        2
 40
-0.6
 41
30.0
 62
     5
 63
     7
421
 16777215
 74
     1
 91
       10
 64
     7
 65
   257
 75
     2
175
     1
 42
1.0
 92
        8
 66
   257
 43
1.0
 76
     1
 77
     6
 78
     2
 67
     7
 79
     3
170
     0
171
     0
290
     0
174
     0
 93
        5
 44
0.0
173
     0
291
     0
 45
0.0
1001
ACAD
1000
AcDbSavedByObjectVersion
1070
     0
  0
VISUALSTYLE
  5
1EF
102
{ACAD_XDICTIONARY
360
605
102
}
102
{ACAD_REACTORS
330
EF
102
}
330
EF
100
AcDbVisualStyle
  2
Shades of Gray
 70
    23
 71
     2
 72
     2
 73
     3
 90
        0
 40
-0.6
 41
-30.0
 62
     5
 63
     7
421
 16777215
 74
     2
 91
        2
 64
     7
 65
     7
 75
     1
175
     1
 42
40.0
 92
        8
 66
     7
 43
1.0
 76
     1
 77
     6
 78
     2
 67
     7
 79
     3
170
     0
171
     0
290
     0
174
     0
 93
        1
 44
0.0
173
     0
291
     0
 45
0.0
1001
ACAD
1000
AcDbSavedByObjectVersion
1070
     0
  0
VISUALSTYLE
  5
1F0
102
{ACAD_XDICTIONARY
360
607
102
}
102
{ACAD_REACTORS
330
EF
102
}
330
EF
100
AcDbVisualStyle
  2
Sketchy
 70
    24
 71
     1
 72
     2
 73
     2
 90
        0
 40
-0.6
 41
-30.0
 62
     5
 63
     7
421
 16777215
 74
     2
 91
        2
 64
     7
 65
     7
 75
     1
175
     1
 42
40.0
 92
       11
 66
     7
 43
1.0
 76
     1
 77
     6
 78
     2
 67
     7
 79
     6
170
     0
171
     0
290
     0
174
     0
 93
        1
 44
0.0
173
     0
291
     0
 45
0.0
1001
ACAD
1000
AcDbSavedByObjectVersion
1070
     0
  0
VISUALSTYLE
  5
FC
102
{ACAD_XDICTIONARY
360
5F7
102
}
102
{ACAD_REACTORS
330
EF
102
}
330
EF
100
AcDbVisualStyle
  2
Thicken
 70
    13
 71
     2
 72
     2
 73
     1
 90
        0
 40
-0.6
 41
-30.0
 62
     5
 63
     7
421
 16777215
 74
     1
 91
        4
 64
     7
 65
   257
 75
     1
175
     1
 42
1.0
 92
       12
 66
     7
 43
1.0
 76
     1
 77
     6
 78
     2
 67
     7
 79
     5
170
     0
171
     0
290
     0
174
     0
 93
        1
 44
0.0
173
     0
291
     1
 45
0.0
1001
ACAD
1000
AcDbSavedByObjectVersion
1070
     0
  0
VISUALSTYLE
  5
F6
102
{ACAD_XDICTIONARY
360
5EB
102
}
102
{ACAD_REACTORS
330
EF
102
}
330
EF
100
AcDbVisualStyle
  2
Wireframe
 70
     5
 71
     0
 72
     2
 73
     0
 90
        0
 40
-0.6
 41
-30.0
 62
     5
 63
     7
421
 16777215
 74
     1
 91
        4
 64
     7
 65
   257
 75
     1
175
     1
 42
1.0
 92
        0
 66
   257
 43
1.0
 76
     1
 77
     6
 78
     2
 67
     7
 79
     3
170
     0
171
     0
290
     0
174
     0
 93
        1
 44
0.0
173
     0
291
     0
 45
0.0
1001
ACAD
1000
AcDbSavedByObjectVersion
1070
     0
  0
VISUALSTYLE
  5
1F1
102
{ACAD_XDICTIONARY
360
609
102
}
102
{ACAD_REACTORS
330
EF
102
}
330
EF
100
AcDbVisualStyle
  2
X-Ray
 70
    25
 71
     2
 72
     2
 73
     1
 90
        1
 40
0.5
 41
-30.0
 62
     5
 63
     7
421
 16777215
 74
     1
 91
        0
 64
     7
 65
   257
 75
     1
175
     1
 42
1.0
 92
        8
 66
     7
 43
1.0
 76
     1
 77
     6
 78
     2
 67
     7
 79
     3
170
     0
171
     0
290
     0
174
     0
 93
       13
 44
0.0
173
     0
291
     0
 45
0.0
1001
ACAD
1000
AcDbSavedByObjectVersion
1070
     0
  0
DICTIONARYVAR
  5
146
102
{ACAD_REACTORS
330
5E
102
}
330
5E
100
DictionaryVariables
280
     0
  1
1:1
  0
DICTIONARYVAR
  5
145
102
{ACAD_REACTORS
330
5E
102
}
330
5E
100
DictionaryVariables
280
     0
  1
STANDARD
  0
DICTIONARYVAR
  5
84
102
{ACAD_REACTORS
330
5E
102
}
330
5E
100
DictionaryVariables
280
     0
  1
STANDARD
  0
DICTIONARYVAR
  5
227
102
{ACAD_REACTORS
330
5E
102
}
330
5E
100
DictionaryVariables
280
     0
  1
Metric50
  0
DICTIONARYVAR
  5
228
102
{ACAD_REACTORS
330
5E
102
}
330
5E
100
DictionaryVariables
280
     0
  1
Metric50
  0
DICTIONARYVAR
  5
5F
102
{ACAD_REACTORS
330
5E
102
}
330
5E
100
DictionaryVariables
280
     0
  1
2
  0
DICTIONARYVAR
  5
63
102
{ACAD_REACTORS
330
5E
102
}
330
5E
100
DictionaryVariables
280
     0
  1
1
  0
DICTIONARYVAR
  5
1AE
102
{ACAD_REACTORS
330
5E
102
}
330
5E
100
DictionaryVariables
280
     0
  1
0
  0
DICTIONARYVAR
  5
1AF
102
{ACAD_REACTORS
330
5E
102
}
330
5E
100
DictionaryVariables
280
     0
  1
0
  0
DICTIONARYVAR
  5
5D4
102
{ACAD_REACTORS
330
5E
102
}
330
5E
100
DictionaryVariables
280
     0
  1
2
  0
DICTIONARY
  5
5DE
102
{ACAD_REACTORS
330
5DC
102
}
330
5DC
100
AcDbDictionary
281
     1
  0
DICTIONARY
  5
5DD
102
{ACAD_REACTORS
330
5DC
102
}
330
5DC
100
AcDbDictionary
281
     1
  3
8796076660848
350
5D7
  3
8796076660864
350
5D8
  3
8796076660880
350
5D9
  3
8796076660896
350
5DA
  3
8796076660912
350
5DB
  0
DICTIONARY
  5
236
330
21C
100
AcDbDictionary
280
     1
281
     1
  3
ACAD_XREC_ROUNDTRIP
360
610
  0
DICTIONARY
  5
205
330
22
100
AcDbDictionary
280
     1
281
     1
  0
DICTIONARY
  5
1F9
330
ED
100
AcDbDictionary
280
     1
281
     1
  3
FBXASSET
360
1FA
  0
DICTIONARY
  5
1F7
330
EC
100
AcDbDictionary
280
     1
281
     1
  3
FBXASSET
360
1F8
  0
DICTIONARY
  5
173
330
EE
100
AcDbDictionary
280
     1
281
     1
  3
BUMPTILE
360
175
  3
DIFFUSETILE
360
174
  3
FBXASSET
360
1FB
  3
OPACITYTILE
360
176
  3
REFLECTIONTILE
360
177
  0
DICTIONARY
  5
234
330
21A
100
AcDbDictionary
280
     1
281
     1
  3
ACAD_XREC_ROUNDTRIP
360
60F
  0
DICTIONARY
  5
162
330
7F
100
AcDbDictionary
280
     1
281
     1
  3
ACAD_ROUNDTRIP_2008_TABLESTYLE_CELLSTYLEMAP
360
5D5
  0
DICTIONARY
  5
5E9
330
F5
100
AcDbDictionary
280
     1
281
     1
  3
ACAD_XREC_ROUNDTRIP
360
5EA
  0
DICTIONARY
  5
5E7
330
F4
100
AcDbDictionary
280
     1
281
     1
  3
ACAD_XREC_ROUNDTRIP
360
5E8
  0
DICTIONARY
  5
5F5
330
FB
100
AcDbDictionary
280
     1
281
     1
  3
ACAD_XREC_ROUNDTRIP
360
5F6
  0
DICTIONARY
  5
5FD
330
FF
100
AcDbDictionary
280
     1
281
     1
  3
ACAD_XREC_ROUNDTRIP
360
5FE
  0
DICTIONARY
  5
5EF
330
F8
100
AcDbDictionary
280
     1
281
     1
  3
ACAD_XREC_ROUNDTRIP
360
5F0
  0
DICTIONARY
  5
5F3
330
FA
100
AcDbDictionary
280
     1
281
     1
  3
ACAD_XREC_ROUNDTRIP
360
5F4
  0
DICTIONARY
  5
603
330
1E6
100
AcDbDictionary
280
     1
281
     1
  3
ACAD_XREC_ROUNDTRIP
360
604
  0
DICTIONARY
  5
5FB
330
FE
100
AcDbDictionary
280
     1
281
     1
  3
ACAD_XREC_ROUNDTRIP
360
5FC
  0
DICTIONARY
  5
5DF
330
F0
100
AcDbDictionary
280
     1
281
     1
  3
ACAD_XREC_ROUNDTRIP
360
5E0
  0
DICTIONARY
  5
5E1
330
F1
100
AcDbDictionary
280
     1
281
     1
  3
ACAD_XREC_ROUNDTRIP
360
5E2
  0
DICTIONARY
  5
5E3
330
F2
100
AcDbDictionary
280
     1
281
     1
  3
ACAD_XREC_ROUNDTRIP
360
5E4
  0
DICTIONARY
  5
5E5
330
F3
100
AcDbDictionary
280
     1
281
     1
  3
ACAD_XREC_ROUNDTRIP
360
5E6
  0
DICTIONARY
  5
5ED
330
F7
100
AcDbDictionary
280
     1
281
     1
  3
ACAD_XREC_ROUNDTRIP
360
5EE
  0
DICTIONARY
  5
5FF
330
1E4
100
AcDbDictionary
280
     1
281
     1
  3
ACAD_XREC_ROUNDTRIP
360
600
  0
DICTIONARY
  5
5F9
330
FD
100
AcDbDictionary
280
     1
281
     1
  3
ACAD_XREC_ROUNDTRIP
360
5FA
  0
DICTIONARY
  5
601
330
1E5
100
AcDbDictionary
280
     1
281
     1
  3
ACAD_XREC_ROUNDTRIP
360
602
  0
DICTIONARY
  5
5F1
330
F9
100
AcDbDictionary
280
     1
281
     1
  3
ACAD_XREC_ROUNDTRIP
360
5F2
  0
DICTIONARY
  5
60D
330
1F3
100
AcDbDictionary
280
     1
281
     1
  3
ACAD_XREC_ROUNDTRIP
360
60E
  0
DICTIONARY
  5
60B
330
1F2
100
AcDbDictionary
280
     1
281
     1
  3
ACAD_XREC_ROUNDTRIP
360
60C
  0
DICTIONARY
  5
605
330
1EF
100
AcDbDictionary
280
     1
281
     1
  3
ACAD_XREC_ROUNDTRIP
360
606
  0
DICTIONARY
  5
607
330
1F0
100
AcDbDictionary
280
     1
281
     1
  3
ACAD_XREC_ROUNDTRIP
360
608
  0
DICTIONARY
  5
5F7
330
FC
100
AcDbDictionary
280
     1
281
     1
  3
ACAD_XREC_ROUNDTRIP
360
5F8
  0
DICTIONARY
  5
5EB
330
F6
100
AcDbDictionary
280
     1
281
     1
  3
ACAD_XREC_ROUNDTRIP
360
5EC
  0
DICTIONARY
  5
609
330
1F1
100
AcDbDictionary
280
     1
281
     1
  3
ACAD_XREC_ROUNDTRIP
360
60A
  0
XRECORD
  5
5D7
102
{ACAD_REACTORS
330
5DD
102
}
330
5DD
100
AcDbXrecord
280
     1
  1
AcDb_Thumbnail_Schema
102
{ATTRRECORD
341
5D8
  2
AcDbDs::TreatedAsObjectData
280
     1
291
     1
102
ATTRRECORD}
102
{ATTRRECORD
341
5D9
  2
AcDbDs::Legacy
280
     1
291
     1
102
ATTRRECORD}
  2
AcDbDs::ID
280
    10
 91
        8
102
{ATTRRECORD
341
5DA
  2
AcDs:Indexable
280
     1
291
     1
102
ATTRRECORD}
102
{ATTRRECORD
341
5DB
  2
AcDbDs::HandleAttribute
280
     7
282
     1
102
ATTRRECORD}
  2
Thumbnail_Data
280
    15
 91
        0
  0
XRECORD
  5
5D8
102
{ACAD_REACTORS
330
5DD
102
}
330
5DD
100
AcDbXrecord
280
     1
  1
AcDbDs::TreatedAsObjectDataSchema
  2
AcDbDs::TreatedAsObjectData
280
     1
 91
        0
  0
XRECORD
  5
5D9
102
{ACAD_REACTORS
330
5DD
102
}
330
5DD
100
AcDbXrecord
280
     1
  1
AcDbDs::LegacySchema
  2
AcDbDs::Legacy
280
     1
 91
        0
  0
XRECORD
  5
5DA
102
{ACAD_REACTORS
330
5DD
102
}
330
5DD
100
AcDbXrecord
280
     1
  1
AcDbDs::IndexedPropertySchema
  2
AcDs:Indexable
280
     1
 91
        0
  0
XRECORD
  5
5DB
102
{ACAD_REACTORS
330
5DD
102
}
330
5DD
100
AcDbXrecord
280
     1
  1
AcDbDs::HandleAttributeSchema
  2
AcDbDs::HandleAttribute
280
     7
 91
        1
284
     1
  0
XRECORD
  5
610
102
{ACAD_REACTORS
330
236
102
}
330
236
100
AcDbXrecord
280
     1
102
DISPLAYNAME
  1
Metric50
102
FLAGS
 90
        0
  0
XRECORD
  5
1FA
102
{ACAD_REACTORS
330
1F9
102
}
330
1F9
100
AcDbXrecord
280
     1
 70
     1
 90
429727718
  1
D62C5603-E3A1-4AEA-B7FB-FE5D8D0755AF
310
504B03040A0000080000CC70623B3DEE336E79000000790000001B0000006175746F6465736B2D64657369676E2D7061636B6167652E786D6C3C3F786D6C2076657273696F6E3D22312E302220656E636F64696E673D227574662D3822203F3E3C666F726D6174733E3C666F726D61743E687474703A2F2F736368656D612E
310
6175746F6465736B2E636F6D2F64657369676E2D7061636B6167652F323030393C2F666F726D61743E3C2F666F726D6174733E504B0304140006080800CC70623BD486FD9CA0000000F4000000130000005B436F6E74656E745F54797065735D2E786D6C7D8EC10E82300C865F65E91D8A1E8C310C0EEA1BF002731658846E
310
D98AC1B77784ABF1D8FE5FBFBF75BBCE937A534CCEB38643598122B6FEE978D0B0485F9C41B54DDD7D022595594E1A469170414C76A4D9A4D207E29CF43ECE46F218070CC6BECC4078ACAA135ACF422C856C0E68EA1BF5669944DDD7BCDE7B1F8E415D77AECB980613C2E4AC91FC167A2B244592486606FC29C8FD7F045B9A
310
EF7053A7E60B504B0304140006080800CC70623B853B8169EB0000007C01000008000000636F72652E786D6C8D90416EC3201045AF62CDB6C206821CC7C244919D9CA01740401C94182C03558F5F9C3852BBEB6A467FFE9B197D7EFC9E1EC5975982F5AE035262288C535E5B377690E21535501C055FBC8FBF6C503839990E
310
5619041F179FE64D52DE45E362569DD7661365082642A11EB9E920A89B99642953CC8E702F67A9EE7234257977194EC9EAE275C4EABCCF5EAD5940D4AC6F0E35A568B8F43562CD7046CD199FD07E60174276A7BE677B5EADB0E0D14EEFFB6A31321A0D82627C4084204C3F096B71DD52F6819B16635EADF63F509AF53FA164
310
5DDCD1EDDD17164090FCC8732078B56691CB33A85CD7DCC40F504B0304140006080800CC70623B55019EA25F0000007C00000007000000636E782E786D6C4DCB3B0E80201045D1AD90E915ED2CF8AC45050C11660C8261F98AB1B07AC9C97D42D718D865D3E909258CFD00CCE24AC6E326A164D74DC0B4128928FF32603847
310
2BA13128B1252AC747C6BAB984FC68F0B87FE8960A5C09FE86CFB69FBA01504B0304140006080800CC70623BDBABAAF470010000D40300000C0000006662782F636F72652E786D6CC553D16E823014FD95A6AF4B694182CC941A83FA05FB810A9511A125A5257EFE2E82712ECEB8A7F100CD39F7F69E734AF9FADC366850B6
310
AF8DCE7018308C942E4C59EB2AC3DE1D498AD15A706B8CFB56869196ADCAF00863C12B6B7C374385D14E6907A836A59A41D9F7CA615434B0C8705F7CAA5606D23BA8E84F41278B93AC54100640439DE0BDB320004D43C63716C7C399D30917DCFBBA9CD9BA8469F5B156168B24CED3F7248AC8769F27244EB73B92EED8862C
310
B7F13E0C179B3C8F979C8ECD82BBBABDAA2BAC924E9558448CBD9330242CFA08E3154B5651FCC6D215639C8EE5774DBE2B5F6CF2B5768B68963BB5F5588420E442FC700B1139D4CB01F450C1E918227C2E09DF070D8140C84E1E9AAB8F1340832A9CB13130A5F1376A908D57309505ECF2A0DF179C4E9D30F5B239B87E3823
310
7A79C6F31DE1A8A5AEC08474B03C7837EAE4938639B44E5932B833D2C6B6B279CDC613877FA26EE21F4A2A4C63EC7F29A2F301D1F9F7A0E37D145F504B0304140006080800CC70623B9C113CC27E0000009D0000000B0000006662782F636E782E786D6C4DCCDF0A83201C86E15B91DFB94BFB330DD428C8FB886521330DA7
310
6397BF1A1DECE883878F57749FCDA1B7892F1BBC047A23808C7F84D9FA55424E0BE6803A256208E9EF06C84F9B91703228B1C690F78B66B34CD9A5439DF5CF0BFBF65E35BCA1B8D6A5C6F540381E886698B5741C695F9503EBA150A2F8958E3DC3EA0B504B0304140006080800CC70623B7DF2F77C2A010000120200003100
310
00006662782F41393633353835312D344632462D344230382D423046372D3739314545314133324237412F636F72652E786D6C8D51DB8EC22014FC15C2939B0D2DB4B45643319AE817EC0F6041255A68B86CFCFC856D4D76DF7CE190393373060EDB3DC707F856CE6B6B7A480A0C81328395DA5C7B18C3057510EC3873D686
310
3F34088C18550F330C39BB3A1BA7051AAC09CA84841A2BD5020AEF55806078A44B0FFD7053A328440C89E1EFC52486BBB8AA8214A99D789CF9E05200300FC927E4FB4D5B375D43103D5527440FB843077C5AA3F5861C8F645F5787F59E95B390B318B55CE45AA638FAA2957BD7248B390B7A7CC51F9C124149C82B8C378810
310
84AB2F42B7B8DD56F413775B8C5999E9FF4471926F8AA236A1AE96B8B3CC434E5839373893369E1FAF30EA395917409EB7F26AF8801C171837A4A6AC9C89E9F9C9B1A58BA30FD6A5EF5DDDCF894B9AD9B6A59C957943A9FCAE2FD5BC4DFE03504B0304140006080800CC70623BAD7543B64E01000033030000300000006662
310
782F41393633353835312D344632462D344230382D423046372D3739314545314133324237412F636E782E786D6CD593CD6EC32010845F0571AD6CE3D48AD20813A9873E410FBD12D82434182C7EAAE6EDBB2424CD25871E7B41D6EC30B3FA84F9E67BB2E40B4234DE8DB46F1925E094D7C6ED479AD3AE5951B2113C789FEE
310
6C943839C1488B4C05DF079FE72A69D8C96C13AAD6B8631503449F83828872B949AC57D26200B826A308D316B4064D6E46FCDA41C05550DC9E483A00797BFD207EFB092A45DE9514C1BBD22178396BD39D891265658C238DEA00936C654E5E433CB65A26D9F6EDB5EBC14EBF49A45CB856E66048291F6939A9A81BB5C89177
310
38143CA680F4AA299D66A042CEB3354A2684DC9D8D178FE0D9B8B41CAAD720F880EE7EF93C0C18769E099ECC04D5A102C8049A8A05632F4DDF376CF1DE0F6BB65C2F8627B65A33C6BB62177CEBBDAD973006829F89F22E814B54F4BC2BE347F8AA8F681390B50FA73F804400B5F542E796F19FF974E7F78DB802FE05E20750
310
4B0304140006080800CC70623BE75B7789680500003C100000340000006662782F41393633353835312D344632462D344230382D423046372D3739314545314133324237412F6F626A656374732E786D6CAD575B8F9B3818FD2B887D06C22499CB8AA1CA655245D5B455A356FB305264C061D8018C6C3393D95FBFC7600890
310
A4CD5EF210B0B1BFEBF98E3F7B1FF6596ABC522E1296DF9BAE3D320D9A872C4AF2F8DE2CE5CEBA358D0FBEC719939D65A691938CDE9B6ADAF4BD98B3B2D05311DD91329583D9D5FC0F438434A7A611A644887B5384CF34233629258BA878B12322891DEFF6B66BD70BFB62634E8AE781D082709A4B588AF91C528CDA28B73F
310
1C998EEF39EABBEFA97FBD6A7C7E9553F9D3D79FE442923C3C523610337627CB87ABE99D359D4CC6D6E4FACAB5E6ABF9D2726FC6A3C5F56271377BB88362213924694B38DD99FE47C48627A1E7D49F5A8BB5E1A74C0A599ED3B0F21F1E56366B89112D681E218F0915D0D6F17AD41FBA2A369DCF6335D62ABBD39779D5DDD1
310
11D4D8DE3CBB96B2E04FB8202E41051754A1AA8E8F76B4C6DFE810B580B1547F4B84911149794252234D024EF8BBE963A95AE27B3D310A9D5C215C7960FAEE415ED75694C6AFB17BCACA5D99A60A9AA65F217B0BFC53292ACB92BF283FAD0D3621576592CB5BED907C2FA8E9DF794E35E97BEA31BED21FEB401ABB94C44839
310
DCACBF0E1C5DA8DA5B2F4DFFD32AD86F543D9E565E7056502E157C00AD2671CD534549AB752FCA9CDA00677A313F04E51B22FF19E57B300579E3C97EB29F682D92935CEC18CF901B7B54FD8C51F362B56FC72FE0B3C1EAE335EDCCBF5AEC39ADB17DC238973F804BA5E6F6BFE7AF1FB32E523BE9F3BD571418E3631DCA4D48
310
5250CF639223210A9446CA30052EDF057BD35F8329C1ECD84552BF0DC8D18BE7BCE23BFE6BD960AB4A7DE79923A103BEBD80F911CBAA2C60DB19B01CF164A5583B772EE6D3FFA56666CBCDA74DC97724A48F9A58967497E489C4D979006FD7A05E227A1EBDD0F737C623387A9C844D3709995625106D157315F8B8392CD4E0
310
A0B9A720C4BE9829CEF37EA1E13111214D53925356365ADA634861B52519DD27A00AEB808EAF0628E6F435519D446F45CF2C9CF5214F0A15B2F6D06B79DA3EE3CBF7F56780D2F4E7EF73A0F5E5B02A38D07DC852C6B7C1FBB6664213E0C39E3EBA7FF4E1AD23EA2829407C85E586727488B751B2DB9502BC7B228A3FD68B6E
310
A65A22397E690AA8D158D7E404EC8CDA235CC3B7D1898680131CEC2CDF2638C65196279577750F15884AEE19F94199155B92B13297978469D4F8D358DF0AEF7631E28DC8F0D9F437D5D39A83B2231A1D52D543813A824EF8D44BCFF2FA6A31BD1E8DAD87F1CCB526B3879935BF59CDADD5C37479BB1CDD4CA7B3556B516589
310
EF352754B706114D9C885EC9131DE6EFEB43D99AFE2391C2F958179413D7CFEF6B1B6DB1E7600F00DE6E5C67454A339A4BA2E0FBA85ED26F045D454F463DBFCE484C2F90F2E5E3666003662ED8F755951A7D1BECD5B30B550B2785C8E7320B7292A4838DDA71BBC863ED7613CAF659337A3354231D4FF4A182A54904C2898C
310
98B28C4AD0CE056CCF332A80986E571EE9DBC305BB5FEB7E509220A58D25CF042D712A806AC0AD0C657FDEF80D2D9CEAA2EE4D1C76F60BFE74219A06527D6F82DF6412526107381E55E353090704D085B52408A8913C4ED159D79BDA71BB4BC506F4831350EB6F975CD22D69BF7AC49B91A2C0A9DDA3D5CA36AD20FC478E37
310
E61844E2352865EBCB61A275A65283CAAA9DD27703B4102F5AF51EF5F573B75CBB5AD38BC845F7A49F82A0966A49C2E3EA5EA0ECD326CD965F1DB402C6FA8B51A4658C5C5E2EC9E214602E55810345408596591009A82E7E7FFACA19EEA299B14A0081A705CB3296EBC14CDF658DCD336EA6D1136881AAEB87B81AB9EE53D5
310
F5EB8BC8362082DA24122F98680A4E7930C01A0079749CEA14382A0783E5EBA5A10F8C098456A03D6A4AEB6BB881E2513747552A5DB22C7EDAF83BD5528081A365F7FF06504B0304140006080000CC70623B000000000000000000000000350000006662782F41393633353835312D344632462D344230382D423046372D37
310
39314545314133324237412F76657274696365732E62696E504B0304140006080800CC70623BF270F1330600000004000000360000006662782F41393633353835312D344632462D344230382D423046372D3739314545314133324237412F747269616E676C65732E62696E636660600000504B0304140006080000CC7062
310
3B000000000000000000000000370000006662782F41393633353835312D344632462D344230382D423046372D3739314545314133324237412F617474726962757465732E62696E504B0304140006080800CC70623B08DA0BD19000000041010000360000006662782F41393633353835312D344632462D344230382D4230
310
46372D3739314545314133324237412F6469726563746F72792E786D6C858F410AC3201045AF22B36F53E9A60B35CBEEBAE80D244E44489C6234F4F835464A48035D0DF398FF9F8AF63D0E6CC63039F212F8F9020C7D47C6792B21C5FE7403D62A1188E2E60C98D7234A5830286103A55745067B9D86B8A3CF9C7F90C11DE6
310
07FB144396D7B6A82D282E9A152AD114D5EF2CB866EEE831B8EEA07A7BB5A8D7D61A2BAAEB7FD5F70921FF497D00504B0304140006080800CC70623BEDD1DC58FD000000A00100003B0000006662782F41393633353835312D344632462D344230382D423046372D3739314545314133324237412F7265736F75726365732F
310
636F72652E786D6C8D504B6E833010BD0A9A6D65B00922041947112427E8052C33A156828DFCA97AFC9A40A576D7CDCCE87D344F8F9FBFE667F689CE6B6B3A6039850C8DB2A336530731DC4903D95970676DF82583CCC8193B5861107C72362E3BA4AC096842428D1D7107A5F7182053CF7474E0D507CE32973124857FE48B
310
540F3961CEF244279DE03EB81420DB9EAC1384436FA353E879B1B182C7A8C75DA3C7F453DF353A1075D537A7BA6464B8F535A99AE14A9A2BBD90E350DD183B5CFABE3AF262350B1EF4FC9351399401471025A527C218A1E53BAB5A5AB765F5469B96525EACF23FA6B88CFF34456DC2A1DCE36E360F82A5202F42F062ED2BAD
310
579969AFDD8A6F504B010214000A0000080000CC70623B3DEE336E79000000790000001B00000000000000000000000000000000006175746F6465736B2D64657369676E2D7061636B6167652E786D6C504B01021400140006080800CC70623BD486FD9CA0000000F40000001300000000000000000000000000B20000005B
310
436F6E74656E745F54797065735D2E786D6C504B01021400140006080800CC70623B853B8169EB0000007C010000080000000000000000000000000083010000636F72652E786D6C504B01021400140006080800CC70623B55019EA25F0000007C000000070000000000000000000000000094020000636E782E786D6C504B
310
01021400140006080800CC70623BDBABAAF470010000D40300000C00000000000000000000000000180300006662782F636F72652E786D6C504B01021400140006080800CC70623B9C113CC27E0000009D0000000B00000000000000000000000000B20400006662782F636E782E786D6C504B01021400140006080800CC70
310
623B7DF2F77C2A010000120200003100000000000000000000000000590500006662782F41393633353835312D344632462D344230382D423046372D3739314545314133324237412F636F72652E786D6C504B01021400140006080800CC70623BAD7543B64E010000330300003000000000000000000000000000D2060000
310
6662782F41393633353835312D344632462D344230382D423046372D3739314545314133324237412F636E782E786D6C504B01021400140006080800CC70623BE75B7789680500003C10000034000000000000000000000000006E0800006662782F41393633353835312D344632462D344230382D423046372D3739314545
310
314133324237412F6F626A656374732E786D6C504B01021400140006080000CC70623B0000000000000000000000003500000000000000000000000000280E00006662782F41393633353835312D344632462D344230382D423046372D3739314545314133324237412F76657274696365732E62696E504B01021400140006
310
080800CC70623BF270F133060000000400000036000000000000000000000000007B0E00006662782F41393633353835312D344632462D344230382D423046372D3739314545314133324237412F747269616E676C65732E62696E504B01021400140006080000CC70623B0000000000000000000000003700000000000000
310
000000000000D50E00006662782F41393633353835312D344632462D344230382D423046372D3739314545314133324237412F617474726962757465732E62696E504B01021400140006080800CC70623B08DA0BD1900000004101000036000000000000000000000000002A0F00006662782F41393633353835312D344632
310
462D344230382D423046372D3739314545314133324237412F6469726563746F72792E786D6C504B01021400140006080800CC70623BEDD1DC58FD000000A00100003B000000000000000000000000000E1000006662782F41393633353835312D344632462D344230382D423046372D3739314545314133324237412F7265
310
736F75726365732F636F72652E786D6C504B0506000000000E000E0080040000641100000000
  0
XRECORD
  5
1F8
102
{ACAD_REACTORS
330
1F7
102
}
330
1F7
100
AcDbXrecord
280
     1
 70
     1
 90
429727718
  1
30362254-06B7-45E0-A893-8CFA70E3D6BC
310
504B03040A0000080000CC70623B3DEE336E79000000790000001B0000006175746F6465736B2D64657369676E2D7061636B6167652E786D6C3C3F786D6C2076657273696F6E3D22312E302220656E636F64696E673D227574662D3822203F3E3C666F726D6174733E3C666F726D61743E687474703A2F2F736368656D612E
310
6175746F6465736B2E636F6D2F64657369676E2D7061636B6167652F323030393C2F666F726D61743E3C2F666F726D6174733E504B0304140006080800CC70623BD486FD9CA0000000F4000000130000005B436F6E74656E745F54797065735D2E786D6C7D8EC10E82300C865F65E91D8A1E8C310C0EEA1BF002731658846E
310
D98AC1B77784ABF1D8FE5FBFBF75BBCE937A534CCEB38643598122B6FEE978D0B0485F9C41B54DDD7D022595594E1A469170414C76A4D9A4D207E29CF43ECE46F218070CC6BECC4078ACAA135ACF422C856C0E68EA1BF5669944DDD7BCDE7B1F8E415D77AECB980613C2E4AC91FC167A2B244592486606FC29C8FD7F045B9A
310
EF7053A7E60B504B0304140006080800CC70623B1EC5D7A3EB0000007C01000008000000636F72652E786D6C8D90416EC3201045AF82665B6103C6756C6122AB4D4ED00B204C5C94182C03558F5F9C3852BBEB6A467FFE9B197D71FC9E6FE8CBACC17AD7032D0820E3B41FAD9B7A48F1820F808E52ACDEC75F36404ECDA687
310
4D0629A6D5A76597B477D1B89855E747B38B2A041301E95B6E7A08FAD3CCAA50296647B8168BD2573599823EBB0CA76447F43862C7BCCF5EAC59410E4DDD9C7973C2755553CCCFA4C603E3040F1565ED3B1FDE4E432BCA0D9622DAF9795FAF464533826484B498524CD807E51D79ED187F21878E10516EF63F505AC67F42C9
310
BA58B1FDDD071640D2FCC87D2045B96591CB3DA85CB7DCE40F504B0304140006080800CC70623B55019EA25F0000007C00000007000000636E782E786D6C4DCB3B0E80201045D1AD90E915ED2CF8AC45050C11660C8261F98AB1B07AC9C97D42D718D865D3E909258CFD00CCE24AC6E326A164D74DC0B4128928FF32603847
310
2BA13128B1252AC747C6BAB984FC68F0B87FE8960A5C09FE86CFB69FBA01504B0304140006080800CC70623B8C9102E971010000D40300000C0000006662782F636F72652E786D6CC5535B6E833010BC8AE5DF0A6C08340F1947A84D4ED00B38C6A128602363A31CBFCB234A53A551FA553EC09AD9F5CE8C31DB9E9B1AF5CA
310
7695D1198E428A91D2D214952E33ECDD315861B4E5CC1AE3BE9561A445A3323CC098B3D21ADFCE9034DA29ED00D5A6503328BA4E398C640D8B0C77F253352214DE4145770A5B214FA2546114020D759C75CE8200340D19DE981F0F6746269C33EFAB6266AB02A655C74A59CCF365BADC27CB5D902ED22848F6340DF238A141
310
BE88E2F57B92BFEDF23523433367AE6A2EEAA455C2A902F398D2751045018D3FA264435F3771F242571B4A1919CA6F9A7C5B3CD9E42BED16F12C776AEB308F40C848FC700B1139D4891EF410CEC810227CC6846F8386402064270EF5C5C709A05E49676C024C61FC95EA45ED154CA5211D1FF4FB8291A913A68E9B83EBBB33
310
E2A7673CDE118E5AE8124C0807CB8377834E366998436B950D7A7746DAD846D4CFD978E0F04FD455FC5D49D2D4C6FE9722321F10997F0F32DC47FE05504B0304140006080800CC70623BFFEA85907E0000009D0000000B0000006662782F636E782E786D6C4DCCD10A83201886E15B91FFDC95D95A811AB6F23E625948A6C3
310
E9D8E5AF46073BFAE0E1E365ED67B3E8ADC3CB78C7815C7240DA3DFC64DCC221C519D7805AC182F7F1EF06C88D9BE6703008B6049F9E274D7A1E938DBB5AE3D6131B2589BA0D3D965551E0B2EA732C9B9A624AAEB41E3A557677029960D9AFB4EF11165F504B0304140006080800CC70623B4FEEA4082C0100001202000031
310
0000006662782F39464131463745442D413632322D343644302D413938332D3331353338454246344243312F636F72652E786D6C8D515B6EC32010BC0AE2AB55850DD871ED0813254D72825EC00192A2C460F1A872FC42ED48ED5F7E00CDCECCCEB26C731F6FE05B39AFADE921293004CA082BB5B9F43086336A21D870E6AC
310
0D7F68109861543DCC30E4ECE26C9C164858139409093556AA051CBC570102714B8F1E7AF1A5C6A11862480C7F2DA6415C878B2A4891CA89C7990F2E050073937C42DE1DB7E4F87ED8A36D4329AA9B3D46DBAEAD504556557BD81DEBDD0761E52CE42C462D17B996298E3E6BE59E35C962CE821E1FF18553435012728A7187
310
0841987E927A8D9B35ADDF70BBC6989599FE4F1427F9A4286A132ABAC49D651EF234CD5CE04CDA78BA3DC2A8FB645D00B9DF8B57E215725C60BCA2A463E54C4CE327C7A65E1C7DB02E7DEFCBF594B864C5CA6CDBD49C957943E9FA5D5FBAF336F90F504B0304140006080800CC70623BAD7543B64E01000033030000300000
310
006662782F39464131463745442D413632322D343644302D413938332D3331353338454246344243312F636E782E786D6CD593CD6EC32010845F0571AD6CE3D48AD20813A9873E410FBD12D82434182C7EAAE6EDBB2424CD25871E7B41D6EC30B3FA84F9E67BB2E40B4234DE8DB46F1925E094D7C6ED479AD3AE5951B2113C
310
789FEE6C943839C1488B4C05DF079FE72A69D8C96C13AAD6B8631503449F83828872B949AC57D26200B826A308D316B4064D6E46FCDA41C05550DC9E483A00797BFD207EFB092A45DE9514C1BBD22178396BD39D891265658C238DEA00936C654E5E433CB65A26D9F6EDB5EBC14EBF49A45CB856E66048291F6939A9A81BB5
310
C8917738143CA680F4AA299D66A042CEB3354A2684DC9D8D178FE0D9B8B41CAAD720F880EE7EF93C0C18769E099ECC04D5A102C8049A8A05632F4DDF376CF1DE0F6BB65C2F8627B65A33C6BB62177CEBBDAD973006829F89F22E814B54F4BC2BE347F8AA8F681390B50FA73F804400B5F542E796F19FF974E7F78DB802FE05
310
E207504B0304140006080800CC70623B16AB87BA640500003C100000340000006662782F39464131463745442D413632322D343644302D413938332D3331353338454246344243312F6F626A656374732E786D6CAD575B6FA33818FD2B887DE6924B3BED8A326A92B68A663B534DD4D13E548A0C38942D60649B369D5FBFC7
310
600890A493BDE42160637FD7F31D7FF63E6FB3D478A55C242CBF3247B66B1A340F5994E4F19559CA8D75611A9F7D8F33263BCB4C232719BD32D5B4E97B316765A1A722BA21652A07B3B7B33F0D11D29C9A46981221AE4C113ED38CD8A4942CA2E2C58E882476BCD9DA23BB5ED8171B73523C0F841684D35CC252CCE79062D4
310
468DFA43D7747CCF51DF7D4FFDEB5593E3AB9CCA9FBEFE241792E4E19EB28198C968BAB8199F5D5A67D3E9C49A9E8F47D6EC76B6B0469F26EEFC7C3EBFBCBEB98462213924694B38DD98FE1D62C393D073EA4FADC5DAF04326852CCF6958F90F0F2B9BB5C48816348F90C7840A68EB78EDF68723159BCEE7891A6B95DDE9D3
310
BCEAEEE8086A6C6F9E5D4B59F0175C10A7A0820BAA5055C7473B5AE3CFDD452D602CD5DF12616444529E90D448938013FE6EFA58AA96F85E4F8C42275708571E98FE6827AF6B2B4AE3D7D83D64E5A64C53054DD3AF90BD06FEA9149565C94FCA0F6B834DC85599E4F2423B24DF0B6AFA979E534DFA9E7A4CC6FA631D486393
310
921829879BF5D781A373557BCB85E97FB90DB62B558F8795179C15944B051F40AB495CF35451D26A4727654E6D8033BD98EF82F21D91FF8AF2DD9982BCF1643BDD4EB516C9492E368C67C88DED563FC36D5EACF66DFF057C3658BDBFA69DF9578B3DA735B64F18C7F20770A9D45CFCF7FCF563D6456A277DBEF78A02637CA2
310
43B90A490AEAB94F72244481D24819A6C0E59B606BFA4B3025981DBB48EAB701D97BF19C577CC77F2D1B6C55A9EF3C732474C0B727303F625995056C3B02963D9EAC146BE78EC5FCEC7FA999EBC5EACBAAE41B12D27B4D2C0BBA49F244E2ECDC81B76B502F113D8F5EE8FB1BE3111CDD4FC2AA9B844CAB1288B68AB90A7CDC
310
1C166AB0D3DC5310625FCC14E779BFD0709F8890A629C9292B1B2DED31A4B0DA928CEE135085754027E3018A397D4D5427D15BD1330B677DC8934285AC3DF45A9EB68FF8F2B8FC0A509AFEECFD0FF2DE25CC6047F7214B195F07EFEB9A094D800F7BFAE8FED187B78EA8A3A400F115961BCAD1215E47C966530AF0EE8128FE
310
58CEBB996A8964FFA529A046635D9353B0336A8F700DDF46271A024E70B0B37C9DE01847591E54DED53D54202AB947E4076556AC49C6CA5C9E1226B7F1A7B1BE15DEED62C41B91E1B3E9AFAAA735036547343A925075041DF0A9979E893B391F8FCFA6967B3EFB644DCF6E5CEBFAE272625DCC6FAF3FB93793C5F90CE1EF57
310
407342756B10D1C489E8953CD1617E5CEECAD6F4EF8914CE5D5D504E5C3F1F9736DA62CFC11E00BCDDB8CC8A9466349744C1F75EBDA4DF09BA8A9E8C7A7E9991989E20E5DBDD6A6003664ED8F7A04A8DBE0DF6EAD9B9AA858342E47399053949D2C146EDB85DE4B176BB0965FBAC19BD19AA918E27FA50C1D22402E144464C
310
59462568E704B6E71915404CB72B8FF4EDE184DDAF753F284990D2C6926782963815403548A70C657FDEF80D2D9CEAA2AE4C1C76F60BFE74219A06527D6582DF6412526107381E55E353090704D085B52408D0933C4ED159D79BDA71BB4BC506F4831350EB6F979CD22D69BF7AC49B91A2C0A9DDA3D5CA36AD20FC478E37E6
310
1844E2352865EBCB6EA275A652E3836BE04EFB400BF1A2556F515F1FBB35B2AB35BD889C744FFA1004B5544B121E57F70215746DD2F5E2C1412B602CBF19455AC6C8E5E9922C4E01E65215385004546899059180EAFCF7A707CE7017CD8CDB0410789AB32C63B91E5CEBBBACB17AC6CD347A022D5075FD106377347AAABA7E
310
7D11590744509B44E205134DC1290F06580320F78E537D3D73540E06CB970B431F185308AD40BBD794D6D77003C5A36E8EAA54BA64597CD8F83BD552A080A365F7FF06504B0304140006080000CC70623B000000000000000000000000350000006662782F39464131463745442D413632322D343644302D413938332D3331
310
353338454246344243312F76657274696365732E62696E504B0304140006080800CC70623BF270F1330600000004000000360000006662782F39464131463745442D413632322D343644302D413938332D3331353338454246344243312F747269616E676C65732E62696E636660600000504B0304140006080000CC70623B
310
000000000000000000000000370000006662782F39464131463745442D413632322D343644302D413938332D3331353338454246344243312F617474726962757465732E62696E504B0304140006080800CC70623B08DA0BD19000000041010000360000006662782F39464131463745442D413632322D343644302D413938
310
332D3331353338454246344243312F6469726563746F72792E786D6C858F410AC3201045AF22B36F53E9A60B35CBEEBAE80D244E44489C6234F4F835464A48035D0DF398FF9F8AF63D0E6CC63039F212F8F9020C7D47C6792B21C5FE7403D62A1188E2E60C98D7234A5830286103A55745067B9D86B8A3CF9C7F90C11DE607
310
FB144396D7B6A82D282E9A152AD114D5EF2CB866EEE831B8EEA07A7BB5A8D7D61A2BAAEB7FD5F70921FF497D00504B0304140006080800CC70623B0D6EF93BFE000000A00100003B0000006662782F39464131463745442D413632322D343644302D413938332D3331353338454246344243312F7265736F75726365732F63
310
6F72652E786D6C8D50596E833010BD0A9ADFCA60B334011947A8694ED00B586642AC041B79A97AFC9A40A5F6AF3F33A3B7689E1E3F7DCD8FEC139DD7D6F4C0720A191A65476DA61E62B892236427C19DB5E1970C322367EC618541F0C9D9B8EC90B226A009093576C41D94DE63804C3DD2D18357379C652E63480A7FCF17A9
310
EE72C29CE5894E3AC17D702940B63D59270887DE46A7D0F36263058F518FBB468FE9A7BE6A7420864373B8D4873369AA8691FA421B3294352543C5CAF65C0F6FEF43CB8BD52C78D0F34F46E550061C419494B6843142CB0F5677F4B52BEB177AEC28E5C52AFF638ACBF84F53D42654E51E77B379102C05791282176B5F693D
310
CB4C7BED567C03504B010214000A0000080000CC70623B3DEE336E79000000790000001B00000000000000000000000000000000006175746F6465736B2D64657369676E2D7061636B6167652E786D6C504B01021400140006080800CC70623BD486FD9CA0000000F40000001300000000000000000000000000B20000005B
310
436F6E74656E745F54797065735D2E786D6C504B01021400140006080800CC70623B1EC5D7A3EB0000007C010000080000000000000000000000000083010000636F72652E786D6C504B01021400140006080800CC70623B55019EA25F0000007C000000070000000000000000000000000094020000636E782E786D6C504B
310
01021400140006080800CC70623B8C9102E971010000D40300000C00000000000000000000000000180300006662782F636F72652E786D6C504B01021400140006080800CC70623BFFEA85907E0000009D0000000B00000000000000000000000000B30400006662782F636E782E786D6C504B01021400140006080800CC70
310
623B4FEEA4082C0100001202000031000000000000000000000000005A0500006662782F39464131463745442D413632322D343644302D413938332D3331353338454246344243312F636F72652E786D6C504B01021400140006080800CC70623BAD7543B64E010000330300003000000000000000000000000000D5060000
310
6662782F39464131463745442D413632322D343644302D413938332D3331353338454246344243312F636E782E786D6C504B01021400140006080800CC70623B16AB87BA640500003C1000003400000000000000000000000000710800006662782F39464131463745442D413632322D343644302D413938332D3331353338
310
454246344243312F6F626A656374732E786D6C504B01021400140006080000CC70623B0000000000000000000000003500000000000000000000000000270E00006662782F39464131463745442D413632322D343644302D413938332D3331353338454246344243312F76657274696365732E62696E504B01021400140006
310
080800CC70623BF270F133060000000400000036000000000000000000000000007A0E00006662782F39464131463745442D413632322D343644302D413938332D3331353338454246344243312F747269616E676C65732E62696E504B01021400140006080000CC70623B0000000000000000000000003700000000000000
310
000000000000D40E00006662782F39464131463745442D413632322D343644302D413938332D3331353338454246344243312F617474726962757465732E62696E504B01021400140006080800CC70623B08DA0BD190000000410100003600000000000000000000000000290F00006662782F39464131463745442D413632
310
322D343644302D413938332D3331353338454246344243312F6469726563746F72792E786D6C504B01021400140006080800CC70623B0D6EF93BFE000000A00100003B000000000000000000000000000D1000006662782F39464131463745442D413632322D343644302D413938332D3331353338454246344243312F7265
310
736F75726365732F636F72652E786D6C504B0506000000000E000E0080040000641100000000
  0
XRECORD
  5
175
102
{ACAD_REACTORS
330
173
102
}
330
173
100
AcDbXrecord
280
     1
270
     1
271
     1
  0
XRECORD
  5
174
102
{ACAD_REACTORS
330
173
102
}
330
173
100
AcDbXrecord
280
     1
270
     1
271
     1
  0
XRECORD
  5
1FB
102
{ACAD_REACTORS
330
173
102
}
330
173
100
AcDbXrecord
280
     1
 70
     0
 90
1673772943
  1
ECE7A1D2-D628-4531-984C-D00F80459256
310
504B03040A0000080000CC70623B3DEE336E79000000790000001B0000006175746F6465736B2D64657369676E2D7061636B6167652E786D6C3C3F786D6C2076657273696F6E3D22312E302220656E636F64696E673D227574662D3822203F3E3C666F726D6174733E3C666F726D61743E687474703A2F2F736368656D612E
310
6175746F6465736B2E636F6D2F64657369676E2D7061636B6167652F323030393C2F666F726D61743E3C2F666F726D6174733E504B0304140006080800CC70623BD486FD9CA0000000F4000000130000005B436F6E74656E745F54797065735D2E786D6C7D8EC10E82300C865F65E91D8A1E8C310C0EEA1BF002731658846E
310
D98AC1B77784ABF1D8FE5FBFBF75BBCE937A534CCEB38643598122B6FEE978D0B0485F9C41B54DDD7D022595594E1A469170414C76A4D9A4D207E29CF43ECE46F218070CC6BECC4078ACAA135ACF422C856C0E68EA1BF5669944DDD7BCDE7B1F8E415D77AECB980613C2E4AC91FC167A2B244592486606FC29C8FD7F045B9A
310
EF7053A7E60B504B0304140006080800CC70623BD9DDAED0EC0000007C01000008000000636F72652E786D6C8D90416EC3201045AF82665B61836D9CD8C2444DD39CA01740405C94182C03558F5F9C3852BBEB6A467FFE9B197D7EF89E6EE8CB2CC17A37002D0820E394D7D68D03A478C17B4007C117EFE32F1B20272733C0
310
2A83E0E3E2D3BC49CABB685CCCAAF3DA6CA20CC14440EA969B0182FA34932C648AD911AEC52CD5558EA6A0CF2EC329598D1E47ACCEFBECC59A050463A7EA5833865FEBDD0E37353BE3EE8DBDE3F6786A48D375FBF6CC78B9C282473B3DEFABC5C86834888A900E538A49F5419B9EB47DD5BC907D4F082F57FB1F28CDFA9F50
310
B22ED6D5F6EE030B20687EE43E10BC5CB3C8E51E54AE6B6EE207504B0304140006080800CC70623B55019EA25F0000007C00000007000000636E782E786D6C4DCB3B0E80201045D1AD90E915ED2CF8AC45050C11660C8261F98AB1B07AC9C97D42D718D865D3E909258CFD00CCE24AC6E326A164D74DC0B4128928FF326038
310
472BA13128B1252AC747C6BAB984FC68F0B87FE8960A5C09FE86CFB69FBA01504B0304140006080800CC70623BA24EB22D72010000D40300000C0000006662782F636F72652E786D6CC5535B6E833010BC8AE5DF0A6C5E49888CA3A6694ED00B38E05014B091B1518EDFE511A5A9D228FD2A1F60CDEC7A67C6986DCE4D8D7A
310
69BA4AAB0C073EC548AA5C17952A33ECECD15B61B4E1CC686DBF9561A44423333CC098B3D268D7CE50AE9595CA02AA74216750749DB418E5352C32DCE59FB211BE70162ABA93DF8AFC244AE9073ED050C759670D0840D390E18DF9F1706664C23973AE2A66B62A605A75ACA4C13C4976E1364A12EF355A2EBD384AF65EFA96
310
BC7B8BED2EA6719AAE16FB8491A199335B351775B991C2CA02F390D2D40B028F861F41BCA68B7518BFD0D59A524686F29B26D7164F36B94AD9289CE54E6D1DE6010819891F6E21228B3AD1831EC219194284CF98F06DD01008846CC5A1BEF83801D4CBDC6A1303536877A57A513B0953A94FC707FDBE6064EA84A9E3E6E0FA
310
EE8CF0E9198F7784A316AA0413C2C2F2E0ECA0934D1AE6D05A69BCDE9E91D2A611F573361E38FC1375157F5752AE6B6DFE4B11990F88CCBF0719EE23FF02504B0304140006080800CC70623B408A7D3B7C0000009D0000000B0000006662782F636E782E786D6C4DCCD10A83201886E15B91FFDC552A92A0064DBC8F581632
310
D3703A76F9ABD1C18E3E78F878E5F0D9027ABBFCF2292AE86E2D20171F69F6715550CB827B40839639A5F2770314A7CD293819B45C73AAFB45B35BA61ACAA1C1C7E7855C58C15BC331339661262CC762340413D68D77DA5B42298546CBE6573AF60CEB2F504B0304140006080800CC70623B449FB9BD290100001202000031
310
0000006662782F36394639363044362D344446342D343946362D394244322D3234314243333846323333332F636F72652E786D6C8D515B6EC32010BC0AE22B55850D98B871848994463E412FE002495162B07854397EA176A4F62F3F2C9A9D991D587EB84F37F0AD7D30CEF6905418026DA553C65E7A98E219ED203808EE9D
310
8B7F6810D871D23D2C3014FCE25D9A57483A1BB58D19B54EE9151C43D0110279CB971E06F9A5A7B11A53CC8C70ADE6515EC78BAE4895DB992778883E0700CB907242D17643D7E2538BD869608875438BBAE38922CAC8F1BDD90DB4691A5E2F42C153326A951B95E398B3D1FE599322163C9AE9115F7A3D46ADA0A018778810
310
84E907617BDCEE297BC5BB3DC6BC2EF47FA234AB2745C9D8D8D035EE220B50105E2F0DC1954B9FB747187D9F9D8FA0CCDB042D5FA0C015C65B42DF78BD10F3F3B363CB56C7109DCFDFBBB97E662ED92EB62D13BC2E1BCAE5777DB9966D8A1F504B0304140006080800CC70623BAD7543B64E01000033030000300000006662
310
782F36394639363044362D344446342D343946362D394244322D3234314243333846323333332F636E782E786D6CD593CD6EC32010845F0571AD6CE3D48AD20813A9873E410FBD12D82434182C7EAAE6EDBB2424CD25871E7B41D6EC30B3FA84F9E67BB2E40B4234DE8DB46F1925E094D7C6ED479AD3AE5951B2113C789FEE
310
6C943839C1488B4C05DF079FE72A69D8C96C13AAD6B8631503449F83828872B949AC57D26200B826A308D316B4064D6E46FCDA41C05550DC9E483A00797BFD207EFB092A45DE9514C1BBD22178396BD39D891265658C238DEA00936C654E5E433CB65A26D9F6EDB5EBC14EBF49A45CB856E66048291F6939A9A81BB5C89177
310
38143CA680F4AA299D66A042CEB3354A2684DC9D8D178FE0D9B8B41CAAD720F880EE7EF93C0C18769E099ECC04D5A102C8049A8A05632F4DDF376CF1DE0F6BB65C2F8627B65A33C6BB62177CEBBDAD973006829F89F22E814B54F4BC2BE347F8AA8F681390B50FA73F804400B5F542E796F19FF974E7F78DB802FE05E20750
310
4B0304140006080800CC70623B8D05915C650500003B100000340000006662782F36394639363044362D344446342D343946362D394244322D3234314243333846323333332F6F626A656374732E786D6CAD575B6FA33814FE2B887D06429276DA1565D4266D158D3A339A6846FB502932E050B66023DB74D2FDF5FB190C01
310
9276B2973C046C8ECFF53B17071F77456EBD502133CEAE6CDF9DD81665314F32965ED995DA3A17B6F5310C04E7AA47665B8C14F4CAD6DB7618A48257A5D94AE89654B91AEDDEDDFC61C998326A5B714EA4BCB265FC440BE2924AF184CA6737218AB8E976E7FA6E4338649B0A523E8D98964450A6A029F619B8588D52FE7039
310
B1BD30F0F4F730D0FF866AF6369557DB33949F31A9088B0F848DD8CCFCF9F2767A76E99CCDE733677E3EF59D9BBB9BA5E37F984D16E78BC5E5F5ED25044B25C0C96822E8D60EEFE11B91C581D77CEA34368A1F5329E68CD1B8B61F16D63A1B8E092D294B10C78C4A48EB593D192E7DED9BDEE7995E1B91FDEDD3ACEA9FE831
310
6A756F9F7D4D79F4274C90A7A04248AA51D5F8C718DAE06FB2F75AC4796EBE65D22A88A22223B995679120E2D50E41AA49C260C046A35368846B0BECD0DFF3EBEB8AD4F835768F69B9ADF25C43D30E6B646F807FAA64AD59F61715C7A54127C4AACA98BA3006A9D792DAE165E0D59B61A01FB3A9F9D838D2DAE62445C86166
310
F37564E842E7DE6A69879FEEA2DD5AE7E371E1A5E025154AC307D06A03D73EB5978C58FFA4C8E9033066E0F3BD53BEC1F39F91BE7B55103791EDE6BBB991A2046172CB4581D8B893FA674DDA17A77B3B7C413D1B511FD2743BFF8A38F03A658705E3ADF8015C3A3417FF3D7E439FF591DA0B5F18BC20C1B8981957AE6392A3
310
F43C640C01D1A0B4728E2DD4F26DB4B3C3152A252A3B4E913CEC1C72F012782FF88EFF8637AA552DBEF76408E8A8DE9E50F9E1CB3A2DA0DB1B6039A893B56063DC5B3E3FFB5F72E67AB9FEB4AEC496C4F4C1149625DD662C53E89D7BF0F6151A046260D1337DFDC94502430F83B0EE07A130A224BCAD7DAE1D9FB6CD422FF6
310
920702629C4BB9AE79C12F243C6432A6794E18E5552BA56B431AAB5D91317302B2B071E86C3A42B1A02F999E24061403B5D0EB639195DA655DD3EBEAB4FB862DDF579F014AD0E73C22F99E28DA57FB98E75C6CA2D74D53086D600F4786E0FE3144B771A8A7B900F03594DB8A633CBC49B2EDB69228BB479CF863B5E807AAAB
310
23872F6DFEB4129B949CA33823F58830E86D65621E10047D9DB34D862E8EAC3C2ABC2F7B2C40D67CDFE01F5545B92105AF983AC54D93D69E56FB8E797F88913F898A9FEC705D3F9D1B54EC8426FB500D40A03BD0119B06E1B95DDC7EB8F6975367793EBD70E66733DFB9BC982F9CE564727731999F5D4ECFCE3B8D6A4DC2A0
310
6D50FD148437D110834A64C6CDDF57FBACB5C307A2A477DFE4939736CFEF2B175371E0E10CF0DD1D5C15654E0BCA14D1E87DD02FF93782A162C0A3D95F1524A52770F972BF1EE9809D13CE7DD599467F8ECE9ADD85CE85A34CD45355448C64F9E8A031DC2D596ACC6E5DD93D9B82DE2EF5CAF81363A8E47996A0DE24564A79
310
4115AACE09C55E14540231FDA13C319787134EBF34E3A022514E5B4D9E0826E25C02D5805B15ABE1BEF51B26383D445DD9E875EE33FE4C22DA16427D65A3BCA92CA6D28DD01DF5DC53330704308475351050232CCD31583787BA75774AFB06E5070DD0C8EF484E19968C5D83BA5B90B244D31E54D55A372320FE4786B7EA58
310
44E135AA5467CB7EA333A61683CC6A8C3257034C10CF46F40EF9F5BE59BE5BD30C3C72D235E95D10345C1D45445A5F0BB47E46A5EBE5570F9380B5FA629579952296A773720405982B9DE04011506178964401AA8BDF1FBF0A8EAB6861DD6580C0E38217056766716DAEB2D6FA0917D3E4116581EADB879C4E7CFFB11EFACD
310
3D641311495D92C8676CB409A72D18610D803CE8A626049E8EC1887CB5B44CC39883690DDA8399B4B9855B481E7D71D4A9D22F96E5BB73BF5793020C02137BF837504B0304140006080000CC70623B000000000000000000000000350000006662782F36394639363044362D344446342D343946362D394244322D32343142
310
43333846323333332F76657274696365732E62696E504B0304140006080800CC70623BF270F1330600000004000000360000006662782F36394639363044362D344446342D343946362D394244322D3234314243333846323333332F747269616E676C65732E62696E636660600000504B0304140006080000CC70623B0000
310
00000000000000000000370000006662782F36394639363044362D344446342D343946362D394244322D3234314243333846323333332F617474726962757465732E62696E504B0304140006080800CC70623B08DA0BD19000000041010000360000006662782F36394639363044362D344446342D343946362D394244322D
310
3234314243333846323333332F6469726563746F72792E786D6C858F410AC3201045AF22B36F53E9A60B35CBEEBAE80D244E44489C6234F4F835464A48035D0DF398FF9F8AF63D0E6CC63039F212F8F9020C7D47C6792B21C5FE7403D62A1188E2E60C98D7234A5830286103A55745067B9D86B8A3CF9C7F90C11DE607FB14
310
4396D7B6A82D282E9A152AD114D5EF2CB866EEE831B8EEA07A7BB5A8D7D61A2BAAEB7FD5F70921FF497D00504B0304140006080800CC70623BCA768048FE000000A00100003B0000006662782F36394639363044362D344446342D343946362D394244322D3234314243333846323333332F7265736F75726365732F636F72
310
652E786D6C8D50596E833010BD0A9ADFCA60D600328E9AA639412F609909B1126CE4A5EAF16B0295DABFFECC8CDEA2797AECF8353F924FB44E193D409E5248504B332A3D0D10FC95B4901C39B3C6F85F3248B49871801506CE266BC2B243D2688FDA47549B11775038871E12F988C7004EDE7016A9083E2ADC3D5D84BC8B09
310
D33C8D74D471E6BC8D0192EDC93A815B742658898E651BCB59086ADC356A8C3FD555A1055ED7E7E254D615792D0F075295F585746FF53B694EE78A565DD736979A65AB9933AFE69F8CD2A2F038022F28ED489E135A7CE4554F9BBEA85E68DB53CAB255FEC71496F19FA6A0B42F8B3DEE6673C0F318E4497096AD7DC5F52C33
310
EEB55BFE0D504B010214000A0000080000CC70623B3DEE336E79000000790000001B00000000000000000000000000000000006175746F6465736B2D64657369676E2D7061636B6167652E786D6C504B01021400140006080800CC70623BD486FD9CA0000000F40000001300000000000000000000000000B20000005B436F
310
6E74656E745F54797065735D2E786D6C504B01021400140006080800CC70623BD9DDAED0EC0000007C010000080000000000000000000000000083010000636F72652E786D6C504B01021400140006080800CC70623B55019EA25F0000007C000000070000000000000000000000000095020000636E782E786D6C504B0102
310
1400140006080800CC70623BA24EB22D72010000D40300000C00000000000000000000000000190300006662782F636F72652E786D6C504B01021400140006080800CC70623B408A7D3B7C0000009D0000000B00000000000000000000000000B50400006662782F636E782E786D6C504B01021400140006080800CC70623B
310
449FB9BD290100001202000031000000000000000000000000005A0500006662782F36394639363044362D344446342D343946362D394244322D3234314243333846323333332F636F72652E786D6C504B01021400140006080800CC70623BAD7543B64E010000330300003000000000000000000000000000D20600006662
310
782F36394639363044362D344446342D343946362D394244322D3234314243333846323333332F636E782E786D6C504B01021400140006080800CC70623B8D05915C650500003B10000034000000000000000000000000006E0800006662782F36394639363044362D344446342D343946362D394244322D32343142433338
310
46323333332F6F626A656374732E786D6C504B01021400140006080000CC70623B0000000000000000000000003500000000000000000000000000250E00006662782F36394639363044362D344446342D343946362D394244322D3234314243333846323333332F76657274696365732E62696E504B010214001400060808
310
00CC70623BF270F13306000000040000003600000000000000000000000000780E00006662782F36394639363044362D344446342D343946362D394244322D3234314243333846323333332F747269616E676C65732E62696E504B01021400140006080000CC70623B00000000000000000000000037000000000000000000
310
00000000D20E00006662782F36394639363044362D344446342D343946362D394244322D3234314243333846323333332F617474726962757465732E62696E504B01021400140006080800CC70623B08DA0BD190000000410100003600000000000000000000000000270F00006662782F36394639363044362D344446342D
310
343946362D394244322D3234314243333846323333332F6469726563746F72792E786D6C504B01021400140006080800CC70623BCA768048FE000000A00100003B000000000000000000000000000B1000006662782F36394639363044362D344446342D343946362D394244322D3234314243333846323333332F7265736F
310
75726365732F636F72652E786D6C504B0506000000000E000E0080040000621100000000
  0
XRECORD
  5
176
102
{ACAD_REACTORS
330
173
102
}
330
173
100
AcDbXrecord
280
     1
270
     1
271
     1
  0
XRECORD
  5
177
102
{ACAD_REACTORS
330
173
102
}
330
173
100
AcDbXrecord
280
     1
270
     1
271
     1
  0
XRECORD
  5
60F
102
{ACAD_REACTORS
330
234
102
}
330
234
100
AcDbXrecord
280
     1
102
DISPLAYNAME
  1
Metric50
102
FLAGS
 90
        0
  0
CELLSTYLEMAP
  5
5D5
102
{ACAD_REACTORS
330
162
102
}
330
162
100
AcDbCellStyleMap
 90
        3
300
CELLSTYLE
  1
TABLEFORMAT_BEGIN
 90
        5
170
     1
 91
        0
 92
    32768
 62
   257
 93
        1
300
CONTENTFORMAT
  1
CONTENTFORMAT_BEGIN
 90
        0
 91
        0
 92
      512
 93
        0
300

 40
0.0
140
1.0
 94
        5
 62
     0
340
11
144
6.0
309
CONTENTFORMAT_END
171
     1
301
MARGIN
  1
CELLMARGIN_BEGIN
 40
1.5
 40
1.5
 40
1.5
 40
1.5
 40
4.5
 40
4.5
309
CELLMARGIN_END
 94
        6
 95
        1
302
GRIDFORMAT
  1
GRIDFORMAT_BEGIN
 90
        0
 91
        1
 62
     0
 92
       -2
340
14
 93
        0
 40
1.125
309
GRIDFORMAT_END
 95
        2
302
GRIDFORMAT
  1
GRIDFORMAT_BEGIN
 90
        0
 91
        1
 62
     0
 92
       -2
340
14
 93
        0
 40
1.125
309
GRIDFORMAT_END
 95
        4
302
GRIDFORMAT
  1
GRIDFORMAT_BEGIN
 90
        0
 91
        1
 62
     0
 92
       -2
340
14
 93
        0
 40
1.125
309
GRIDFORMAT_END
 95
        8
302
GRIDFORMAT
  1
GRIDFORMAT_BEGIN
 90
        0
 91
        1
 62
     0
 92
       -2
340
14
 93
        0
 40
1.125
309
GRIDFORMAT_END
 95
       16
302
GRIDFORMAT
  1
GRIDFORMAT_BEGIN
 90
        0
 91
        1
 62
     0
 92
       -2
340
14
 93
        0
 40
1.125
309
GRIDFORMAT_END
 95
       32
302
GRIDFORMAT
  1
GRIDFORMAT_BEGIN
 90
        0
 91
        1
 62
     0
 92
       -2
340
14
 93
        0
 40
1.125
309
GRIDFORMAT_END
309
TABLEFORMAT_END
  1
CELLSTYLE_BEGIN
 90
        1
 91
        1
300
_TITLE
309
CELLSTYLE_END
300
CELLSTYLE
  1
TABLEFORMAT_BEGIN
 90
        5
170
     1
 91
        0
 92
        0
 62
   257
 93
        1
300
CONTENTFORMAT
  1
CONTENTFORMAT_BEGIN
 90
        0
 91
        0
 92
      512
 93
        0
300

 40
0.0
140
1.0
 94
        5
 62
     0
340
11
144
4.5
309
CONTENTFORMAT_END
171
     1
301
MARGIN
  1
CELLMARGIN_BEGIN
 40
1.5
 40
1.5
 40
1.5
 40
1.5
 40
4.5
 40
4.5
309
CELLMARGIN_END
 94
        6
 95
        1
302
GRIDFORMAT
  1
GRIDFORMAT_BEGIN
 90
        0
 91
        1
 62
     0
 92
       -2
340
14
 93
        0
 40
1.125
309
GRIDFORMAT_END
 95
        2
302
GRIDFORMAT
  1
GRIDFORMAT_BEGIN
 90
        0
 91
        1
 62
     0
 92
       -2
340
14
 93
        0
 40
1.125
309
GRIDFORMAT_END
 95
        4
302
GRIDFORMAT
  1
GRIDFORMAT_BEGIN
 90
        0
 91
        1
 62
     0
 92
       -2
340
14
 93
        0
 40
1.125
309
GRIDFORMAT_END
 95
        8
302
GRIDFORMAT
  1
GRIDFORMAT_BEGIN
 90
        0
 91
        1
 62
     0
 92
       -2
340
14
 93
        0
 40
1.125
309
GRIDFORMAT_END
 95
       16
302
GRIDFORMAT
  1
GRIDFORMAT_BEGIN
 90
        0
 91
        1
 62
     0
 92
       -2
340
14
 93
        0
 40
1.125
309
GRIDFORMAT_END
 95
       32
302
GRIDFORMAT
  1
GRIDFORMAT_BEGIN
 90
        0
 91
        1
 62
     0
 92
       -2
340
14
 93
        0
 40
1.125
309
GRIDFORMAT_END
309
TABLEFORMAT_END
  1
CELLSTYLE_BEGIN
 90
        2
 91
        1
300
_HEADER
309
CELLSTYLE_END
300
CELLSTYLE
  1
TABLEFORMAT_BEGIN
 90
        5
170
     1
 91
        0
 92
        0
 62
   257
 93
        1
300
CONTENTFORMAT
  1
CONTENTFORMAT_BEGIN
 90
        0
 91
        0
 92
      512
 93
        0
300

 40
0.0
140
1.0
 94
        2
 62
     0
340
11
144
4.5
309
CONTENTFORMAT_END
171
     1
301
MARGIN
  1
CELLMARGIN_BEGIN
 40
1.5
 40
1.5
 40
1.5
 40
1.5
 40
4.5
 40
4.5
309
CELLMARGIN_END
 94
        6
 95
        1
302
GRIDFORMAT
  1
GRIDFORMAT_BEGIN
 90
        0
 91
        1
 62
     0
 92
       -2
340
14
 93
        0
 40
1.125
309
GRIDFORMAT_END
 95
        2
302
GRIDFORMAT
  1
GRIDFORMAT_BEGIN
 90
        0
 91
        1
 62
     0
 92
       -2
340
14
 93
        0
 40
1.125
309
GRIDFORMAT_END
 95
        4
302
GRIDFORMAT
  1
GRIDFORMAT_BEGIN
 90
        0
 91
        1
 62
     0
 92
       -2
340
14
 93
        0
 40
1.125
309
GRIDFORMAT_END
 95
        8
302
GRIDFORMAT
  1
GRIDFORMAT_BEGIN
 90
        0
 91
        1
 62
     0
 92
       -2
340
14
 93
        0
 40
1.125
309
GRIDFORMAT_END
 95
       16
302
GRIDFORMAT
  1
GRIDFORMAT_BEGIN
 90
        0
 91
        1
 62
     0
 92
       -2
340
14
 93
        0
 40
1.125
309
GRIDFORMAT_END
 95
       32
302
GRIDFORMAT
  1
GRIDFORMAT_BEGIN
 90
        0
 91
        1
 62
     0
 92
       -2
340
14
 93
        0
 40
1.125
309
GRIDFORMAT_END
309
TABLEFORMAT_END
  1
CELLSTYLE_BEGIN
 90
        3
 91
        2
300
_DATA
309
CELLSTYLE_END
  0
XRECORD
  5
5EA
102
{ACAD_REACTORS
330
5E9
102
}
330
5E9
100
AcDbXrecord
280
     1
102
RTVSPost2010Prop28
280
     1
102
RTVSPost2010PropOp28
 70
     1
102
RTVSPost2010Prop29
280
     1
102
RTVSPost2010PropOp29
 70
     1
102
RTVSPost2010Prop30
280
     0
102
RTVSPost2010PropOp30
 70
     1
102
RTVSPost2010Prop31
280
     0
102
RTVSPost2010PropOp31
 70
     1
102
RTVSPost2010Prop32
280
     0
102
RTVSPost2010PropOp32
 70
     1
102
RTVSPost2010Prop33
280
     0
102
RTVSPost2010PropOp33
 70
     1
102
RTVSPost2010Prop34
280
     0
102
RTVSPost2010PropOp34
 70
     1
102
RTVSPost2010Prop35
280
     0
102
RTVSPost2010PropOp35
 70
     1
102
RTVSPost2010Prop36
280
     0
102
RTVSPost2010PropOp36
 70
     1
102
RTVSPost2010Prop37
 90
       50
102
RTVSPost2010PropOp37
 70
     1
102
RTVSPost2010Prop38
140
0.0
102
RTVSPost2010PropOp38
 70
     1
102
RTVSPost2010Prop39
140
1.0
102
RTVSPost2010PropOp39
 70
     1
102
RTVSPost2010Prop40
 90
        0
102
RTVSPost2010PropOp40
 70
     1
102
RTVSPost2010Prop41ColorIndex
 90
       18
102
RTVSPost2010Prop41ColorRGB
 90
        0
102
RTVSPost2010PropOp41
 70
     1
102
RTVSPost2010Prop42
 90
       50
102
RTVSPost2010PropOp42
 70
     1
102
RTVSPost2010Prop43
 90
        3
102
RTVSPost2010PropOp43
 70
     1
102
RTVSPost2010Prop44ColorIndex
 90
        5
102
RTVSPost2010Prop44ColorRGB
 90
      255
102
RTVSPost2010PropOp44
 70
     1
102
RTVSPost2010Prop45
280
     0
102
RTVSPost2010PropOp45
 70
     1
102
RTVSPost2010Prop46
 90
       50
102
RTVSPost2010PropOp46
 70
     1
102
RTVSPost2010Prop47
 90
       50
102
RTVSPost2010PropOp47
 70
     1
102
RTVSPost2010Prop48
 90
       50
102
RTVSPost2010PropOp48
 70
     1
102
RTVSPost2010Prop49
280
     0
102
RTVSPost2010PropOp49
 70
     1
102
RTVSPost2010Prop50
 90
       50
102
RTVSPost2010PropOp50
 70
     1
102
RTVSPost2010Prop51ColorIndex
 90
      256
102
RTVSPost2010Prop51ColorRGB
 90
-16777216
102
RTVSPost2010PropOp51
 70
     0
102
RTVSPost2010Prop52
140
1.0
102
RTVSPost2010PropOp52
 70
     0
102
RTVSPost2010Prop53
 90
        2
102
RTVSPost2010PropOp53
 70
     1
102
RTVSPost2010Prop54
  1
strokes_ogs.tif
102
RTVSPost2010PropOp54
 70
     1
102
RTVSPost2010Prop55
280
     0
102
RTVSPost2010PropOp55
 70
     1
102
RTVSPost2010Prop56
140
1.0
102
RTVSPost2010PropOp56
 70
     1
102
RTVSPost2010Prop57
140
1.0
102
RTVSPost2010PropOp57
 70
     1
102
RTVSPropertyOp0
 70
     1
102
RTVSPropertyOp1
 70
     1
102
RTVSPropertyOp2
 70
     1
102
RTVSPropertyOp3
 70
     1
102
RTVSPropertyOp4
 70
     1
102
RTVSPropertyOp5
 70
     1
102
RTVSPropertyOp6
 70
     1
102
RTVSPropertyOp7
 70
     1
102
RTVSPropertyOp8
 70
     1
102
RTVSPropertyOp9
 70
     1
102
RTVSPropertyOp10
 70
     1
102
RTVSPropertyOp11
 70
     1
102
RTVSPropertyOp12
 70
     1
102
RTVSPropertyOp13
 70
     1
102
RTVSPropertyOp14
 70
     1
102
RTVSPropertyOp15
 70
     1
102
RTVSPropertyOp16
 70
     1
102
RTVSPropertyOp17
 70
     1
102
RTVSPropertyOp18
 70
     1
102
RTVSPropertyOp19
 70
     1
102
RTVSPropertyOp20
 70
     1
102
RTVSPropertyOp21
 70
     1
102
RTVSPropertyOp22
 70
     1
102
RTVSPropertyOp23
 70
     1
102
RTVSPropertyOp24
 70
     1
102
RTVSPropertyOp25
 70
     1
102
RTVSPropertyOp26
 70
     1
102
RTVSPropertyOp27
 70
     1
102
RTVSPropertyOp28
 70
     1
102
RTVSPropertyOp29
 70
     1
102
RTVSPropertyOp30
 70
     1
102
RTVSPropertyOp31
 70
     1
102
RTVSPropertyOp32
 70
     1
102
RTVSPropertyOp33
 70
     1
102
RTVSPropertyOp34
 70
     1
102
RTVSPropertyOp35
 70
     1
102
RTVSPropertyOp36
 70
     1
102
RTVSPropertyOp37
 70
     1
102
RTVSPropertyOp38
 70
     1
102
RTVSPropertyOp39
 70
     1
102
RTVSPropertyOp40
 70
     1
102
RTVSPropertyOp41
 70
     1
102
RTVSPropertyOp42
 70
     1
102
RTVSPropertyOp43
 70
     1
102
RTVSPropertyOp44
 70
     1
102
RTVSPropertyOp45
 70
     1
102
RTVSPropertyOp46
 70
     1
102
RTVSPropertyOp47
 70
     1
102
RTVSPropertyOp48
 70
     1
102
RTVSPropertyOp49
 70
     1
102
RTVSPropertyOp50
 70
     1
102
RTVSPropertyOp51
 70
     0
102
RTVSPropertyOp52
 70
     0
102
RTVSPropertyOp53
 70
     1
102
RTVSPropertyOp54
 70
     1
102
RTVSPropertyOp55
 70
     1
102
RTVSPropertyOp56
 70
     1
102
RTVSPropertyOp57
 70
     1
102
RTVSPropertyOp58
 70
     1
102
RTVSPropertyOp59
 70
     1
102
RTVSPropertyOp60
 70
     1
102
RTVSPropertyOp61
 70
     1
102
RTVSPropertyOp62
 70
     1
  0
XRECORD
  5
5E8
102
{ACAD_REACTORS
330
5E7
102
}
330
5E7
100
AcDbXrecord
280
     1
102
RTVSPost2010Prop28
280
     0
102
RTVSPost2010PropOp28
 70
     1
102
RTVSPost2010Prop29
280
     1
102
RTVSPost2010PropOp29
 70
     1
102
RTVSPost2010Prop30
280
     1
102
RTVSPost2010PropOp30
 70
     1
102
RTVSPost2010Prop31
280
     0
102
RTVSPost2010PropOp31
 70
     1
102
RTVSPost2010Prop32
280
     0
102
RTVSPost2010PropOp32
 70
     1
102
RTVSPost2010Prop33
280
     0
102
RTVSPost2010PropOp33
 70
     1
102
RTVSPost2010Prop34
280
     0
102
RTVSPost2010PropOp34
 70
     1
102
RTVSPost2010Prop35
280
     0
102
RTVSPost2010PropOp35
 70
     1
102
RTVSPost2010Prop36
280
     0
102
RTVSPost2010PropOp36
 70
     1
102
RTVSPost2010Prop37
 90
       50
102
RTVSPost2010PropOp37
 70
     1
102
RTVSPost2010Prop38
140
0.0
102
RTVSPost2010PropOp38
 70
     1
102
RTVSPost2010Prop39
140
1.0
102
RTVSPost2010PropOp39
 70
     1
102
RTVSPost2010Prop40
 90
        0
102
RTVSPost2010PropOp40
 70
     1
102
RTVSPost2010Prop41ColorIndex
 90
       18
102
RTVSPost2010Prop41ColorRGB
 90
        0
102
RTVSPost2010PropOp41
 70
     1
102
RTVSPost2010Prop42
 90
       50
102
RTVSPost2010PropOp42
 70
     1
102
RTVSPost2010Prop43
 90
        3
102
RTVSPost2010PropOp43
 70
     1
102
RTVSPost2010Prop44ColorIndex
 90
        5
102
RTVSPost2010Prop44ColorRGB
 90
      255
102
RTVSPost2010PropOp44
 70
     1
102
RTVSPost2010Prop45
280
     0
102
RTVSPost2010PropOp45
 70
     1
102
RTVSPost2010Prop46
 90
       50
102
RTVSPost2010PropOp46
 70
     1
102
RTVSPost2010Prop47
 90
       50
102
RTVSPost2010PropOp47
 70
     1
102
RTVSPost2010Prop48
 90
       50
102
RTVSPost2010PropOp48
 70
     1
102
RTVSPost2010Prop49
280
     0
102
RTVSPost2010PropOp49
 70
     1
102
RTVSPost2010Prop50
 90
       50
102
RTVSPost2010PropOp50
 70
     1
102
RTVSPost2010Prop51ColorIndex
 90
      256
102
RTVSPost2010Prop51ColorRGB
 90
-16777216
102
RTVSPost2010PropOp51
 70
     0
102
RTVSPost2010Prop52
140
1.0
102
RTVSPost2010PropOp52
 70
     0
102
RTVSPost2010Prop53
 90
        2
102
RTVSPost2010PropOp53
 70
     1
102
RTVSPost2010Prop54
  1
strokes_ogs.tif
102
RTVSPost2010PropOp54
 70
     1
102
RTVSPost2010Prop55
280
     0
102
RTVSPost2010PropOp55
 70
     1
102
RTVSPost2010Prop56
140
1.0
102
RTVSPost2010PropOp56
 70
     1
102
RTVSPost2010Prop57
140
1.0
102
RTVSPost2010PropOp57
 70
     1
102
RTVSPropertyOp0
 70
     1
102
RTVSPropertyOp1
 70
     1
102
RTVSPropertyOp2
 70
     1
102
RTVSPropertyOp3
 70
     1
102
RTVSPropertyOp4
 70
     1
102
RTVSPropertyOp5
 70
     1
102
RTVSPropertyOp6
 70
     1
102
RTVSPropertyOp7
 70
     1
102
RTVSPropertyOp8
 70
     1
102
RTVSPropertyOp9
 70
     1
102
RTVSPropertyOp10
 70
     1
102
RTVSPropertyOp11
 70
     1
102
RTVSPropertyOp12
 70
     1
102
RTVSPropertyOp13
 70
     1
102
RTVSPropertyOp14
 70
     1
102
RTVSPropertyOp15
 70
     1
102
RTVSPropertyOp16
 70
     1
102
RTVSPropertyOp17
 70
     1
102
RTVSPropertyOp18
 70
     1
102
RTVSPropertyOp19
 70
     1
102
RTVSPropertyOp20
 70
     1
102
RTVSPropertyOp21
 70
     1
102
RTVSPropertyOp22
 70
     1
102
RTVSPropertyOp23
 70
     1
102
RTVSPropertyOp24
 70
     1
102
RTVSPropertyOp25
 70
     1
102
RTVSPropertyOp26
 70
     1
102
RTVSPropertyOp27
 70
     1
102
RTVSPropertyOp28
 70
     1
102
RTVSPropertyOp29
 70
     1
102
RTVSPropertyOp30
 70
     1
102
RTVSPropertyOp31
 70
     1
102
RTVSPropertyOp32
 70
     1
102
RTVSPropertyOp33
 70
     1
102
RTVSPropertyOp34
 70
     1
102
RTVSPropertyOp35
 70
     1
102
RTVSPropertyOp36
 70
     1
102
RTVSPropertyOp37
 70
     1
102
RTVSPropertyOp38
 70
     1
102
RTVSPropertyOp39
 70
     1
102
RTVSPropertyOp40
 70
     1
102
RTVSPropertyOp41
 70
     1
102
RTVSPropertyOp42
 70
     1
102
RTVSPropertyOp43
 70
     1
102
RTVSPropertyOp44
 70
     1
102
RTVSPropertyOp45
 70
     1
102
RTVSPropertyOp46
 70
     1
102
RTVSPropertyOp47
 70
     1
102
RTVSPropertyOp48
 70
     1
102
RTVSPropertyOp49
 70
     1
102
RTVSPropertyOp50
 70
     1
102
RTVSPropertyOp51
 70
     0
102
RTVSPropertyOp52
 70
     0
102
RTVSPropertyOp53
 70
     1
102
RTVSPropertyOp54
 70
     1
102
RTVSPropertyOp55
 70
     1
102
RTVSPropertyOp56
 70
     1
102
RTVSPropertyOp57
 70
     1
102
RTVSPropertyOp58
 70
     1
102
RTVSPropertyOp59
 70
     1
102
RTVSPropertyOp60
 70
     1
102
RTVSPropertyOp61
 70
     1
102
RTVSPropertyOp62
 70
     1
  0
XRECORD
  5
5F6
102
{ACAD_REACTORS
330
5F5
102
}
330
5F5
100
AcDbXrecord
280
     1
102
RTVSPost2010Prop28
280
     0
102
RTVSPost2010PropOp28
 70
     1
102
RTVSPost2010Prop29
280
     1
102
RTVSPost2010PropOp29
 70
     1
102
RTVSPost2010Prop30
280
     1
102
RTVSPost2010PropOp30
 70
     1
102
RTVSPost2010Prop31
280
     0
102
RTVSPost2010PropOp31
 70
     1
102
RTVSPost2010Prop32
280
     0
102
RTVSPost2010PropOp32
 70
     1
102
RTVSPost2010Prop33
280
     0
102
RTVSPost2010PropOp33
 70
     1
102
RTVSPost2010Prop34
280
     0
102
RTVSPost2010PropOp34
 70
     1
102
RTVSPost2010Prop35
280
     0
102
RTVSPost2010PropOp35
 70
     1
102
RTVSPost2010Prop36
280
     0
102
RTVSPost2010PropOp36
 70
     1
102
RTVSPost2010Prop37
 90
       50
102
RTVSPost2010PropOp37
 70
     1
102
RTVSPost2010Prop38
140
0.0
102
RTVSPost2010PropOp38
 70
     1
102
RTVSPost2010Prop39
140
1.0
102
RTVSPost2010PropOp39
 70
     1
102
RTVSPost2010Prop40
 90
        0
102
RTVSPost2010PropOp40
 70
     1
102
RTVSPost2010Prop41ColorIndex
 90
       18
102
RTVSPost2010Prop41ColorRGB
 90
        0
102
RTVSPost2010PropOp41
 70
     1
102
RTVSPost2010Prop42
 90
       50
102
RTVSPost2010PropOp42
 70
     1
102
RTVSPost2010Prop43
 90
        3
102
RTVSPost2010PropOp43
 70
     1
102
RTVSPost2010Prop44ColorIndex
 90
        5
102
RTVSPost2010Prop44ColorRGB
 90
      255
102
RTVSPost2010PropOp44
 70
     1
102
RTVSPost2010Prop45
280
     0
102
RTVSPost2010PropOp45
 70
     1
102
RTVSPost2010Prop46
 90
       50
102
RTVSPost2010PropOp46
 70
     1
102
RTVSPost2010Prop47
 90
       50
102
RTVSPost2010PropOp47
 70
     1
102
RTVSPost2010Prop48
 90
       50
102
RTVSPost2010PropOp48
 70
     1
102
RTVSPost2010Prop49
280
     0
102
RTVSPost2010PropOp49
 70
     1
102
RTVSPost2010Prop50
 90
       50
102
RTVSPost2010PropOp50
 70
     1
102
RTVSPost2010Prop51ColorIndex
 90
      256
102
RTVSPost2010Prop51ColorRGB
 90
-16777216
102
RTVSPost2010PropOp51
 70
     0
102
RTVSPost2010Prop52
140
1.0
102
RTVSPost2010PropOp52
 70
     0
102
RTVSPost2010Prop53
 90
        2
102
RTVSPost2010PropOp53
 70
     1
102
RTVSPost2010Prop54
  1
strokes_ogs.tif
102
RTVSPost2010PropOp54
 70
     1
102
RTVSPost2010Prop55
280
     0
102
RTVSPost2010PropOp55
 70
     1
102
RTVSPost2010Prop56
140
1.0
102
RTVSPost2010PropOp56
 70
     1
102
RTVSPost2010Prop57
140
1.0
102
RTVSPost2010PropOp57
 70
     1
102
RTVSPropertyOp0
 70
     1
102
RTVSPropertyOp1
 70
     1
102
RTVSPropertyOp2
 70
     1
102
RTVSPropertyOp3
 70
     1
102
RTVSPropertyOp4
 70
     1
102
RTVSPropertyOp5
 70
     1
102
RTVSPropertyOp6
 70
     1
102
RTVSPropertyOp7
 70
     1
102
RTVSPropertyOp8
 70
     1
102
RTVSPropertyOp9
 70
     1
102
RTVSPropertyOp10
 70
     1
102
RTVSPropertyOp11
 70
     1
102
RTVSPropertyOp12
 70
     1
102
RTVSPropertyOp13
 70
     1
102
RTVSPropertyOp14
 70
     1
102
RTVSPropertyOp15
 70
     1
102
RTVSPropertyOp16
 70
     1
102
RTVSPropertyOp17
 70
     1
102
RTVSPropertyOp18
 70
     1
102
RTVSPropertyOp19
 70
     1
102
RTVSPropertyOp20
 70
     1
102
RTVSPropertyOp21
 70
     1
102
RTVSPropertyOp22
 70
     1
102
RTVSPropertyOp23
 70
     1
102
RTVSPropertyOp24
 70
     1
102
RTVSPropertyOp25
 70
     1
102
RTVSPropertyOp26
 70
     1
102
RTVSPropertyOp27
 70
     1
102
RTVSPropertyOp28
 70
     1
102
RTVSPropertyOp29
 70
     1
102
RTVSPropertyOp30
 70
     1
102
RTVSPropertyOp31
 70
     1
102
RTVSPropertyOp32
 70
     1
102
RTVSPropertyOp33
 70
     1
102
RTVSPropertyOp34
 70
     1
102
RTVSPropertyOp35
 70
     1
102
RTVSPropertyOp36
 70
     1
102
RTVSPropertyOp37
 70
     1
102
RTVSPropertyOp38
 70
     1
102
RTVSPropertyOp39
 70
     1
102
RTVSPropertyOp40
 70
     1
102
RTVSPropertyOp41
 70
     1
102
RTVSPropertyOp42
 70
     1
102
RTVSPropertyOp43
 70
     1
102
RTVSPropertyOp44
 70
     1
102
RTVSPropertyOp45
 70
     1
102
RTVSPropertyOp46
 70
     1
102
RTVSPropertyOp47
 70
     1
102
RTVSPropertyOp48
 70
     1
102
RTVSPropertyOp49
 70
     1
102
RTVSPropertyOp50
 70
     1
102
RTVSPropertyOp51
 70
     0
102
RTVSPropertyOp52
 70
     0
102
RTVSPropertyOp53
 70
     1
102
RTVSPropertyOp54
 70
     1
102
RTVSPropertyOp55
 70
     1
102
RTVSPropertyOp56
 70
     1
102
RTVSPropertyOp57
 70
     1
102
RTVSPropertyOp58
 70
     1
102
RTVSPropertyOp59
 70
     1
102
RTVSPropertyOp60
 70
     1
102
RTVSPropertyOp61
 70
     1
102
RTVSPropertyOp62
 70
     1
  0
XRECORD
  5
5FE
102
{ACAD_REACTORS
330
5FD
102
}
330
5FD
100
AcDbXrecord
280
     1
102
RTVSPost2010Prop28
280
     0
102
RTVSPost2010PropOp28
 70
     1
102
RTVSPost2010Prop29
280
     1
102
RTVSPost2010PropOp29
 70
     1
102
RTVSPost2010Prop30
280
     1
102
RTVSPost2010PropOp30
 70
     1
102
RTVSPost2010Prop31
280
     0
102
RTVSPost2010PropOp31
 70
     1
102
RTVSPost2010Prop32
280
     0
102
RTVSPost2010PropOp32
 70
     1
102
RTVSPost2010Prop33
280
     0
102
RTVSPost2010PropOp33
 70
     1
102
RTVSPost2010Prop34
280
     0
102
RTVSPost2010PropOp34
 70
     1
102
RTVSPost2010Prop35
280
     0
102
RTVSPost2010PropOp35
 70
     1
102
RTVSPost2010Prop36
280
     0
102
RTVSPost2010PropOp36
 70
     1
102
RTVSPost2010Prop37
 90
       50
102
RTVSPost2010PropOp37
 70
     1
102
RTVSPost2010Prop38
140
0.0
102
RTVSPost2010PropOp38
 70
     1
102
RTVSPost2010Prop39
140
1.0
102
RTVSPost2010PropOp39
 70
     1
102
RTVSPost2010Prop40
 90
        0
102
RTVSPost2010PropOp40
 70
     1
102
RTVSPost2010Prop41ColorIndex
 90
       18
102
RTVSPost2010Prop41ColorRGB
 90
        0
102
RTVSPost2010PropOp41
 70
     1
102
RTVSPost2010Prop42
 90
       50
102
RTVSPost2010PropOp42
 70
     1
102
RTVSPost2010Prop43
 90
        3
102
RTVSPost2010PropOp43
 70
     1
102
RTVSPost2010Prop44ColorIndex
 90
        5
102
RTVSPost2010Prop44ColorRGB
 90
      255
102
RTVSPost2010PropOp44
 70
     1
102
RTVSPost2010Prop45
280
     0
102
RTVSPost2010PropOp45
 70
     1
102
RTVSPost2010Prop46
 90
       50
102
RTVSPost2010PropOp46
 70
     1
102
RTVSPost2010Prop47
 90
       50
102
RTVSPost2010PropOp47
 70
     1
102
RTVSPost2010Prop48
 90
       50
102
RTVSPost2010PropOp48
 70
     1
102
RTVSPost2010Prop49
280
     0
102
RTVSPost2010PropOp49
 70
     1
102
RTVSPost2010Prop50
 90
       50
102
RTVSPost2010PropOp50
 70
     1
102
RTVSPost2010Prop51ColorIndex
 90
      256
102
RTVSPost2010Prop51ColorRGB
 90
-16777216
102
RTVSPost2010PropOp51
 70
     0
102
RTVSPost2010Prop52
140
1.0
102
RTVSPost2010PropOp52
 70
     0
102
RTVSPost2010Prop53
 90
        2
102
RTVSPost2010PropOp53
 70
     1
102
RTVSPost2010Prop54
  1
strokes_ogs.tif
102
RTVSPost2010PropOp54
 70
     1
102
RTVSPost2010Prop55
280
     0
102
RTVSPost2010PropOp55
 70
     1
102
RTVSPost2010Prop56
140
1.0
102
RTVSPost2010PropOp56
 70
     1
102
RTVSPost2010Prop57
140
1.0
102
RTVSPost2010PropOp57
 70
     1
102
RTVSPropertyOp0
 70
     1
102
RTVSPropertyOp1
 70
     1
102
RTVSPropertyOp2
 70
     1
102
RTVSPropertyOp3
 70
     1
102
RTVSPropertyOp4
 70
     1
102
RTVSPropertyOp5
 70
     1
102
RTVSPropertyOp6
 70
     1
102
RTVSPropertyOp7
 70
     1
102
RTVSPropertyOp8
 70
     1
102
RTVSPropertyOp9
 70
     1
102
RTVSPropertyOp10
 70
     1
102
RTVSPropertyOp11
 70
     1
102
RTVSPropertyOp12
 70
     1
102
RTVSPropertyOp13
 70
     1
102
RTVSPropertyOp14
 70
     1
102
RTVSPropertyOp15
 70
     1
102
RTVSPropertyOp16
 70
     1
102
RTVSPropertyOp17
 70
     1
102
RTVSPropertyOp18
 70
     1
102
RTVSPropertyOp19
 70
     1
102
RTVSPropertyOp20
 70
     1
102
RTVSPropertyOp21
 70
     1
102
RTVSPropertyOp22
 70
     1
102
RTVSPropertyOp23
 70
     1
102
RTVSPropertyOp24
 70
     1
102
RTVSPropertyOp25
 70
     1
102
RTVSPropertyOp26
 70
     1
102
RTVSPropertyOp27
 70
     1
102
RTVSPropertyOp28
 70
     1
102
RTVSPropertyOp29
 70
     1
102
RTVSPropertyOp30
 70
     1
102
RTVSPropertyOp31
 70
     1
102
RTVSPropertyOp32
 70
     1
102
RTVSPropertyOp33
 70
     1
102
RTVSPropertyOp34
 70
     1
102
RTVSPropertyOp35
 70
     1
102
RTVSPropertyOp36
 70
     1
102
RTVSPropertyOp37
 70
     1
102
RTVSPropertyOp38
 70
     1
102
RTVSPropertyOp39
 70
     1
102
RTVSPropertyOp40
 70
     1
102
RTVSPropertyOp41
 70
     1
102
RTVSPropertyOp42
 70
     1
102
RTVSPropertyOp43
 70
     1
102
RTVSPropertyOp44
 70
     1
102
RTVSPropertyOp45
 70
     1
102
RTVSPropertyOp46
 70
     1
102
RTVSPropertyOp47
 70
     1
102
RTVSPropertyOp48
 70
     1
102
RTVSPropertyOp49
 70
     1
102
RTVSPropertyOp50
 70
     1
102
RTVSPropertyOp51
 70
     0
102
RTVSPropertyOp52
 70
     0
102
RTVSPropertyOp53
 70
     1
102
RTVSPropertyOp54
 70
     1
102
RTVSPropertyOp55
 70
     1
102
RTVSPropertyOp56
 70
     1
102
RTVSPropertyOp57
 70
     1
102
RTVSPropertyOp58
 70
     1
102
RTVSPropertyOp59
 70
     1
102
RTVSPropertyOp60
 70
     1
102
RTVSPropertyOp61
 70
     1
102
RTVSPropertyOp62
 70
     1
  0
XRECORD
  5
5F0
102
{ACAD_REACTORS
330
5EF
102
}
330
5EF
100
AcDbXrecord
280
     1
102
RTVSPost2010Prop28
280
     0
102
RTVSPost2010PropOp28
 70
     1
102
RTVSPost2010Prop29
280
     1
102
RTVSPost2010PropOp29
 70
     1
102
RTVSPost2010Prop30
280
     1
102
RTVSPost2010PropOp30
 70
     1
102
RTVSPost2010Prop31
280
     0
102
RTVSPost2010PropOp31
 70
     1
102
RTVSPost2010Prop32
280
     0
102
RTVSPost2010PropOp32
 70
     1
102
RTVSPost2010Prop33
280
     0
102
RTVSPost2010PropOp33
 70
     1
102
RTVSPost2010Prop34
280
     0
102
RTVSPost2010PropOp34
 70
     1
102
RTVSPost2010Prop35
280
     0
102
RTVSPost2010PropOp35
 70
     1
102
RTVSPost2010Prop36
280
     0
102
RTVSPost2010PropOp36
 70
     1
102
RTVSPost2010Prop37
 90
       50
102
RTVSPost2010PropOp37
 70
     1
102
RTVSPost2010Prop38
140
0.0
102
RTVSPost2010PropOp38
 70
     1
102
RTVSPost2010Prop39
140
1.0
102
RTVSPost2010PropOp39
 70
     1
102
RTVSPost2010Prop40
 90
        0
102
RTVSPost2010PropOp40
 70
     1
102
RTVSPost2010Prop41ColorIndex
 90
       18
102
RTVSPost2010Prop41ColorRGB
 90
        0
102
RTVSPost2010PropOp41
 70
     1
102
RTVSPost2010Prop42
 90
       50
102
RTVSPost2010PropOp42
 70
     1
102
RTVSPost2010Prop43
 90
        3
102
RTVSPost2010PropOp43
 70
     1
102
RTVSPost2010Prop44ColorIndex
 90
        5
102
RTVSPost2010Prop44ColorRGB
 90
      255
102
RTVSPost2010PropOp44
 70
     1
102
RTVSPost2010Prop45
280
     0
102
RTVSPost2010PropOp45
 70
     1
102
RTVSPost2010Prop46
 90
       50
102
RTVSPost2010PropOp46
 70
     1
102
RTVSPost2010Prop47
 90
       50
102
RTVSPost2010PropOp47
 70
     1
102
RTVSPost2010Prop48
 90
       50
102
RTVSPost2010PropOp48
 70
     1
102
RTVSPost2010Prop49
280
     0
102
RTVSPost2010PropOp49
 70
     1
102
RTVSPost2010Prop50
 90
       50
102
RTVSPost2010PropOp50
 70
     1
102
RTVSPost2010Prop51ColorIndex
 90
      256
102
RTVSPost2010Prop51ColorRGB
 90
-16777216
102
RTVSPost2010PropOp51
 70
     0
102
RTVSPost2010Prop52
140
1.0
102
RTVSPost2010PropOp52
 70
     0
102
RTVSPost2010Prop53
 90
        2
102
RTVSPost2010PropOp53
 70
     1
102
RTVSPost2010Prop54
  1
strokes_ogs.tif
102
RTVSPost2010PropOp54
 70
     1
102
RTVSPost2010Prop55
280
     0
102
RTVSPost2010PropOp55
 70
     1
102
RTVSPost2010Prop56
140
1.0
102
RTVSPost2010PropOp56
 70
     1
102
RTVSPost2010Prop57
140
1.0
102
RTVSPost2010PropOp57
 70
     1
102
RTVSPropertyOp0
 70
     1
102
RTVSPropertyOp1
 70
     1
102
RTVSPropertyOp2
 70
     1
102
RTVSPropertyOp3
 70
     1
102
RTVSPropertyOp4
 70
     1
102
RTVSPropertyOp5
 70
     1
102
RTVSPropertyOp6
 70
     1
102
RTVSPropertyOp7
 70
     1
102
RTVSPropertyOp8
 70
     1
102
RTVSPropertyOp9
 70
     1
102
RTVSPropertyOp10
 70
     1
102
RTVSPropertyOp11
 70
     1
102
RTVSPropertyOp12
 70
     1
102
RTVSPropertyOp13
 70
     1
102
RTVSPropertyOp14
 70
     1
102
RTVSPropertyOp15
 70
     1
102
RTVSPropertyOp16
 70
     1
102
RTVSPropertyOp17
 70
     1
102
RTVSPropertyOp18
 70
     1
102
RTVSPropertyOp19
 70
     1
102
RTVSPropertyOp20
 70
     1
102
RTVSPropertyOp21
 70
     1
102
RTVSPropertyOp22
 70
     1
102
RTVSPropertyOp23
 70
     1
102
RTVSPropertyOp24
 70
     1
102
RTVSPropertyOp25
 70
     1
102
RTVSPropertyOp26
 70
     1
102
RTVSPropertyOp27
 70
     1
102
RTVSPropertyOp28
 70
     1
102
RTVSPropertyOp29
 70
     1
102
RTVSPropertyOp30
 70
     1
102
RTVSPropertyOp31
 70
     1
102
RTVSPropertyOp32
 70
     1
102
RTVSPropertyOp33
 70
     1
102
RTVSPropertyOp34
 70
     1
102
RTVSPropertyOp35
 70
     1
102
RTVSPropertyOp36
 70
     1
102
RTVSPropertyOp37
 70
     1
102
RTVSPropertyOp38
 70
     1
102
RTVSPropertyOp39
 70
     1
102
RTVSPropertyOp40
 70
     1
102
RTVSPropertyOp41
 70
     1
102
RTVSPropertyOp42
 70
     1
102
RTVSPropertyOp43
 70
     1
102
RTVSPropertyOp44
 70
     1
102
RTVSPropertyOp45
 70
     1
102
RTVSPropertyOp46
 70
     1
102
RTVSPropertyOp47
 70
     1
102
RTVSPropertyOp48
 70
     1
102
RTVSPropertyOp49
 70
     1
102
RTVSPropertyOp50
 70
     1
102
RTVSPropertyOp51
 70
     0
102
RTVSPropertyOp52
 70
     0
102
RTVSPropertyOp53
 70
     1
102
RTVSPropertyOp54
 70
     1
102
RTVSPropertyOp55
 70
     1
102
RTVSPropertyOp56
 70
     1
102
RTVSPropertyOp57
 70
     1
102
RTVSPropertyOp58
 70
     1
102
RTVSPropertyOp59
 70
     1
102
RTVSPropertyOp60
 70
     1
102
RTVSPropertyOp61
 70
     1
102
RTVSPropertyOp62
 70
     1
  0
XRECORD
  5
5F4
102
{ACAD_REACTORS
330
5F3
102
}
330
5F3
100
AcDbXrecord
280
     1
102
RTVSPost2010Prop28
280
     0
102
RTVSPost2010PropOp28
 70
     1
102
RTVSPost2010Prop29
280
     1
102
RTVSPost2010PropOp29
 70
     1
102
RTVSPost2010Prop30
280
     1
102
RTVSPost2010PropOp30
 70
     1
102
RTVSPost2010Prop31
280
     0
102
RTVSPost2010PropOp31
 70
     1
102
RTVSPost2010Prop32
280
     0
102
RTVSPost2010PropOp32
 70
     1
102
RTVSPost2010Prop33
280
     0
102
RTVSPost2010PropOp33
 70
     1
102
RTVSPost2010Prop34
280
     0
102
RTVSPost2010PropOp34
 70
     1
102
RTVSPost2010Prop35
280
     0
102
RTVSPost2010PropOp35
 70
     1
102
RTVSPost2010Prop36
280
     0
102
RTVSPost2010PropOp36
 70
     1
102
RTVSPost2010Prop37
 90
       50
102
RTVSPost2010PropOp37
 70
     1
102
RTVSPost2010Prop38
140
0.0
102
RTVSPost2010PropOp38
 70
     1
102
RTVSPost2010Prop39
140
1.0
102
RTVSPost2010PropOp39
 70
     1
102
RTVSPost2010Prop40
 90
        0
102
RTVSPost2010PropOp40
 70
     1
102
RTVSPost2010Prop41ColorIndex
 90
       18
102
RTVSPost2010Prop41ColorRGB
 90
        0
102
RTVSPost2010PropOp41
 70
     1
102
RTVSPost2010Prop42
 90
       50
102
RTVSPost2010PropOp42
 70
     1
102
RTVSPost2010Prop43
 90
        3
102
RTVSPost2010PropOp43
 70
     1
102
RTVSPost2010Prop44ColorIndex
 90
        5
102
RTVSPost2010Prop44ColorRGB
 90
      255
102
RTVSPost2010PropOp44
 70
     1
102
RTVSPost2010Prop45
280
     0
102
RTVSPost2010PropOp45
 70
     1
102
RTVSPost2010Prop46
 90
       50
102
RTVSPost2010PropOp46
 70
     1
102
RTVSPost2010Prop47
 90
       50
102
RTVSPost2010PropOp47
 70
     1
102
RTVSPost2010Prop48
 90
       50
102
RTVSPost2010PropOp48
 70
     1
102
RTVSPost2010Prop49
280
     0
102
RTVSPost2010PropOp49
 70
     1
102
RTVSPost2010Prop50
 90
       50
102
RTVSPost2010PropOp50
 70
     1
102
RTVSPost2010Prop51ColorIndex
 90
      256
102
RTVSPost2010Prop51ColorRGB
 90
-16777216
102
RTVSPost2010PropOp51
 70
     0
102
RTVSPost2010Prop52
140
1.0
102
RTVSPost2010PropOp52
 70
     0
102
RTVSPost2010Prop53
 90
        2
102
RTVSPost2010PropOp53
 70
     1
102
RTVSPost2010Prop54
  1
strokes_ogs.tif
102
RTVSPost2010PropOp54
 70
     1
102
RTVSPost2010Prop55
280
     0
102
RTVSPost2010PropOp55
 70
     1
102
RTVSPost2010Prop56
140
1.0
102
RTVSPost2010PropOp56
 70
     1
102
RTVSPost2010Prop57
140
1.0
102
RTVSPost2010PropOp57
 70
     1
102
RTVSPropertyOp0
 70
     1
102
RTVSPropertyOp1
 70
     1
102
RTVSPropertyOp2
 70
     1
102
RTVSPropertyOp3
 70
     1
102
RTVSPropertyOp4
 70
     1
102
RTVSPropertyOp5
 70
     1
102
RTVSPropertyOp6
 70
     1
102
RTVSPropertyOp7
 70
     1
102
RTVSPropertyOp8
 70
     1
102
RTVSPropertyOp9
 70
     1
102
RTVSPropertyOp10
 70
     1
102
RTVSPropertyOp11
 70
     1
102
RTVSPropertyOp12
 70
     1
102
RTVSPropertyOp13
 70
     1
102
RTVSPropertyOp14
 70
     1
102
RTVSPropertyOp15
 70
     1
102
RTVSPropertyOp16
 70
     1
102
RTVSPropertyOp17
 70
     1
102
RTVSPropertyOp18
 70
     1
102
RTVSPropertyOp19
 70
     1
102
RTVSPropertyOp20
 70
     1
102
RTVSPropertyOp21
 70
     1
102
RTVSPropertyOp22
 70
     1
102
RTVSPropertyOp23
 70
     1
102
RTVSPropertyOp24
 70
     1
102
RTVSPropertyOp25
 70
     1
102
RTVSPropertyOp26
 70
     1
102
RTVSPropertyOp27
 70
     1
102
RTVSPropertyOp28
 70
     1
102
RTVSPropertyOp29
 70
     1
102
RTVSPropertyOp30
 70
     1
102
RTVSPropertyOp31
 70
     1
102
RTVSPropertyOp32
 70
     1
102
RTVSPropertyOp33
 70
     1
102
RTVSPropertyOp34
 70
     1
102
RTVSPropertyOp35
 70
     1
102
RTVSPropertyOp36
 70
     1
102
RTVSPropertyOp37
 70
     1
102
RTVSPropertyOp38
 70
     1
102
RTVSPropertyOp39
 70
     1
102
RTVSPropertyOp40
 70
     1
102
RTVSPropertyOp41
 70
     1
102
RTVSPropertyOp42
 70
     1
102
RTVSPropertyOp43
 70
     1
102
RTVSPropertyOp44
 70
     1
102
RTVSPropertyOp45
 70
     1
102
RTVSPropertyOp46
 70
     1
102
RTVSPropertyOp47
 70
     1
102
RTVSPropertyOp48
 70
     1
102
RTVSPropertyOp49
 70
     1
102
RTVSPropertyOp50
 70
     1
102
RTVSPropertyOp51
 70
     0
102
RTVSPropertyOp52
 70
     0
102
RTVSPropertyOp53
 70
     1
102
RTVSPropertyOp54
 70
     1
102
RTVSPropertyOp55
 70
     1
102
RTVSPropertyOp56
 70
     1
102
RTVSPropertyOp57
 70
     1
102
RTVSPropertyOp58
 70
     1
102
RTVSPropertyOp59
 70
     1
102
RTVSPropertyOp60
 70
     1
102
RTVSPropertyOp61
 70
     1
102
RTVSPropertyOp62
 70
     1
  0
XRECORD
  5
604
102
{ACAD_REACTORS
330
603
102
}
330
603
100
AcDbXrecord
280
     1
102
RTVSPost2010Prop28
280
     0
102
RTVSPost2010PropOp28
 70
     1
102
RTVSPost2010Prop29
280
     1
102
RTVSPost2010PropOp29
 70
     1
102
RTVSPost2010Prop30
280
     1
102
RTVSPost2010PropOp30
 70
     1
102
RTVSPost2010Prop31
280
     0
102
RTVSPost2010PropOp31
 70
     1
102
RTVSPost2010Prop32
280
     0
102
RTVSPost2010PropOp32
 70
     1
102
RTVSPost2010Prop33
280
     0
102
RTVSPost2010PropOp33
 70
     1
102
RTVSPost2010Prop34
280
     0
102
RTVSPost2010PropOp34
 70
     1
102
RTVSPost2010Prop35
280
     0
102
RTVSPost2010PropOp35
 70
     1
102
RTVSPost2010Prop36
280
     0
102
RTVSPost2010PropOp36
 70
     1
102
RTVSPost2010Prop37
 90
       50
102
RTVSPost2010PropOp37
 70
     1
102
RTVSPost2010Prop38
140
0.0
102
RTVSPost2010PropOp38
 70
     1
102
RTVSPost2010Prop39
140
1.0
102
RTVSPost2010PropOp39
 70
     1
102
RTVSPost2010Prop40
 90
        0
102
RTVSPost2010PropOp40
 70
     1
102
RTVSPost2010Prop41ColorIndex
 90
       18
102
RTVSPost2010Prop41ColorRGB
 90
        0
102
RTVSPost2010PropOp41
 70
     1
102
RTVSPost2010Prop42
 90
       50
102
RTVSPost2010PropOp42
 70
     1
102
RTVSPost2010Prop43
 90
        3
102
RTVSPost2010PropOp43
 70
     1
102
RTVSPost2010Prop44ColorIndex
 90
        5
102
RTVSPost2010Prop44ColorRGB
 90
      255
102
RTVSPost2010PropOp44
 70
     1
102
RTVSPost2010Prop45
280
     0
102
RTVSPost2010PropOp45
 70
     1
102
RTVSPost2010Prop46
 90
       50
102
RTVSPost2010PropOp46
 70
     1
102
RTVSPost2010Prop47
 90
       50
102
RTVSPost2010PropOp47
 70
     1
102
RTVSPost2010Prop48
 90
       50
102
RTVSPost2010PropOp48
 70
     1
102
RTVSPost2010Prop49
280
     0
102
RTVSPost2010PropOp49
 70
     1
102
RTVSPost2010Prop50
 90
       50
102
RTVSPost2010PropOp50
 70
     1
102
RTVSPost2010Prop51ColorIndex
 90
      256
102
RTVSPost2010Prop51ColorRGB
 90
-16777216
102
RTVSPost2010PropOp51
 70
     0
102
RTVSPost2010Prop52
140
1.0
102
RTVSPost2010PropOp52
 70
     0
102
RTVSPost2010Prop53
 90
        2
102
RTVSPost2010PropOp53
 70
     1
102
RTVSPost2010Prop54
  1
strokes_ogs.tif
102
RTVSPost2010PropOp54
 70
     1
102
RTVSPost2010Prop55
280
     0
102
RTVSPost2010PropOp55
 70
     1
102
RTVSPost2010Prop56
140
1.0
102
RTVSPost2010PropOp56
 70
     1
102
RTVSPost2010Prop57
140
1.0
102
RTVSPost2010PropOp57
 70
     1
102
RTVSPropertyOp0
 70
     0
102
RTVSPropertyOp1
 70
     0
102
RTVSPropertyOp2
 70
     0
102
RTVSPropertyOp3
 70
     0
102
RTVSPropertyOp4
 70
     0
102
RTVSPropertyOp5
 70
     0
102
RTVSPropertyOp6
 70
     0
102
RTVSPropertyOp7
 70
     0
102
RTVSPropertyOp8
 70
     0
102
RTVSPropertyOp9
 70
     0
102
RTVSPropertyOp10
 70
     0
102
RTVSPropertyOp11
 70
     0
102
RTVSPropertyOp12
 70
     0
102
RTVSPropertyOp13
 70
     0
102
RTVSPropertyOp14
 70
     2
102
RTVSPropertyOp15
 70
     0
102
RTVSPropertyOp16
 70
     0
102
RTVSPropertyOp17
 70
     0
102
RTVSPropertyOp18
 70
     0
102
RTVSPropertyOp19
 70
     0
102
RTVSPropertyOp20
 70
     0
102
RTVSPropertyOp21
 70
     0
102
RTVSPropertyOp22
 70
     0
102
RTVSPropertyOp23
 70
     0
102
RTVSPropertyOp24
 70
     0
102
RTVSPropertyOp25
 70
     0
102
RTVSPropertyOp26
 70
     0
102
RTVSPropertyOp27
 70
     0
102
RTVSPropertyOp28
 70
     1
102
RTVSPropertyOp29
 70
     1
102
RTVSPropertyOp30
 70
     1
102
RTVSPropertyOp31
 70
     1
102
RTVSPropertyOp32
 70
     1
102
RTVSPropertyOp33
 70
     1
102
RTVSPropertyOp34
 70
     1
102
RTVSPropertyOp35
 70
     1
102
RTVSPropertyOp36
 70
     1
102
RTVSPropertyOp37
 70
     1
102
RTVSPropertyOp38
 70
     1
102
RTVSPropertyOp39
 70
     1
102
RTVSPropertyOp40
 70
     1
102
RTVSPropertyOp41
 70
     1
102
RTVSPropertyOp42
 70
     1
102
RTVSPropertyOp43
 70
     1
102
RTVSPropertyOp44
 70
     1
102
RTVSPropertyOp45
 70
     1
102
RTVSPropertyOp46
 70
     1
102
RTVSPropertyOp47
 70
     1
102
RTVSPropertyOp48
 70
     1
102
RTVSPropertyOp49
 70
     1
102
RTVSPropertyOp50
 70
     1
102
RTVSPropertyOp51
 70
     0
102
RTVSPropertyOp52
 70
     0
102
RTVSPropertyOp53
 70
     1
102
RTVSPropertyOp54
 70
     1
102
RTVSPropertyOp55
 70
     1
102
RTVSPropertyOp56
 70
     1
102
RTVSPropertyOp57
 70
     1
102
RTVSPropertyOp58
 70
     1
102
RTVSPropertyOp59
 70
     1
102
RTVSPropertyOp60
 70
     1
102
RTVSPropertyOp61
 70
     1
102
RTVSPropertyOp62
 70
     1
  0
XRECORD
  5
5FC
102
{ACAD_REACTORS
330
5FB
102
}
330
5FB
100
AcDbXrecord
280
     1
102
RTVSPost2010Prop28
280
     0
102
RTVSPost2010PropOp28
 70
     1
102
RTVSPost2010Prop29
280
     1
102
RTVSPost2010PropOp29
 70
     1
102
RTVSPost2010Prop30
280
     1
102
RTVSPost2010PropOp30
 70
     1
102
RTVSPost2010Prop31
280
     0
102
RTVSPost2010PropOp31
 70
     1
102
RTVSPost2010Prop32
280
     0
102
RTVSPost2010PropOp32
 70
     1
102
RTVSPost2010Prop33
280
     0
102
RTVSPost2010PropOp33
 70
     1
102
RTVSPost2010Prop34
280
     0
102
RTVSPost2010PropOp34
 70
     1
102
RTVSPost2010Prop35
280
     0
102
RTVSPost2010PropOp35
 70
     1
102
RTVSPost2010Prop36
280
     0
102
RTVSPost2010PropOp36
 70
     1
102
RTVSPost2010Prop37
 90
       50
102
RTVSPost2010PropOp37
 70
     1
102
RTVSPost2010Prop38
140
0.0
102
RTVSPost2010PropOp38
 70
     1
102
RTVSPost2010Prop39
140
1.0
102
RTVSPost2010PropOp39
 70
     1
102
RTVSPost2010Prop40
 90
        0
102
RTVSPost2010PropOp40
 70
     1
102
RTVSPost2010Prop41ColorIndex
 90
       18
102
RTVSPost2010Prop41ColorRGB
 90
        0
102
RTVSPost2010PropOp41
 70
     1
102
RTVSPost2010Prop42
 90
       50
102
RTVSPost2010PropOp42
 70
     1
102
RTVSPost2010Prop43
 90
        3
102
RTVSPost2010PropOp43
 70
     1
102
RTVSPost2010Prop44ColorIndex
 90
        5
102
RTVSPost2010Prop44ColorRGB
 90
      255
102
RTVSPost2010PropOp44
 70
     1
102
RTVSPost2010Prop45
280
     0
102
RTVSPost2010PropOp45
 70
     1
102
RTVSPost2010Prop46
 90
       50
102
RTVSPost2010PropOp46
 70
     1
102
RTVSPost2010Prop47
 90
       50
102
RTVSPost2010PropOp47
 70
     1
102
RTVSPost2010Prop48
 90
       50
102
RTVSPost2010PropOp48
 70
     1
102
RTVSPost2010Prop49
280
     0
102
RTVSPost2010PropOp49
 70
     1
102
RTVSPost2010Prop50
 90
       50
102
RTVSPost2010PropOp50
 70
     1
102
RTVSPost2010Prop51ColorIndex
 90
      256
102
RTVSPost2010Prop51ColorRGB
 90
-16777216
102
RTVSPost2010PropOp51
 70
     0
102
RTVSPost2010Prop52
140
1.0
102
RTVSPost2010PropOp52
 70
     0
102
RTVSPost2010Prop53
 90
        2
102
RTVSPost2010PropOp53
 70
     1
102
RTVSPost2010Prop54
  1
strokes_ogs.tif
102
RTVSPost2010PropOp54
 70
     1
102
RTVSPost2010Prop55
280
     0
102
RTVSPost2010PropOp55
 70
     1
102
RTVSPost2010Prop56
140
1.0
102
RTVSPost2010PropOp56
 70
     1
102
RTVSPost2010Prop57
140
1.0
102
RTVSPost2010PropOp57
 70
     1
102
RTVSPropertyOp0
 70
     1
102
RTVSPropertyOp1
 70
     1
102
RTVSPropertyOp2
 70
     1
102
RTVSPropertyOp3
 70
     1
102
RTVSPropertyOp4
 70
     1
102
RTVSPropertyOp5
 70
     1
102
RTVSPropertyOp6
 70
     1
102
RTVSPropertyOp7
 70
     1
102
RTVSPropertyOp8
 70
     1
102
RTVSPropertyOp9
 70
     1
102
RTVSPropertyOp10
 70
     1
102
RTVSPropertyOp11
 70
     1
102
RTVSPropertyOp12
 70
     1
102
RTVSPropertyOp13
 70
     1
102
RTVSPropertyOp14
 70
     1
102
RTVSPropertyOp15
 70
     1
102
RTVSPropertyOp16
 70
     1
102
RTVSPropertyOp17
 70
     1
102
RTVSPropertyOp18
 70
     1
102
RTVSPropertyOp19
 70
     1
102
RTVSPropertyOp20
 70
     1
102
RTVSPropertyOp21
 70
     1
102
RTVSPropertyOp22
 70
     1
102
RTVSPropertyOp23
 70
     1
102
RTVSPropertyOp24
 70
     1
102
RTVSPropertyOp25
 70
     1
102
RTVSPropertyOp26
 70
     1
102
RTVSPropertyOp27
 70
     1
102
RTVSPropertyOp28
 70
     1
102
RTVSPropertyOp29
 70
     1
102
RTVSPropertyOp30
 70
     1
102
RTVSPropertyOp31
 70
     1
102
RTVSPropertyOp32
 70
     1
102
RTVSPropertyOp33
 70
     1
102
RTVSPropertyOp34
 70
     1
102
RTVSPropertyOp35
 70
     1
102
RTVSPropertyOp36
 70
     1
102
RTVSPropertyOp37
 70
     1
102
RTVSPropertyOp38
 70
     1
102
RTVSPropertyOp39
 70
     1
102
RTVSPropertyOp40
 70
     1
102
RTVSPropertyOp41
 70
     1
102
RTVSPropertyOp42
 70
     1
102
RTVSPropertyOp43
 70
     1
102
RTVSPropertyOp44
 70
     1
102
RTVSPropertyOp45
 70
     1
102
RTVSPropertyOp46
 70
     1
102
RTVSPropertyOp47
 70
     1
102
RTVSPropertyOp48
 70
     1
102
RTVSPropertyOp49
 70
     1
102
RTVSPropertyOp50
 70
     1
102
RTVSPropertyOp51
 70
     0
102
RTVSPropertyOp52
 70
     0
102
RTVSPropertyOp53
 70
     1
102
RTVSPropertyOp54
 70
     1
102
RTVSPropertyOp55
 70
     1
102
RTVSPropertyOp56
 70
     1
102
RTVSPropertyOp57
 70
     1
102
RTVSPropertyOp58
 70
     1
102
RTVSPropertyOp59
 70
     1
102
RTVSPropertyOp60
 70
     1
102
RTVSPropertyOp61
 70
     1
102
RTVSPropertyOp62
 70
     1
  0
XRECORD
  5
5E0
102
{ACAD_REACTORS
330
5DF
102
}
330
5DF
100
AcDbXrecord
280
     1
102
RTVSPost2010Prop28
280
     0
102
RTVSPost2010PropOp28
 70
     1
102
RTVSPost2010Prop29
280
     1
102
RTVSPost2010PropOp29
 70
     1
102
RTVSPost2010Prop30
280
     1
102
RTVSPost2010PropOp30
 70
     1
102
RTVSPost2010Prop31
280
     0
102
RTVSPost2010PropOp31
 70
     1
102
RTVSPost2010Prop32
280
     0
102
RTVSPost2010PropOp32
 70
     1
102
RTVSPost2010Prop33
280
     0
102
RTVSPost2010PropOp33
 70
     1
102
RTVSPost2010Prop34
280
     0
102
RTVSPost2010PropOp34
 70
     1
102
RTVSPost2010Prop35
280
     0
102
RTVSPost2010PropOp35
 70
     1
102
RTVSPost2010Prop36
280
     0
102
RTVSPost2010PropOp36
 70
     1
102
RTVSPost2010Prop37
 90
       50
102
RTVSPost2010PropOp37
 70
     1
102
RTVSPost2010Prop38
140
0.0
102
RTVSPost2010PropOp38
 70
     1
102
RTVSPost2010Prop39
140
1.0
102
RTVSPost2010PropOp39
 70
     1
102
RTVSPost2010Prop40
 90
        0
102
RTVSPost2010PropOp40
 70
     1
102
RTVSPost2010Prop41ColorIndex
 90
       18
102
RTVSPost2010Prop41ColorRGB
 90
        0
102
RTVSPost2010PropOp41
 70
     1
102
RTVSPost2010Prop42
 90
       50
102
RTVSPost2010PropOp42
 70
     1
102
RTVSPost2010Prop43
 90
        3
102
RTVSPost2010PropOp43
 70
     1
102
RTVSPost2010Prop44ColorIndex
 90
        5
102
RTVSPost2010Prop44ColorRGB
 90
      255
102
RTVSPost2010PropOp44
 70
     1
102
RTVSPost2010Prop45
280
     0
102
RTVSPost2010PropOp45
 70
     1
102
RTVSPost2010Prop46
 90
       50
102
RTVSPost2010PropOp46
 70
     1
102
RTVSPost2010Prop47
 90
       50
102
RTVSPost2010PropOp47
 70
     1
102
RTVSPost2010Prop48
 90
       50
102
RTVSPost2010PropOp48
 70
     1
102
RTVSPost2010Prop49
280
     0
102
RTVSPost2010PropOp49
 70
     1
102
RTVSPost2010Prop50
 90
       50
102
RTVSPost2010PropOp50
 70
     1
102
RTVSPost2010Prop51ColorIndex
 90
      256
102
RTVSPost2010Prop51ColorRGB
 90
-16777216
102
RTVSPost2010PropOp51
 70
     0
102
RTVSPost2010Prop52
140
1.0
102
RTVSPost2010PropOp52
 70
     0
102
RTVSPost2010Prop53
 90
        2
102
RTVSPost2010PropOp53
 70
     1
102
RTVSPost2010Prop54
  1
strokes_ogs.tif
102
RTVSPost2010PropOp54
 70
     1
102
RTVSPost2010Prop55
280
     0
102
RTVSPost2010PropOp55
 70
     1
102
RTVSPost2010Prop56
140
1.0
102
RTVSPost2010PropOp56
 70
     1
102
RTVSPost2010Prop57
140
1.0
102
RTVSPost2010PropOp57
 70
     1
102
RTVSPropertyOp0
 70
     1
102
RTVSPropertyOp1
 70
     1
102
RTVSPropertyOp2
 70
     1
102
RTVSPropertyOp3
 70
     1
102
RTVSPropertyOp4
 70
     1
102
RTVSPropertyOp5
 70
     1
102
RTVSPropertyOp6
 70
     1
102
RTVSPropertyOp7
 70
     1
102
RTVSPropertyOp8
 70
     1
102
RTVSPropertyOp9
 70
     1
102
RTVSPropertyOp10
 70
     1
102
RTVSPropertyOp11
 70
     1
102
RTVSPropertyOp12
 70
     1
102
RTVSPropertyOp13
 70
     1
102
RTVSPropertyOp14
 70
     1
102
RTVSPropertyOp15
 70
     1
102
RTVSPropertyOp16
 70
     1
102
RTVSPropertyOp17
 70
     1
102
RTVSPropertyOp18
 70
     1
102
RTVSPropertyOp19
 70
     1
102
RTVSPropertyOp20
 70
     1
102
RTVSPropertyOp21
 70
     1
102
RTVSPropertyOp22
 70
     1
102
RTVSPropertyOp23
 70
     1
102
RTVSPropertyOp24
 70
     1
102
RTVSPropertyOp25
 70
     1
102
RTVSPropertyOp26
 70
     1
102
RTVSPropertyOp27
 70
     1
102
RTVSPropertyOp28
 70
     1
102
RTVSPropertyOp29
 70
     1
102
RTVSPropertyOp30
 70
     1
102
RTVSPropertyOp31
 70
     1
102
RTVSPropertyOp32
 70
     1
102
RTVSPropertyOp33
 70
     1
102
RTVSPropertyOp34
 70
     1
102
RTVSPropertyOp35
 70
     1
102
RTVSPropertyOp36
 70
     1
102
RTVSPropertyOp37
 70
     1
102
RTVSPropertyOp38
 70
     1
102
RTVSPropertyOp39
 70
     1
102
RTVSPropertyOp40
 70
     1
102
RTVSPropertyOp41
 70
     1
102
RTVSPropertyOp42
 70
     1
102
RTVSPropertyOp43
 70
     1
102
RTVSPropertyOp44
 70
     1
102
RTVSPropertyOp45
 70
     1
102
RTVSPropertyOp46
 70
     1
102
RTVSPropertyOp47
 70
     1
102
RTVSPropertyOp48
 70
     1
102
RTVSPropertyOp49
 70
     1
102
RTVSPropertyOp50
 70
     1
102
RTVSPropertyOp51
 70
     0
102
RTVSPropertyOp52
 70
     0
102
RTVSPropertyOp53
 70
     1
102
RTVSPropertyOp54
 70
     1
102
RTVSPropertyOp55
 70
     1
102
RTVSPropertyOp56
 70
     1
102
RTVSPropertyOp57
 70
     1
102
RTVSPropertyOp58
 70
     1
102
RTVSPropertyOp59
 70
     1
102
RTVSPropertyOp60
 70
     1
102
RTVSPropertyOp61
 70
     1
102
RTVSPropertyOp62
 70
     1
  0
XRECORD
  5
5E2
102
{ACAD_REACTORS
330
5E1
102
}
330
5E1
100
AcDbXrecord
280
     1
102
RTVSPost2010Prop28
280
     0
102
RTVSPost2010PropOp28
 70
     1
102
RTVSPost2010Prop29
280
     1
102
RTVSPost2010PropOp29
 70
     1
102
RTVSPost2010Prop30
280
     1
102
RTVSPost2010PropOp30
 70
     1
102
RTVSPost2010Prop31
280
     0
102
RTVSPost2010PropOp31
 70
     1
102
RTVSPost2010Prop32
280
     0
102
RTVSPost2010PropOp32
 70
     1
102
RTVSPost2010Prop33
280
     0
102
RTVSPost2010PropOp33
 70
     1
102
RTVSPost2010Prop34
280
     0
102
RTVSPost2010PropOp34
 70
     1
102
RTVSPost2010Prop35
280
     0
102
RTVSPost2010PropOp35
 70
     1
102
RTVSPost2010Prop36
280
     0
102
RTVSPost2010PropOp36
 70
     1
102
RTVSPost2010Prop37
 90
       50
102
RTVSPost2010PropOp37
 70
     1
102
RTVSPost2010Prop38
140
0.0
102
RTVSPost2010PropOp38
 70
     1
102
RTVSPost2010Prop39
140
1.0
102
RTVSPost2010PropOp39
 70
     1
102
RTVSPost2010Prop40
 90
        0
102
RTVSPost2010PropOp40
 70
     1
102
RTVSPost2010Prop41ColorIndex
 90
       18
102
RTVSPost2010Prop41ColorRGB
 90
        0
102
RTVSPost2010PropOp41
 70
     1
102
RTVSPost2010Prop42
 90
       50
102
RTVSPost2010PropOp42
 70
     1
102
RTVSPost2010Prop43
 90
        3
102
RTVSPost2010PropOp43
 70
     1
102
RTVSPost2010Prop44ColorIndex
 90
        5
102
RTVSPost2010Prop44ColorRGB
 90
      255
102
RTVSPost2010PropOp44
 70
     1
102
RTVSPost2010Prop45
280
     0
102
RTVSPost2010PropOp45
 70
     1
102
RTVSPost2010Prop46
 90
       50
102
RTVSPost2010PropOp46
 70
     1
102
RTVSPost2010Prop47
 90
       50
102
RTVSPost2010PropOp47
 70
     1
102
RTVSPost2010Prop48
 90
       50
102
RTVSPost2010PropOp48
 70
     1
102
RTVSPost2010Prop49
280
     0
102
RTVSPost2010PropOp49
 70
     1
102
RTVSPost2010Prop50
 90
       50
102
RTVSPost2010PropOp50
 70
     1
102
RTVSPost2010Prop51ColorIndex
 90
      256
102
RTVSPost2010Prop51ColorRGB
 90
-16777216
102
RTVSPost2010PropOp51
 70
     0
102
RTVSPost2010Prop52
140
1.0
102
RTVSPost2010PropOp52
 70
     0
102
RTVSPost2010Prop53
 90
        2
102
RTVSPost2010PropOp53
 70
     1
102
RTVSPost2010Prop54
  1
strokes_ogs.tif
102
RTVSPost2010PropOp54
 70
     1
102
RTVSPost2010Prop55
280
     0
102
RTVSPost2010PropOp55
 70
     1
102
RTVSPost2010Prop56
140
1.0
102
RTVSPost2010PropOp56
 70
     1
102
RTVSPost2010Prop57
140
1.0
102
RTVSPost2010PropOp57
 70
     1
102
RTVSPropertyOp0
 70
     1
102
RTVSPropertyOp1
 70
     1
102
RTVSPropertyOp2
 70
     1
102
RTVSPropertyOp3
 70
     1
102
RTVSPropertyOp4
 70
     1
102
RTVSPropertyOp5
 70
     1
102
RTVSPropertyOp6
 70
     1
102
RTVSPropertyOp7
 70
     1
102
RTVSPropertyOp8
 70
     1
102
RTVSPropertyOp9
 70
     1
102
RTVSPropertyOp10
 70
     1
102
RTVSPropertyOp11
 70
     1
102
RTVSPropertyOp12
 70
     1
102
RTVSPropertyOp13
 70
     1
102
RTVSPropertyOp14
 70
     1
102
RTVSPropertyOp15
 70
     1
102
RTVSPropertyOp16
 70
     1
102
RTVSPropertyOp17
 70
     1
102
RTVSPropertyOp18
 70
     1
102
RTVSPropertyOp19
 70
     1
102
RTVSPropertyOp20
 70
     1
102
RTVSPropertyOp21
 70
     1
102
RTVSPropertyOp22
 70
     1
102
RTVSPropertyOp23
 70
     1
102
RTVSPropertyOp24
 70
     1
102
RTVSPropertyOp25
 70
     1
102
RTVSPropertyOp26
 70
     1
102
RTVSPropertyOp27
 70
     1
102
RTVSPropertyOp28
 70
     1
102
RTVSPropertyOp29
 70
     1
102
RTVSPropertyOp30
 70
     1
102
RTVSPropertyOp31
 70
     1
102
RTVSPropertyOp32
 70
     1
102
RTVSPropertyOp33
 70
     1
102
RTVSPropertyOp34
 70
     1
102
RTVSPropertyOp35
 70
     1
102
RTVSPropertyOp36
 70
     1
102
RTVSPropertyOp37
 70
     1
102
RTVSPropertyOp38
 70
     1
102
RTVSPropertyOp39
 70
     1
102
RTVSPropertyOp40
 70
     1
102
RTVSPropertyOp41
 70
     1
102
RTVSPropertyOp42
 70
     1
102
RTVSPropertyOp43
 70
     1
102
RTVSPropertyOp44
 70
     1
102
RTVSPropertyOp45
 70
     1
102
RTVSPropertyOp46
 70
     1
102
RTVSPropertyOp47
 70
     1
102
RTVSPropertyOp48
 70
     1
102
RTVSPropertyOp49
 70
     1
102
RTVSPropertyOp50
 70
     1
102
RTVSPropertyOp51
 70
     0
102
RTVSPropertyOp52
 70
     0
102
RTVSPropertyOp53
 70
     1
102
RTVSPropertyOp54
 70
     1
102
RTVSPropertyOp55
 70
     1
102
RTVSPropertyOp56
 70
     1
102
RTVSPropertyOp57
 70
     1
102
RTVSPropertyOp58
 70
     1
102
RTVSPropertyOp59
 70
     1
102
RTVSPropertyOp60
 70
     1
102
RTVSPropertyOp61
 70
     1
102
RTVSPropertyOp62
 70
     1
  0
XRECORD
  5
5E4
102
{ACAD_REACTORS
330
5E3
102
}
330
5E3
100
AcDbXrecord
280
     1
102
RTVSPost2010Prop28
280
     0
102
RTVSPost2010PropOp28
 70
     1
102
RTVSPost2010Prop29
280
     1
102
RTVSPost2010PropOp29
 70
     1
102
RTVSPost2010Prop30
280
     1
102
RTVSPost2010PropOp30
 70
     1
102
RTVSPost2010Prop31
280
     0
102
RTVSPost2010PropOp31
 70
     1
102
RTVSPost2010Prop32
280
     0
102
RTVSPost2010PropOp32
 70
     1
102
RTVSPost2010Prop33
280
     0
102
RTVSPost2010PropOp33
 70
     1
102
RTVSPost2010Prop34
280
     0
102
RTVSPost2010PropOp34
 70
     1
102
RTVSPost2010Prop35
280
     0
102
RTVSPost2010PropOp35
 70
     1
102
RTVSPost2010Prop36
280
     0
102
RTVSPost2010PropOp36
 70
     1
102
RTVSPost2010Prop37
 90
       50
102
RTVSPost2010PropOp37
 70
     1
102
RTVSPost2010Prop38
140
0.0
102
RTVSPost2010PropOp38
 70
     1
102
RTVSPost2010Prop39
140
1.0
102
RTVSPost2010PropOp39
 70
     1
102
RTVSPost2010Prop40
 90
        0
102
RTVSPost2010PropOp40
 70
     1
102
RTVSPost2010Prop41ColorIndex
 90
       18
102
RTVSPost2010Prop41ColorRGB
 90
        0
102
RTVSPost2010PropOp41
 70
     1
102
RTVSPost2010Prop42
 90
       50
102
RTVSPost2010PropOp42
 70
     1
102
RTVSPost2010Prop43
 90
        3
102
RTVSPost2010PropOp43
 70
     1
102
RTVSPost2010Prop44ColorIndex
 90
        5
102
RTVSPost2010Prop44ColorRGB
 90
      255
102
RTVSPost2010PropOp44
 70
     1
102
RTVSPost2010Prop45
280
     0
102
RTVSPost2010PropOp45
 70
     1
102
RTVSPost2010Prop46
 90
       50
102
RTVSPost2010PropOp46
 70
     1
102
RTVSPost2010Prop47
 90
       50
102
RTVSPost2010PropOp47
 70
     1
102
RTVSPost2010Prop48
 90
       50
102
RTVSPost2010PropOp48
 70
     1
102
RTVSPost2010Prop49
280
     0
102
RTVSPost2010PropOp49
 70
     1
102
RTVSPost2010Prop50
 90
       50
102
RTVSPost2010PropOp50
 70
     1
102
RTVSPost2010Prop51ColorIndex
 90
      256
102
RTVSPost2010Prop51ColorRGB
 90
-16777216
102
RTVSPost2010PropOp51
 70
     0
102
RTVSPost2010Prop52
140
1.0
102
RTVSPost2010PropOp52
 70
     0
102
RTVSPost2010Prop53
 90
        2
102
RTVSPost2010PropOp53
 70
     1
102
RTVSPost2010Prop54
  1
strokes_ogs.tif
102
RTVSPost2010PropOp54
 70
     1
102
RTVSPost2010Prop55
280
     0
102
RTVSPost2010PropOp55
 70
     1
102
RTVSPost2010Prop56
140
1.0
102
RTVSPost2010PropOp56
 70
     1
102
RTVSPost2010Prop57
140
1.0
102
RTVSPost2010PropOp57
 70
     1
102
RTVSPropertyOp0
 70
     1
102
RTVSPropertyOp1
 70
     1
102
RTVSPropertyOp2
 70
     1
102
RTVSPropertyOp3
 70
     1
102
RTVSPropertyOp4
 70
     1
102
RTVSPropertyOp5
 70
     1
102
RTVSPropertyOp6
 70
     1
102
RTVSPropertyOp7
 70
     1
102
RTVSPropertyOp8
 70
     1
102
RTVSPropertyOp9
 70
     1
102
RTVSPropertyOp10
 70
     1
102
RTVSPropertyOp11
 70
     1
102
RTVSPropertyOp12
 70
     1
102
RTVSPropertyOp13
 70
     1
102
RTVSPropertyOp14
 70
     1
102
RTVSPropertyOp15
 70
     1
102
RTVSPropertyOp16
 70
     1
102
RTVSPropertyOp17
 70
     1
102
RTVSPropertyOp18
 70
     1
102
RTVSPropertyOp19
 70
     1
102
RTVSPropertyOp20
 70
     1
102
RTVSPropertyOp21
 70
     1
102
RTVSPropertyOp22
 70
     1
102
RTVSPropertyOp23
 70
     1
102
RTVSPropertyOp24
 70
     1
102
RTVSPropertyOp25
 70
     1
102
RTVSPropertyOp26
 70
     1
102
RTVSPropertyOp27
 70
     1
102
RTVSPropertyOp28
 70
     1
102
RTVSPropertyOp29
 70
     1
102
RTVSPropertyOp30
 70
     1
102
RTVSPropertyOp31
 70
     1
102
RTVSPropertyOp32
 70
     1
102
RTVSPropertyOp33
 70
     1
102
RTVSPropertyOp34
 70
     1
102
RTVSPropertyOp35
 70
     1
102
RTVSPropertyOp36
 70
     1
102
RTVSPropertyOp37
 70
     1
102
RTVSPropertyOp38
 70
     1
102
RTVSPropertyOp39
 70
     1
102
RTVSPropertyOp40
 70
     1
102
RTVSPropertyOp41
 70
     1
102
RTVSPropertyOp42
 70
     1
102
RTVSPropertyOp43
 70
     1
102
RTVSPropertyOp44
 70
     1
102
RTVSPropertyOp45
 70
     1
102
RTVSPropertyOp46
 70
     1
102
RTVSPropertyOp47
 70
     1
102
RTVSPropertyOp48
 70
     1
102
RTVSPropertyOp49
 70
     1
102
RTVSPropertyOp50
 70
     1
102
RTVSPropertyOp51
 70
     0
102
RTVSPropertyOp52
 70
     0
102
RTVSPropertyOp53
 70
     1
102
RTVSPropertyOp54
 70
     1
102
RTVSPropertyOp55
 70
     1
102
RTVSPropertyOp56
 70
     1
102
RTVSPropertyOp57
 70
     1
102
RTVSPropertyOp58
 70
     1
102
RTVSPropertyOp59
 70
     1
102
RTVSPropertyOp60
 70
     1
102
RTVSPropertyOp61
 70
     1
102
RTVSPropertyOp62
 70
     1
  0
XRECORD
  5
5E6
102
{ACAD_REACTORS
330
5E5
102
}
330
5E5
100
AcDbXrecord
280
     1
102
RTVSPost2010Prop28
280
     0
102
RTVSPost2010PropOp28
 70
     1
102
RTVSPost2010Prop29
280
     1
102
RTVSPost2010PropOp29
 70
     1
102
RTVSPost2010Prop30
280
     1
102
RTVSPost2010PropOp30
 70
     1
102
RTVSPost2010Prop31
280
     0
102
RTVSPost2010PropOp31
 70
     1
102
RTVSPost2010Prop32
280
     0
102
RTVSPost2010PropOp32
 70
     1
102
RTVSPost2010Prop33
280
     0
102
RTVSPost2010PropOp33
 70
     1
102
RTVSPost2010Prop34
280
     0
102
RTVSPost2010PropOp34
 70
     1
102
RTVSPost2010Prop35
280
     0
102
RTVSPost2010PropOp35
 70
     1
102
RTVSPost2010Prop36
280
     0
102
RTVSPost2010PropOp36
 70
     1
102
RTVSPost2010Prop37
 90
       50
102
RTVSPost2010PropOp37
 70
     1
102
RTVSPost2010Prop38
140
0.0
102
RTVSPost2010PropOp38
 70
     1
102
RTVSPost2010Prop39
140
1.0
102
RTVSPost2010PropOp39
 70
     1
102
RTVSPost2010Prop40
 90
        0
102
RTVSPost2010PropOp40
 70
     1
102
RTVSPost2010Prop41ColorIndex
 90
       18
102
RTVSPost2010Prop41ColorRGB
 90
        0
102
RTVSPost2010PropOp41
 70
     1
102
RTVSPost2010Prop42
 90
       50
102
RTVSPost2010PropOp42
 70
     1
102
RTVSPost2010Prop43
 90
        3
102
RTVSPost2010PropOp43
 70
     1
102
RTVSPost2010Prop44ColorIndex
 90
        5
102
RTVSPost2010Prop44ColorRGB
 90
      255
102
RTVSPost2010PropOp44
 70
     1
102
RTVSPost2010Prop45
280
     0
102
RTVSPost2010PropOp45
 70
     1
102
RTVSPost2010Prop46
 90
       50
102
RTVSPost2010PropOp46
 70
     1
102
RTVSPost2010Prop47
 90
       50
102
RTVSPost2010PropOp47
 70
     1
102
RTVSPost2010Prop48
 90
       50
102
RTVSPost2010PropOp48
 70
     1
102
RTVSPost2010Prop49
280
     0
102
RTVSPost2010PropOp49
 70
     1
102
RTVSPost2010Prop50
 90
       50
102
RTVSPost2010PropOp50
 70
     1
102
RTVSPost2010Prop51ColorIndex
 90
      256
102
RTVSPost2010Prop51ColorRGB
 90
-16777216
102
RTVSPost2010PropOp51
 70
     0
102
RTVSPost2010Prop52
140
1.0
102
RTVSPost2010PropOp52
 70
     0
102
RTVSPost2010Prop53
 90
        2
102
RTVSPost2010PropOp53
 70
     1
102
RTVSPost2010Prop54
  1
strokes_ogs.tif
102
RTVSPost2010PropOp54
 70
     1
102
RTVSPost2010Prop55
280
     0
102
RTVSPost2010PropOp55
 70
     1
102
RTVSPost2010Prop56
140
1.0
102
RTVSPost2010PropOp56
 70
     1
102
RTVSPost2010Prop57
140
1.0
102
RTVSPost2010PropOp57
 70
     1
102
RTVSPropertyOp0
 70
     1
102
RTVSPropertyOp1
 70
     1
102
RTVSPropertyOp2
 70
     1
102
RTVSPropertyOp3
 70
     1
102
RTVSPropertyOp4
 70
     1
102
RTVSPropertyOp5
 70
     1
102
RTVSPropertyOp6
 70
     1
102
RTVSPropertyOp7
 70
     1
102
RTVSPropertyOp8
 70
     1
102
RTVSPropertyOp9
 70
     1
102
RTVSPropertyOp10
 70
     1
102
RTVSPropertyOp11
 70
     1
102
RTVSPropertyOp12
 70
     1
102
RTVSPropertyOp13
 70
     1
102
RTVSPropertyOp14
 70
     1
102
RTVSPropertyOp15
 70
     1
102
RTVSPropertyOp16
 70
     1
102
RTVSPropertyOp17
 70
     1
102
RTVSPropertyOp18
 70
     1
102
RTVSPropertyOp19
 70
     1
102
RTVSPropertyOp20
 70
     1
102
RTVSPropertyOp21
 70
     1
102
RTVSPropertyOp22
 70
     1
102
RTVSPropertyOp23
 70
     1
102
RTVSPropertyOp24
 70
     1
102
RTVSPropertyOp25
 70
     1
102
RTVSPropertyOp26
 70
     1
102
RTVSPropertyOp27
 70
     1
102
RTVSPropertyOp28
 70
     1
102
RTVSPropertyOp29
 70
     1
102
RTVSPropertyOp30
 70
     1
102
RTVSPropertyOp31
 70
     1
102
RTVSPropertyOp32
 70
     1
102
RTVSPropertyOp33
 70
     1
102
RTVSPropertyOp34
 70
     1
102
RTVSPropertyOp35
 70
     1
102
RTVSPropertyOp36
 70
     1
102
RTVSPropertyOp37
 70
     1
102
RTVSPropertyOp38
 70
     1
102
RTVSPropertyOp39
 70
     1
102
RTVSPropertyOp40
 70
     1
102
RTVSPropertyOp41
 70
     1
102
RTVSPropertyOp42
 70
     1
102
RTVSPropertyOp43
 70
     1
102
RTVSPropertyOp44
 70
     1
102
RTVSPropertyOp45
 70
     1
102
RTVSPropertyOp46
 70
     1
102
RTVSPropertyOp47
 70
     1
102
RTVSPropertyOp48
 70
     1
102
RTVSPropertyOp49
 70
     1
102
RTVSPropertyOp50
 70
     1
102
RTVSPropertyOp51
 70
     0
102
RTVSPropertyOp52
 70
     0
102
RTVSPropertyOp53
 70
     1
102
RTVSPropertyOp54
 70
     1
102
RTVSPropertyOp55
 70
     1
102
RTVSPropertyOp56
 70
     1
102
RTVSPropertyOp57
 70
     1
102
RTVSPropertyOp58
 70
     1
102
RTVSPropertyOp59
 70
     1
102
RTVSPropertyOp60
 70
     1
102
RTVSPropertyOp61
 70
     1
102
RTVSPropertyOp62
 70
     1
  0
XRECORD
  5
5EE
102
{ACAD_REACTORS
330
5ED
102
}
330
5ED
100
AcDbXrecord
280
     1
102
RTVSPost2010Prop28
280
     0
102
RTVSPost2010PropOp28
 70
     1
102
RTVSPost2010Prop29
280
     1
102
RTVSPost2010PropOp29
 70
     1
102
RTVSPost2010Prop30
280
     1
102
RTVSPost2010PropOp30
 70
     1
102
RTVSPost2010Prop31
280
     0
102
RTVSPost2010PropOp31
 70
     1
102
RTVSPost2010Prop32
280
     0
102
RTVSPost2010PropOp32
 70
     1
102
RTVSPost2010Prop33
280
     0
102
RTVSPost2010PropOp33
 70
     1
102
RTVSPost2010Prop34
280
     0
102
RTVSPost2010PropOp34
 70
     1
102
RTVSPost2010Prop35
280
     0
102
RTVSPost2010PropOp35
 70
     1
102
RTVSPost2010Prop36
280
     0
102
RTVSPost2010PropOp36
 70
     1
102
RTVSPost2010Prop37
 90
       50
102
RTVSPost2010PropOp37
 70
     1
102
RTVSPost2010Prop38
140
0.0
102
RTVSPost2010PropOp38
 70
     1
102
RTVSPost2010Prop39
140
1.0
102
RTVSPost2010PropOp39
 70
     1
102
RTVSPost2010Prop40
 90
        0
102
RTVSPost2010PropOp40
 70
     1
102
RTVSPost2010Prop41ColorIndex
 90
       18
102
RTVSPost2010Prop41ColorRGB
 90
        0
102
RTVSPost2010PropOp41
 70
     1
102
RTVSPost2010Prop42
 90
       50
102
RTVSPost2010PropOp42
 70
     1
102
RTVSPost2010Prop43
 90
        3
102
RTVSPost2010PropOp43
 70
     1
102
RTVSPost2010Prop44ColorIndex
 90
        5
102
RTVSPost2010Prop44ColorRGB
 90
      255
102
RTVSPost2010PropOp44
 70
     1
102
RTVSPost2010Prop45
280
     0
102
RTVSPost2010PropOp45
 70
     1
102
RTVSPost2010Prop46
 90
       50
102
RTVSPost2010PropOp46
 70
     1
102
RTVSPost2010Prop47
 90
       50
102
RTVSPost2010PropOp47
 70
     1
102
RTVSPost2010Prop48
 90
       50
102
RTVSPost2010PropOp48
 70
     1
102
RTVSPost2010Prop49
280
     0
102
RTVSPost2010PropOp49
 70
     1
102
RTVSPost2010Prop50
 90
       50
102
RTVSPost2010PropOp50
 70
     1
102
RTVSPost2010Prop51ColorIndex
 90
      256
102
RTVSPost2010Prop51ColorRGB
 90
-16777216
102
RTVSPost2010PropOp51
 70
     0
102
RTVSPost2010Prop52
140
1.0
102
RTVSPost2010PropOp52
 70
     0
102
RTVSPost2010Prop53
 90
        2
102
RTVSPost2010PropOp53
 70
     1
102
RTVSPost2010Prop54
  1
strokes_ogs.tif
102
RTVSPost2010PropOp54
 70
     1
102
RTVSPost2010Prop55
280
     0
102
RTVSPost2010PropOp55
 70
     1
102
RTVSPost2010Prop56
140
1.0
102
RTVSPost2010PropOp56
 70
     1
102
RTVSPost2010Prop57
140
1.0
102
RTVSPost2010PropOp57
 70
     1
102
RTVSPropertyOp0
 70
     1
102
RTVSPropertyOp1
 70
     1
102
RTVSPropertyOp2
 70
     1
102
RTVSPropertyOp3
 70
     1
102
RTVSPropertyOp4
 70
     1
102
RTVSPropertyOp5
 70
     1
102
RTVSPropertyOp6
 70
     1
102
RTVSPropertyOp7
 70
     1
102
RTVSPropertyOp8
 70
     1
102
RTVSPropertyOp9
 70
     1
102
RTVSPropertyOp10
 70
     1
102
RTVSPropertyOp11
 70
     1
102
RTVSPropertyOp12
 70
     1
102
RTVSPropertyOp13
 70
     1
102
RTVSPropertyOp14
 70
     1
102
RTVSPropertyOp15
 70
     1
102
RTVSPropertyOp16
 70
     1
102
RTVSPropertyOp17
 70
     1
102
RTVSPropertyOp18
 70
     1
102
RTVSPropertyOp19
 70
     1
102
RTVSPropertyOp20
 70
     1
102
RTVSPropertyOp21
 70
     1
102
RTVSPropertyOp22
 70
     1
102
RTVSPropertyOp23
 70
     1
102
RTVSPropertyOp24
 70
     1
102
RTVSPropertyOp25
 70
     1
102
RTVSPropertyOp26
 70
     1
102
RTVSPropertyOp27
 70
     1
102
RTVSPropertyOp28
 70
     1
102
RTVSPropertyOp29
 70
     1
102
RTVSPropertyOp30
 70
     1
102
RTVSPropertyOp31
 70
     1
102
RTVSPropertyOp32
 70
     1
102
RTVSPropertyOp33
 70
     1
102
RTVSPropertyOp34
 70
     1
102
RTVSPropertyOp35
 70
     1
102
RTVSPropertyOp36
 70
     1
102
RTVSPropertyOp37
 70
     1
102
RTVSPropertyOp38
 70
     1
102
RTVSPropertyOp39
 70
     1
102
RTVSPropertyOp40
 70
     1
102
RTVSPropertyOp41
 70
     1
102
RTVSPropertyOp42
 70
     1
102
RTVSPropertyOp43
 70
     1
102
RTVSPropertyOp44
 70
     1
102
RTVSPropertyOp45
 70
     1
102
RTVSPropertyOp46
 70
     1
102
RTVSPropertyOp47
 70
     1
102
RTVSPropertyOp48
 70
     1
102
RTVSPropertyOp49
 70
     1
102
RTVSPropertyOp50
 70
     1
102
RTVSPropertyOp51
 70
     0
102
RTVSPropertyOp52
 70
     0
102
RTVSPropertyOp53
 70
     1
102
RTVSPropertyOp54
 70
     1
102
RTVSPropertyOp55
 70
     1
102
RTVSPropertyOp56
 70
     1
102
RTVSPropertyOp57
 70
     1
102
RTVSPropertyOp58
 70
     1
102
RTVSPropertyOp59
 70
     1
102
RTVSPropertyOp60
 70
     1
102
RTVSPropertyOp61
 70
     1
102
RTVSPropertyOp62
 70
     1
  0
XRECORD
  5
600
102
{ACAD_REACTORS
330
5FF
102
}
330
5FF
100
AcDbXrecord
280
     1
102
RTVSPost2010Prop28
280
     0
102
RTVSPost2010PropOp28
 70
     1
102
RTVSPost2010Prop29
280
     1
102
RTVSPost2010PropOp29
 70
     1
102
RTVSPost2010Prop30
280
     1
102
RTVSPost2010PropOp30
 70
     1
102
RTVSPost2010Prop31
280
     0
102
RTVSPost2010PropOp31
 70
     1
102
RTVSPost2010Prop32
280
     0
102
RTVSPost2010PropOp32
 70
     1
102
RTVSPost2010Prop33
280
     0
102
RTVSPost2010PropOp33
 70
     1
102
RTVSPost2010Prop34
280
     0
102
RTVSPost2010PropOp34
 70
     1
102
RTVSPost2010Prop35
280
     0
102
RTVSPost2010PropOp35
 70
     1
102
RTVSPost2010Prop36
280
     0
102
RTVSPost2010PropOp36
 70
     1
102
RTVSPost2010Prop37
 90
       50
102
RTVSPost2010PropOp37
 70
     1
102
RTVSPost2010Prop38
140
0.0
102
RTVSPost2010PropOp38
 70
     1
102
RTVSPost2010Prop39
140
1.0
102
RTVSPost2010PropOp39
 70
     1
102
RTVSPost2010Prop40
 90
        0
102
RTVSPost2010PropOp40
 70
     1
102
RTVSPost2010Prop41ColorIndex
 90
       18
102
RTVSPost2010Prop41ColorRGB
 90
        0
102
RTVSPost2010PropOp41
 70
     1
102
RTVSPost2010Prop42
 90
       50
102
RTVSPost2010PropOp42
 70
     1
102
RTVSPost2010Prop43
 90
        3
102
RTVSPost2010PropOp43
 70
     1
102
RTVSPost2010Prop44ColorIndex
 90
        5
102
RTVSPost2010Prop44ColorRGB
 90
      255
102
RTVSPost2010PropOp44
 70
     1
102
RTVSPost2010Prop45
280
     0
102
RTVSPost2010PropOp45
 70
     1
102
RTVSPost2010Prop46
 90
       50
102
RTVSPost2010PropOp46
 70
     1
102
RTVSPost2010Prop47
 90
       50
102
RTVSPost2010PropOp47
 70
     1
102
RTVSPost2010Prop48
 90
       50
102
RTVSPost2010PropOp48
 70
     1
102
RTVSPost2010Prop49
280
     0
102
RTVSPost2010PropOp49
 70
     1
102
RTVSPost2010Prop50
 90
       50
102
RTVSPost2010PropOp50
 70
     1
102
RTVSPost2010Prop51ColorIndex
 90
      256
102
RTVSPost2010Prop51ColorRGB
 90
-16777216
102
RTVSPost2010PropOp51
 70
     0
102
RTVSPost2010Prop52
140
1.0
102
RTVSPost2010PropOp52
 70
     0
102
RTVSPost2010Prop53
 90
        2
102
RTVSPost2010PropOp53
 70
     1
102
RTVSPost2010Prop54
  1
strokes_ogs.tif
102
RTVSPost2010PropOp54
 70
     1
102
RTVSPost2010Prop55
280
     0
102
RTVSPost2010PropOp55
 70
     1
102
RTVSPost2010Prop56
140
1.0
102
RTVSPost2010PropOp56
 70
     1
102
RTVSPost2010Prop57
140
1.0
102
RTVSPost2010PropOp57
 70
     1
102
RTVSPropertyOp0
 70
     0
102
RTVSPropertyOp1
 70
     0
102
RTVSPropertyOp2
 70
     0
102
RTVSPropertyOp3
 70
     0
102
RTVSPropertyOp4
 70
     0
102
RTVSPropertyOp5
 70
     0
102
RTVSPropertyOp6
 70
     0
102
RTVSPropertyOp7
 70
     0
102
RTVSPropertyOp8
 70
     0
102
RTVSPropertyOp9
 70
     0
102
RTVSPropertyOp10
 70
     0
102
RTVSPropertyOp11
 70
     0
102
RTVSPropertyOp12
 70
     0
102
RTVSPropertyOp13
 70
     0
102
RTVSPropertyOp14
 70
     2
102
RTVSPropertyOp15
 70
     0
102
RTVSPropertyOp16
 70
     0
102
RTVSPropertyOp17
 70
     0
102
RTVSPropertyOp18
 70
     0
102
RTVSPropertyOp19
 70
     0
102
RTVSPropertyOp20
 70
     0
102
RTVSPropertyOp21
 70
     0
102
RTVSPropertyOp22
 70
     0
102
RTVSPropertyOp23
 70
     0
102
RTVSPropertyOp24
 70
     0
102
RTVSPropertyOp25
 70
     0
102
RTVSPropertyOp26
 70
     0
102
RTVSPropertyOp27
 70
     0
102
RTVSPropertyOp28
 70
     1
102
RTVSPropertyOp29
 70
     1
102
RTVSPropertyOp30
 70
     1
102
RTVSPropertyOp31
 70
     1
102
RTVSPropertyOp32
 70
     1
102
RTVSPropertyOp33
 70
     1
102
RTVSPropertyOp34
 70
     1
102
RTVSPropertyOp35
 70
     1
102
RTVSPropertyOp36
 70
     1
102
RTVSPropertyOp37
 70
     1
102
RTVSPropertyOp38
 70
     1
102
RTVSPropertyOp39
 70
     1
102
RTVSPropertyOp40
 70
     1
102
RTVSPropertyOp41
 70
     1
102
RTVSPropertyOp42
 70
     1
102
RTVSPropertyOp43
 70
     1
102
RTVSPropertyOp44
 70
     1
102
RTVSPropertyOp45
 70
     1
102
RTVSPropertyOp46
 70
     1
102
RTVSPropertyOp47
 70
     1
102
RTVSPropertyOp48
 70
     1
102
RTVSPropertyOp49
 70
     1
102
RTVSPropertyOp50
 70
     1
102
RTVSPropertyOp51
 70
     0
102
RTVSPropertyOp52
 70
     0
102
RTVSPropertyOp53
 70
     1
102
RTVSPropertyOp54
 70
     1
102
RTVSPropertyOp55
 70
     1
102
RTVSPropertyOp56
 70
     1
102
RTVSPropertyOp57
 70
     1
102
RTVSPropertyOp58
 70
     1
102
RTVSPropertyOp59
 70
     1
102
RTVSPropertyOp60
 70
     1
102
RTVSPropertyOp61
 70
     1
102
RTVSPropertyOp62
 70
     1
  0
XRECORD
  5
5FA
102
{ACAD_REACTORS
330
5F9
102
}
330
5F9
100
AcDbXrecord
280
     1
102
RTVSPost2010Prop28
280
     0
102
RTVSPost2010PropOp28
 70
     1
102
RTVSPost2010Prop29
280
     1
102
RTVSPost2010PropOp29
 70
     1
102
RTVSPost2010Prop30
280
     1
102
RTVSPost2010PropOp30
 70
     1
102
RTVSPost2010Prop31
280
     0
102
RTVSPost2010PropOp31
 70
     1
102
RTVSPost2010Prop32
280
     0
102
RTVSPost2010PropOp32
 70
     1
102
RTVSPost2010Prop33
280
     0
102
RTVSPost2010PropOp33
 70
     1
102
RTVSPost2010Prop34
280
     0
102
RTVSPost2010PropOp34
 70
     1
102
RTVSPost2010Prop35
280
     0
102
RTVSPost2010PropOp35
 70
     1
102
RTVSPost2010Prop36
280
     0
102
RTVSPost2010PropOp36
 70
     1
102
RTVSPost2010Prop37
 90
       50
102
RTVSPost2010PropOp37
 70
     1
102
RTVSPost2010Prop38
140
0.0
102
RTVSPost2010PropOp38
 70
     1
102
RTVSPost2010Prop39
140
1.0
102
RTVSPost2010PropOp39
 70
     1
102
RTVSPost2010Prop40
 90
        0
102
RTVSPost2010PropOp40
 70
     1
102
RTVSPost2010Prop41ColorIndex
 90
       18
102
RTVSPost2010Prop41ColorRGB
 90
        0
102
RTVSPost2010PropOp41
 70
     1
102
RTVSPost2010Prop42
 90
       50
102
RTVSPost2010PropOp42
 70
     1
102
RTVSPost2010Prop43
 90
        3
102
RTVSPost2010PropOp43
 70
     1
102
RTVSPost2010Prop44ColorIndex
 90
        5
102
RTVSPost2010Prop44ColorRGB
 90
      255
102
RTVSPost2010PropOp44
 70
     1
102
RTVSPost2010Prop45
280
     0
102
RTVSPost2010PropOp45
 70
     1
102
RTVSPost2010Prop46
 90
       50
102
RTVSPost2010PropOp46
 70
     1
102
RTVSPost2010Prop47
 90
       50
102
RTVSPost2010PropOp47
 70
     1
102
RTVSPost2010Prop48
 90
       50
102
RTVSPost2010PropOp48
 70
     1
102
RTVSPost2010Prop49
280
     0
102
RTVSPost2010PropOp49
 70
     1
102
RTVSPost2010Prop50
 90
       50
102
RTVSPost2010PropOp50
 70
     1
102
RTVSPost2010Prop51ColorIndex
 90
      256
102
RTVSPost2010Prop51ColorRGB
 90
-16777216
102
RTVSPost2010PropOp51
 70
     0
102
RTVSPost2010Prop52
140
1.0
102
RTVSPost2010PropOp52
 70
     0
102
RTVSPost2010Prop53
 90
        2
102
RTVSPost2010PropOp53
 70
     1
102
RTVSPost2010Prop54
  1
strokes_ogs.tif
102
RTVSPost2010PropOp54
 70
     1
102
RTVSPost2010Prop55
280
     0
102
RTVSPost2010PropOp55
 70
     1
102
RTVSPost2010Prop56
140
1.0
102
RTVSPost2010PropOp56
 70
     1
102
RTVSPost2010Prop57
140
1.0
102
RTVSPost2010PropOp57
 70
     1
102
RTVSPropertyOp0
 70
     1
102
RTVSPropertyOp1
 70
     1
102
RTVSPropertyOp2
 70
     1
102
RTVSPropertyOp3
 70
     1
102
RTVSPropertyOp4
 70
     1
102
RTVSPropertyOp5
 70
     1
102
RTVSPropertyOp6
 70
     1
102
RTVSPropertyOp7
 70
     1
102
RTVSPropertyOp8
 70
     1
102
RTVSPropertyOp9
 70
     1
102
RTVSPropertyOp10
 70
     1
102
RTVSPropertyOp11
 70
     1
102
RTVSPropertyOp12
 70
     1
102
RTVSPropertyOp13
 70
     1
102
RTVSPropertyOp14
 70
     1
102
RTVSPropertyOp15
 70
     1
102
RTVSPropertyOp16
 70
     1
102
RTVSPropertyOp17
 70
     1
102
RTVSPropertyOp18
 70
     1
102
RTVSPropertyOp19
 70
     1
102
RTVSPropertyOp20
 70
     1
102
RTVSPropertyOp21
 70
     1
102
RTVSPropertyOp22
 70
     1
102
RTVSPropertyOp23
 70
     1
102
RTVSPropertyOp24
 70
     1
102
RTVSPropertyOp25
 70
     1
102
RTVSPropertyOp26
 70
     1
102
RTVSPropertyOp27
 70
     1
102
RTVSPropertyOp28
 70
     1
102
RTVSPropertyOp29
 70
     1
102
RTVSPropertyOp30
 70
     1
102
RTVSPropertyOp31
 70
     1
102
RTVSPropertyOp32
 70
     1
102
RTVSPropertyOp33
 70
     1
102
RTVSPropertyOp34
 70
     1
102
RTVSPropertyOp35
 70
     1
102
RTVSPropertyOp36
 70
     1
102
RTVSPropertyOp37
 70
     1
102
RTVSPropertyOp38
 70
     1
102
RTVSPropertyOp39
 70
     1
102
RTVSPropertyOp40
 70
     1
102
RTVSPropertyOp41
 70
     1
102
RTVSPropertyOp42
 70
     1
102
RTVSPropertyOp43
 70
     1
102
RTVSPropertyOp44
 70
     1
102
RTVSPropertyOp45
 70
     1
102
RTVSPropertyOp46
 70
     1
102
RTVSPropertyOp47
 70
     1
102
RTVSPropertyOp48
 70
     1
102
RTVSPropertyOp49
 70
     1
102
RTVSPropertyOp50
 70
     1
102
RTVSPropertyOp51
 70
     0
102
RTVSPropertyOp52
 70
     0
102
RTVSPropertyOp53
 70
     1
102
RTVSPropertyOp54
 70
     1
102
RTVSPropertyOp55
 70
     1
102
RTVSPropertyOp56
 70
     1
102
RTVSPropertyOp57
 70
     1
102
RTVSPropertyOp58
 70
     1
102
RTVSPropertyOp59
 70
     1
102
RTVSPropertyOp60
 70
     1
102
RTVSPropertyOp61
 70
     1
102
RTVSPropertyOp62
 70
     1
  0
XRECORD
  5
602
102
{ACAD_REACTORS
330
601
102
}
330
601
100
AcDbXrecord
280
     1
102
RTVSPost2010Prop28
280
     0
102
RTVSPost2010PropOp28
 70
     1
102
RTVSPost2010Prop29
280
     1
102
RTVSPost2010PropOp29
 70
     1
102
RTVSPost2010Prop30
280
     1
102
RTVSPost2010PropOp30
 70
     1
102
RTVSPost2010Prop31
280
     0
102
RTVSPost2010PropOp31
 70
     1
102
RTVSPost2010Prop32
280
     0
102
RTVSPost2010PropOp32
 70
     1
102
RTVSPost2010Prop33
280
     0
102
RTVSPost2010PropOp33
 70
     1
102
RTVSPost2010Prop34
280
     0
102
RTVSPost2010PropOp34
 70
     1
102
RTVSPost2010Prop35
280
     0
102
RTVSPost2010PropOp35
 70
     1
102
RTVSPost2010Prop36
280
     0
102
RTVSPost2010PropOp36
 70
     1
102
RTVSPost2010Prop37
 90
       50
102
RTVSPost2010PropOp37
 70
     1
102
RTVSPost2010Prop38
140
0.0
102
RTVSPost2010PropOp38
 70
     1
102
RTVSPost2010Prop39
140
1.0
102
RTVSPost2010PropOp39
 70
     1
102
RTVSPost2010Prop40
 90
        0
102
RTVSPost2010PropOp40
 70
     1
102
RTVSPost2010Prop41ColorIndex
 90
       18
102
RTVSPost2010Prop41ColorRGB
 90
        0
102
RTVSPost2010PropOp41
 70
     1
102
RTVSPost2010Prop42
 90
       50
102
RTVSPost2010PropOp42
 70
     1
102
RTVSPost2010Prop43
 90
        3
102
RTVSPost2010PropOp43
 70
     1
102
RTVSPost2010Prop44ColorIndex
 90
        5
102
RTVSPost2010Prop44ColorRGB
 90
      255
102
RTVSPost2010PropOp44
 70
     1
102
RTVSPost2010Prop45
280
     0
102
RTVSPost2010PropOp45
 70
     1
102
RTVSPost2010Prop46
 90
       50
102
RTVSPost2010PropOp46
 70
     1
102
RTVSPost2010Prop47
 90
       50
102
RTVSPost2010PropOp47
 70
     1
102
RTVSPost2010Prop48
 90
       50
102
RTVSPost2010PropOp48
 70
     1
102
RTVSPost2010Prop49
280
     0
102
RTVSPost2010PropOp49
 70
     1
102
RTVSPost2010Prop50
 90
       50
102
RTVSPost2010PropOp50
 70
     1
102
RTVSPost2010Prop51ColorIndex
 90
      256
102
RTVSPost2010Prop51ColorRGB
 90
-16777216
102
RTVSPost2010PropOp51
 70
     0
102
RTVSPost2010Prop52
140
1.0
102
RTVSPost2010PropOp52
 70
     0
102
RTVSPost2010Prop53
 90
        2
102
RTVSPost2010PropOp53
 70
     1
102
RTVSPost2010Prop54
  1
strokes_ogs.tif
102
RTVSPost2010PropOp54
 70
     1
102
RTVSPost2010Prop55
280
     0
102
RTVSPost2010PropOp55
 70
     1
102
RTVSPost2010Prop56
140
1.0
102
RTVSPost2010PropOp56
 70
     1
102
RTVSPost2010Prop57
140
1.0
102
RTVSPost2010PropOp57
 70
     1
102
RTVSPropertyOp0
 70
     0
102
RTVSPropertyOp1
 70
     0
102
RTVSPropertyOp2
 70
     0
102
RTVSPropertyOp3
 70
     0
102
RTVSPropertyOp4
 70
     0
102
RTVSPropertyOp5
 70
     0
102
RTVSPropertyOp6
 70
     0
102
RTVSPropertyOp7
 70
     0
102
RTVSPropertyOp8
 70
     0
102
RTVSPropertyOp9
 70
     0
102
RTVSPropertyOp10
 70
     0
102
RTVSPropertyOp11
 70
     0
102
RTVSPropertyOp12
 70
     0
102
RTVSPropertyOp13
 70
     0
102
RTVSPropertyOp14
 70
     2
102
RTVSPropertyOp15
 70
     0
102
RTVSPropertyOp16
 70
     0
102
RTVSPropertyOp17
 70
     0
102
RTVSPropertyOp18
 70
     0
102
RTVSPropertyOp19
 70
     0
102
RTVSPropertyOp20
 70
     0
102
RTVSPropertyOp21
 70
     0
102
RTVSPropertyOp22
 70
     0
102
RTVSPropertyOp23
 70
     0
102
RTVSPropertyOp24
 70
     0
102
RTVSPropertyOp25
 70
     0
102
RTVSPropertyOp26
 70
     0
102
RTVSPropertyOp27
 70
     0
102
RTVSPropertyOp28
 70
     1
102
RTVSPropertyOp29
 70
     1
102
RTVSPropertyOp30
 70
     1
102
RTVSPropertyOp31
 70
     1
102
RTVSPropertyOp32
 70
     1
102
RTVSPropertyOp33
 70
     1
102
RTVSPropertyOp34
 70
     1
102
RTVSPropertyOp35
 70
     1
102
RTVSPropertyOp36
 70
     1
102
RTVSPropertyOp37
 70
     1
102
RTVSPropertyOp38
 70
     1
102
RTVSPropertyOp39
 70
     1
102
RTVSPropertyOp40
 70
     1
102
RTVSPropertyOp41
 70
     1
102
RTVSPropertyOp42
 70
     1
102
RTVSPropertyOp43
 70
     1
102
RTVSPropertyOp44
 70
     1
102
RTVSPropertyOp45
 70
     1
102
RTVSPropertyOp46
 70
     1
102
RTVSPropertyOp47
 70
     1
102
RTVSPropertyOp48
 70
     1
102
RTVSPropertyOp49
 70
     1
102
RTVSPropertyOp50
 70
     1
102
RTVSPropertyOp51
 70
     0
102
RTVSPropertyOp52
 70
     0
102
RTVSPropertyOp53
 70
     1
102
RTVSPropertyOp54
 70
     1
102
RTVSPropertyOp55
 70
     1
102
RTVSPropertyOp56
 70
     1
102
RTVSPropertyOp57
 70
     1
102
RTVSPropertyOp58
 70
     1
102
RTVSPropertyOp59
 70
     1
102
RTVSPropertyOp60
 70
     1
102
RTVSPropertyOp61
 70
     1
102
RTVSPropertyOp62
 70
     1
  0
XRECORD
  5
5F2
102
{ACAD_REACTORS
330
5F1
102
}
330
5F1
100
AcDbXrecord
280
     1
102
RTVSPost2010Prop28
280
     0
102
RTVSPost2010PropOp28
 70
     1
102
RTVSPost2010Prop29
280
     1
102
RTVSPost2010PropOp29
 70
     1
102
RTVSPost2010Prop30
280
     1
102
RTVSPost2010PropOp30
 70
     1
102
RTVSPost2010Prop31
280
     0
102
RTVSPost2010PropOp31
 70
     1
102
RTVSPost2010Prop32
280
     0
102
RTVSPost2010PropOp32
 70
     1
102
RTVSPost2010Prop33
280
     0
102
RTVSPost2010PropOp33
 70
     1
102
RTVSPost2010Prop34
280
     0
102
RTVSPost2010PropOp34
 70
     1
102
RTVSPost2010Prop35
280
     0
102
RTVSPost2010PropOp35
 70
     1
102
RTVSPost2010Prop36
280
     0
102
RTVSPost2010PropOp36
 70
     1
102
RTVSPost2010Prop37
 90
       50
102
RTVSPost2010PropOp37
 70
     1
102
RTVSPost2010Prop38
140
0.0
102
RTVSPost2010PropOp38
 70
     1
102
RTVSPost2010Prop39
140
1.0
102
RTVSPost2010PropOp39
 70
     1
102
RTVSPost2010Prop40
 90
        0
102
RTVSPost2010PropOp40
 70
     1
102
RTVSPost2010Prop41ColorIndex
 90
       18
102
RTVSPost2010Prop41ColorRGB
 90
        0
102
RTVSPost2010PropOp41
 70
     1
102
RTVSPost2010Prop42
 90
       50
102
RTVSPost2010PropOp42
 70
     1
102
RTVSPost2010Prop43
 90
        3
102
RTVSPost2010PropOp43
 70
     1
102
RTVSPost2010Prop44ColorIndex
 90
        5
102
RTVSPost2010Prop44ColorRGB
 90
      255
102
RTVSPost2010PropOp44
 70
     1
102
RTVSPost2010Prop45
280
     0
102
RTVSPost2010PropOp45
 70
     1
102
RTVSPost2010Prop46
 90
       50
102
RTVSPost2010PropOp46
 70
     1
102
RTVSPost2010Prop47
 90
       50
102
RTVSPost2010PropOp47
 70
     1
102
RTVSPost2010Prop48
 90
       50
102
RTVSPost2010PropOp48
 70
     1
102
RTVSPost2010Prop49
280
     0
102
RTVSPost2010PropOp49
 70
     1
102
RTVSPost2010Prop50
 90
       50
102
RTVSPost2010PropOp50
 70
     1
102
RTVSPost2010Prop51ColorIndex
 90
      256
102
RTVSPost2010Prop51ColorRGB
 90
-16777216
102
RTVSPost2010PropOp51
 70
     0
102
RTVSPost2010Prop52
140
1.0
102
RTVSPost2010PropOp52
 70
     0
102
RTVSPost2010Prop53
 90
        2
102
RTVSPost2010PropOp53
 70
     1
102
RTVSPost2010Prop54
  1
strokes_ogs.tif
102
RTVSPost2010PropOp54
 70
     1
102
RTVSPost2010Prop55
280
     0
102
RTVSPost2010PropOp55
 70
     1
102
RTVSPost2010Prop56
140
1.0
102
RTVSPost2010PropOp56
 70
     1
102
RTVSPost2010Prop57
140
1.0
102
RTVSPost2010PropOp57
 70
     1
102
RTVSPropertyOp0
 70
     1
102
RTVSPropertyOp1
 70
     1
102
RTVSPropertyOp2
 70
     1
102
RTVSPropertyOp3
 70
     1
102
RTVSPropertyOp4
 70
     1
102
RTVSPropertyOp5
 70
     1
102
RTVSPropertyOp6
 70
     1
102
RTVSPropertyOp7
 70
     1
102
RTVSPropertyOp8
 70
     1
102
RTVSPropertyOp9
 70
     1
102
RTVSPropertyOp10
 70
     1
102
RTVSPropertyOp11
 70
     1
102
RTVSPropertyOp12
 70
     1
102
RTVSPropertyOp13
 70
     1
102
RTVSPropertyOp14
 70
     1
102
RTVSPropertyOp15
 70
     1
102
RTVSPropertyOp16
 70
     1
102
RTVSPropertyOp17
 70
     1
102
RTVSPropertyOp18
 70
     1
102
RTVSPropertyOp19
 70
     1
102
RTVSPropertyOp20
 70
     1
102
RTVSPropertyOp21
 70
     1
102
RTVSPropertyOp22
 70
     1
102
RTVSPropertyOp23
 70
     1
102
RTVSPropertyOp24
 70
     1
102
RTVSPropertyOp25
 70
     1
102
RTVSPropertyOp26
 70
     1
102
RTVSPropertyOp27
 70
     1
102
RTVSPropertyOp28
 70
     1
102
RTVSPropertyOp29
 70
     1
102
RTVSPropertyOp30
 70
     1
102
RTVSPropertyOp31
 70
     1
102
RTVSPropertyOp32
 70
     1
102
RTVSPropertyOp33
 70
     1
102
RTVSPropertyOp34
 70
     1
102
RTVSPropertyOp35
 70
     1
102
RTVSPropertyOp36
 70
     1
102
RTVSPropertyOp37
 70
     1
102
RTVSPropertyOp38
 70
     1
102
RTVSPropertyOp39
 70
     1
102
RTVSPropertyOp40
 70
     1
102
RTVSPropertyOp41
 70
     1
102
RTVSPropertyOp42
 70
     1
102
RTVSPropertyOp43
 70
     1
102
RTVSPropertyOp44
 70
     1
102
RTVSPropertyOp45
 70
     1
102
RTVSPropertyOp46
 70
     1
102
RTVSPropertyOp47
 70
     1
102
RTVSPropertyOp48
 70
     1
102
RTVSPropertyOp49
 70
     1
102
RTVSPropertyOp50
 70
     1
102
RTVSPropertyOp51
 70
     0
102
RTVSPropertyOp52
 70
     0
102
RTVSPropertyOp53
 70
     1
102
RTVSPropertyOp54
 70
     1
102
RTVSPropertyOp55
 70
     1
102
RTVSPropertyOp56
 70
     1
102
RTVSPropertyOp57
 70
     1
102
RTVSPropertyOp58
 70
     1
102
RTVSPropertyOp59
 70
     1
102
RTVSPropertyOp60
 70
     1
102
RTVSPropertyOp61
 70
     1
102
RTVSPropertyOp62
 70
     1
  0
XRECORD
  5
60E
102
{ACAD_REACTORS
330
60D
102
}
330
60D
100
AcDbXrecord
280
     1
102
RTVSPost2010Prop28
280
     0
102
RTVSPost2010PropOp28
 70
     1
102
RTVSPost2010Prop29
280
     1
102
RTVSPost2010PropOp29
 70
     1
102
RTVSPost2010Prop30
280
     1
102
RTVSPost2010PropOp30
 70
     1
102
RTVSPost2010Prop31
280
     0
102
RTVSPost2010PropOp31
 70
     1
102
RTVSPost2010Prop32
280
     0
102
RTVSPost2010PropOp32
 70
     1
102
RTVSPost2010Prop33
280
     0
102
RTVSPost2010PropOp33
 70
     1
102
RTVSPost2010Prop34
280
     0
102
RTVSPost2010PropOp34
 70
     1
102
RTVSPost2010Prop35
280
     0
102
RTVSPost2010PropOp35
 70
     1
102
RTVSPost2010Prop36
280
     0
102
RTVSPost2010PropOp36
 70
     1
102
RTVSPost2010Prop37
 90
       50
102
RTVSPost2010PropOp37
 70
     1
102
RTVSPost2010Prop38
140
0.0
102
RTVSPost2010PropOp38
 70
     1
102
RTVSPost2010Prop39
140
1.0
102
RTVSPost2010PropOp39
 70
     1
102
RTVSPost2010Prop40
 90
        0
102
RTVSPost2010PropOp40
 70
     1
102
RTVSPost2010Prop41ColorIndex
 90
       18
102
RTVSPost2010Prop41ColorRGB
 90
        0
102
RTVSPost2010PropOp41
 70
     1
102
RTVSPost2010Prop42
 90
       50
102
RTVSPost2010PropOp42
 70
     1
102
RTVSPost2010Prop43
 90
        3
102
RTVSPost2010PropOp43
 70
     1
102
RTVSPost2010Prop44ColorIndex
 90
        5
102
RTVSPost2010Prop44ColorRGB
 90
      255
102
RTVSPost2010PropOp44
 70
     1
102
RTVSPost2010Prop45
280
     0
102
RTVSPost2010PropOp45
 70
     1
102
RTVSPost2010Prop46
 90
       50
102
RTVSPost2010PropOp46
 70
     1
102
RTVSPost2010Prop47
 90
       50
102
RTVSPost2010PropOp47
 70
     1
102
RTVSPost2010Prop48
 90
       50
102
RTVSPost2010PropOp48
 70
     1
102
RTVSPost2010Prop49
280
     0
102
RTVSPost2010PropOp49
 70
     1
102
RTVSPost2010Prop50
 90
       50
102
RTVSPost2010PropOp50
 70
     1
102
RTVSPost2010Prop51ColorIndex
 90
      256
102
RTVSPost2010Prop51ColorRGB
 90
-16777216
102
RTVSPost2010PropOp51
 70
     0
102
RTVSPost2010Prop52
140
1.0
102
RTVSPost2010PropOp52
 70
     0
102
RTVSPost2010Prop53
 90
        2
102
RTVSPost2010PropOp53
 70
     1
102
RTVSPost2010Prop54
  1
strokes_ogs.tif
102
RTVSPost2010PropOp54
 70
     1
102
RTVSPost2010Prop55
280
     0
102
RTVSPost2010PropOp55
 70
     1
102
RTVSPost2010Prop56
140
1.0
102
RTVSPost2010PropOp56
 70
     1
102
RTVSPost2010Prop57
140
1.0
102
RTVSPost2010PropOp57
 70
     1
102
RTVSPropertyOp0
 70
     1
102
RTVSPropertyOp1
 70
     1
102
RTVSPropertyOp2
 70
     1
102
RTVSPropertyOp3
 70
     1
102
RTVSPropertyOp4
 70
     1
102
RTVSPropertyOp5
 70
     1
102
RTVSPropertyOp6
 70
     1
102
RTVSPropertyOp7
 70
     1
102
RTVSPropertyOp8
 70
     1
102
RTVSPropertyOp9
 70
     1
102
RTVSPropertyOp10
 70
     1
102
RTVSPropertyOp11
 70
     1
102
RTVSPropertyOp12
 70
     1
102
RTVSPropertyOp13
 70
     1
102
RTVSPropertyOp14
 70
     1
102
RTVSPropertyOp15
 70
     1
102
RTVSPropertyOp16
 70
     1
102
RTVSPropertyOp17
 70
     1
102
RTVSPropertyOp18
 70
     1
102
RTVSPropertyOp19
 70
     1
102
RTVSPropertyOp20
 70
     1
102
RTVSPropertyOp21
 70
     1
102
RTVSPropertyOp22
 70
     1
102
RTVSPropertyOp23
 70
     1
102
RTVSPropertyOp24
 70
     1
102
RTVSPropertyOp25
 70
     1
102
RTVSPropertyOp26
 70
     1
102
RTVSPropertyOp27
 70
     1
102
RTVSPropertyOp28
 70
     1
102
RTVSPropertyOp29
 70
     1
102
RTVSPropertyOp30
 70
     1
102
RTVSPropertyOp31
 70
     1
102
RTVSPropertyOp32
 70
     1
102
RTVSPropertyOp33
 70
     1
102
RTVSPropertyOp34
 70
     1
102
RTVSPropertyOp35
 70
     1
102
RTVSPropertyOp36
 70
     1
102
RTVSPropertyOp37
 70
     1
102
RTVSPropertyOp38
 70
     1
102
RTVSPropertyOp39
 70
     1
102
RTVSPropertyOp40
 70
     1
102
RTVSPropertyOp41
 70
     1
102
RTVSPropertyOp42
 70
     1
102
RTVSPropertyOp43
 70
     1
102
RTVSPropertyOp44
 70
     1
102
RTVSPropertyOp45
 70
     1
102
RTVSPropertyOp46
 70
     1
102
RTVSPropertyOp47
 70
     1
102
RTVSPropertyOp48
 70
     1
102
RTVSPropertyOp49
 70
     1
102
RTVSPropertyOp50
 70
     1
102
RTVSPropertyOp51
 70
     0
102
RTVSPropertyOp52
 70
     0
102
RTVSPropertyOp53
 70
     1
102
RTVSPropertyOp54
 70
     1
102
RTVSPropertyOp55
 70
     1
102
RTVSPropertyOp56
 70
     1
102
RTVSPropertyOp57
 70
     1
102
RTVSPropertyOp58
 70
     1
102
RTVSPropertyOp59
 70
     1
102
RTVSPropertyOp60
 70
     1
102
RTVSPropertyOp61
 70
     1
102
RTVSPropertyOp62
 70
     1
  0
XRECORD
  5
60C
102
{ACAD_REACTORS
330
60B
102
}
330
60B
100
AcDbXrecord
280
     1
102
RTVSPost2010Prop28
280
     0
102
RTVSPost2010PropOp28
 70
     1
102
RTVSPost2010Prop29
280
     1
102
RTVSPost2010PropOp29
 70
     1
102
RTVSPost2010Prop30
280
     1
102
RTVSPost2010PropOp30
 70
     1
102
RTVSPost2010Prop31
280
     0
102
RTVSPost2010PropOp31
 70
     1
102
RTVSPost2010Prop32
280
     0
102
RTVSPost2010PropOp32
 70
     1
102
RTVSPost2010Prop33
280
     0
102
RTVSPost2010PropOp33
 70
     1
102
RTVSPost2010Prop34
280
     0
102
RTVSPost2010PropOp34
 70
     1
102
RTVSPost2010Prop35
280
     0
102
RTVSPost2010PropOp35
 70
     1
102
RTVSPost2010Prop36
280
     0
102
RTVSPost2010PropOp36
 70
     1
102
RTVSPost2010Prop37
 90
       50
102
RTVSPost2010PropOp37
 70
     1
102
RTVSPost2010Prop38
140
0.0
102
RTVSPost2010PropOp38
 70
     1
102
RTVSPost2010Prop39
140
1.0
102
RTVSPost2010PropOp39
 70
     1
102
RTVSPost2010Prop40
 90
        0
102
RTVSPost2010PropOp40
 70
     1
102
RTVSPost2010Prop41ColorIndex
 90
       18
102
RTVSPost2010Prop41ColorRGB
 90
        0
102
RTVSPost2010PropOp41
 70
     1
102
RTVSPost2010Prop42
 90
       50
102
RTVSPost2010PropOp42
 70
     1
102
RTVSPost2010Prop43
 90
        3
102
RTVSPost2010PropOp43
 70
     1
102
RTVSPost2010Prop44ColorIndex
 90
        5
102
RTVSPost2010Prop44ColorRGB
 90
      255
102
RTVSPost2010PropOp44
 70
     1
102
RTVSPost2010Prop45
280
     0
102
RTVSPost2010PropOp45
 70
     1
102
RTVSPost2010Prop46
 90
       50
102
RTVSPost2010PropOp46
 70
     1
102
RTVSPost2010Prop47
 90
       50
102
RTVSPost2010PropOp47
 70
     1
102
RTVSPost2010Prop48
 90
       50
102
RTVSPost2010PropOp48
 70
     1
102
RTVSPost2010Prop49
280
     0
102
RTVSPost2010PropOp49
 70
     1
102
RTVSPost2010Prop50
 90
       50
102
RTVSPost2010PropOp50
 70
     1
102
RTVSPost2010Prop51ColorIndex
 90
      256
102
RTVSPost2010Prop51ColorRGB
 90
-16777216
102
RTVSPost2010PropOp51
 70
     0
102
RTVSPost2010Prop52
140
1.0
102
RTVSPost2010PropOp52
 70
     0
102
RTVSPost2010Prop53
 90
        2
102
RTVSPost2010PropOp53
 70
     1
102
RTVSPost2010Prop54
  1
strokes_ogs.tif
102
RTVSPost2010PropOp54
 70
     1
102
RTVSPost2010Prop55
280
     0
102
RTVSPost2010PropOp55
 70
     1
102
RTVSPost2010Prop56
140
1.0
102
RTVSPost2010PropOp56
 70
     1
102
RTVSPost2010Prop57
140
1.0
102
RTVSPost2010PropOp57
 70
     1
102
RTVSPropertyOp0
 70
     1
102
RTVSPropertyOp1
 70
     1
102
RTVSPropertyOp2
 70
     1
102
RTVSPropertyOp3
 70
     1
102
RTVSPropertyOp4
 70
     1
102
RTVSPropertyOp5
 70
     1
102
RTVSPropertyOp6
 70
     1
102
RTVSPropertyOp7
 70
     1
102
RTVSPropertyOp8
 70
     1
102
RTVSPropertyOp9
 70
     1
102
RTVSPropertyOp10
 70
     1
102
RTVSPropertyOp11
 70
     1
102
RTVSPropertyOp12
 70
     1
102
RTVSPropertyOp13
 70
     1
102
RTVSPropertyOp14
 70
     1
102
RTVSPropertyOp15
 70
     1
102
RTVSPropertyOp16
 70
     1
102
RTVSPropertyOp17
 70
     1
102
RTVSPropertyOp18
 70
     1
102
RTVSPropertyOp19
 70
     1
102
RTVSPropertyOp20
 70
     1
102
RTVSPropertyOp21
 70
     1
102
RTVSPropertyOp22
 70
     1
102
RTVSPropertyOp23
 70
     1
102
RTVSPropertyOp24
 70
     1
102
RTVSPropertyOp25
 70
     1
102
RTVSPropertyOp26
 70
     1
102
RTVSPropertyOp27
 70
     1
102
RTVSPropertyOp28
 70
     1
102
RTVSPropertyOp29
 70
     1
102
RTVSPropertyOp30
 70
     1
102
RTVSPropertyOp31
 70
     1
102
RTVSPropertyOp32
 70
     1
102
RTVSPropertyOp33
 70
     1
102
RTVSPropertyOp34
 70
     1
102
RTVSPropertyOp35
 70
     1
102
RTVSPropertyOp36
 70
     1
102
RTVSPropertyOp37
 70
     1
102
RTVSPropertyOp38
 70
     1
102
RTVSPropertyOp39
 70
     1
102
RTVSPropertyOp40
 70
     1
102
RTVSPropertyOp41
 70
     1
102
RTVSPropertyOp42
 70
     1
102
RTVSPropertyOp43
 70
     1
102
RTVSPropertyOp44
 70
     1
102
RTVSPropertyOp45
 70
     1
102
RTVSPropertyOp46
 70
     1
102
RTVSPropertyOp47
 70
     1
102
RTVSPropertyOp48
 70
     1
102
RTVSPropertyOp49
 70
     1
102
RTVSPropertyOp50
 70
     1
102
RTVSPropertyOp51
 70
     0
102
RTVSPropertyOp52
 70
     0
102
RTVSPropertyOp53
 70
     1
102
RTVSPropertyOp54
 70
     1
102
RTVSPropertyOp55
 70
     1
102
RTVSPropertyOp56
 70
     1
102
RTVSPropertyOp57
 70
     1
102
RTVSPropertyOp58
 70
     1
102
RTVSPropertyOp59
 70
     1
102
RTVSPropertyOp60
 70
     1
102
RTVSPropertyOp61
 70
     1
102
RTVSPropertyOp62
 70
     1
  0
XRECORD
  5
606
102
{ACAD_REACTORS
330
605
102
}
330
605
100
AcDbXrecord
280
     1
102
RTVSPost2010Prop28
280
     0
102
RTVSPost2010PropOp28
 70
     1
102
RTVSPost2010Prop29
280
     1
102
RTVSPost2010PropOp29
 70
     1
102
RTVSPost2010Prop30
280
     1
102
RTVSPost2010PropOp30
 70
     1
102
RTVSPost2010Prop31
280
     0
102
RTVSPost2010PropOp31
 70
     1
102
RTVSPost2010Prop32
280
     0
102
RTVSPost2010PropOp32
 70
     1
102
RTVSPost2010Prop33
280
     0
102
RTVSPost2010PropOp33
 70
     1
102
RTVSPost2010Prop34
280
     0
102
RTVSPost2010PropOp34
 70
     1
102
RTVSPost2010Prop35
280
     0
102
RTVSPost2010PropOp35
 70
     1
102
RTVSPost2010Prop36
280
     0
102
RTVSPost2010PropOp36
 70
     1
102
RTVSPost2010Prop37
 90
       50
102
RTVSPost2010PropOp37
 70
     1
102
RTVSPost2010Prop38
140
0.0
102
RTVSPost2010PropOp38
 70
     1
102
RTVSPost2010Prop39
140
1.0
102
RTVSPost2010PropOp39
 70
     1
102
RTVSPost2010Prop40
 90
        0
102
RTVSPost2010PropOp40
 70
     1
102
RTVSPost2010Prop41ColorIndex
 90
       18
102
RTVSPost2010Prop41ColorRGB
 90
        0
102
RTVSPost2010PropOp41
 70
     1
102
RTVSPost2010Prop42
 90
       50
102
RTVSPost2010PropOp42
 70
     1
102
RTVSPost2010Prop43
 90
        3
102
RTVSPost2010PropOp43
 70
     1
102
RTVSPost2010Prop44ColorIndex
 90
        5
102
RTVSPost2010Prop44ColorRGB
 90
      255
102
RTVSPost2010PropOp44
 70
     1
102
RTVSPost2010Prop45
280
     0
102
RTVSPost2010PropOp45
 70
     1
102
RTVSPost2010Prop46
 90
       50
102
RTVSPost2010PropOp46
 70
     1
102
RTVSPost2010Prop47
 90
       50
102
RTVSPost2010PropOp47
 70
     1
102
RTVSPost2010Prop48
 90
       50
102
RTVSPost2010PropOp48
 70
     1
102
RTVSPost2010Prop49
280
     0
102
RTVSPost2010PropOp49
 70
     1
102
RTVSPost2010Prop50
 90
       50
102
RTVSPost2010PropOp50
 70
     1
102
RTVSPost2010Prop51ColorIndex
 90
      256
102
RTVSPost2010Prop51ColorRGB
 90
-16777216
102
RTVSPost2010PropOp51
 70
     0
102
RTVSPost2010Prop52
140
1.0
102
RTVSPost2010PropOp52
 70
     0
102
RTVSPost2010Prop53
 90
        2
102
RTVSPost2010PropOp53
 70
     1
102
RTVSPost2010Prop54
  1
strokes_ogs.tif
102
RTVSPost2010PropOp54
 70
     1
102
RTVSPost2010Prop55
280
     0
102
RTVSPost2010PropOp55
 70
     1
102
RTVSPost2010Prop56
140
1.0
102
RTVSPost2010PropOp56
 70
     1
102
RTVSPost2010Prop57
140
1.0
102
RTVSPost2010PropOp57
 70
     1
102
RTVSPropertyOp0
 70
     1
102
RTVSPropertyOp1
 70
     1
102
RTVSPropertyOp2
 70
     1
102
RTVSPropertyOp3
 70
     1
102
RTVSPropertyOp4
 70
     1
102
RTVSPropertyOp5
 70
     1
102
RTVSPropertyOp6
 70
     1
102
RTVSPropertyOp7
 70
     1
102
RTVSPropertyOp8
 70
     1
102
RTVSPropertyOp9
 70
     1
102
RTVSPropertyOp10
 70
     1
102
RTVSPropertyOp11
 70
     1
102
RTVSPropertyOp12
 70
     1
102
RTVSPropertyOp13
 70
     1
102
RTVSPropertyOp14
 70
     1
102
RTVSPropertyOp15
 70
     1
102
RTVSPropertyOp16
 70
     1
102
RTVSPropertyOp17
 70
     1
102
RTVSPropertyOp18
 70
     1
102
RTVSPropertyOp19
 70
     1
102
RTVSPropertyOp20
 70
     1
102
RTVSPropertyOp21
 70
     1
102
RTVSPropertyOp22
 70
     1
102
RTVSPropertyOp23
 70
     1
102
RTVSPropertyOp24
 70
     1
102
RTVSPropertyOp25
 70
     1
102
RTVSPropertyOp26
 70
     1
102
RTVSPropertyOp27
 70
     1
102
RTVSPropertyOp28
 70
     1
102
RTVSPropertyOp29
 70
     1
102
RTVSPropertyOp30
 70
     1
102
RTVSPropertyOp31
 70
     1
102
RTVSPropertyOp32
 70
     1
102
RTVSPropertyOp33
 70
     1
102
RTVSPropertyOp34
 70
     1
102
RTVSPropertyOp35
 70
     1
102
RTVSPropertyOp36
 70
     1
102
RTVSPropertyOp37
 70
     1
102
RTVSPropertyOp38
 70
     1
102
RTVSPropertyOp39
 70
     1
102
RTVSPropertyOp40
 70
     1
102
RTVSPropertyOp41
 70
     1
102
RTVSPropertyOp42
 70
     1
102
RTVSPropertyOp43
 70
     1
102
RTVSPropertyOp44
 70
     1
102
RTVSPropertyOp45
 70
     1
102
RTVSPropertyOp46
 70
     1
102
RTVSPropertyOp47
 70
     1
102
RTVSPropertyOp48
 70
     1
102
RTVSPropertyOp49
 70
     1
102
RTVSPropertyOp50
 70
     1
102
RTVSPropertyOp51
 70
     0
102
RTVSPropertyOp52
 70
     0
102
RTVSPropertyOp53
 70
     1
102
RTVSPropertyOp54
 70
     1
102
RTVSPropertyOp55
 70
     1
102
RTVSPropertyOp56
 70
     1
102
RTVSPropertyOp57
 70
     1
102
RTVSPropertyOp58
 70
     1
102
RTVSPropertyOp59
 70
     1
102
RTVSPropertyOp60
 70
     1
102
RTVSPropertyOp61
 70
     1
102
RTVSPropertyOp62
 70
     1
  0
XRECORD
  5
608
102
{ACAD_REACTORS
330
607
102
}
330
607
100
AcDbXrecord
280
     1
102
RTVSPost2010Prop28
280
     0
102
RTVSPost2010PropOp28
 70
     1
102
RTVSPost2010Prop29
280
     1
102
RTVSPost2010PropOp29
 70
     1
102
RTVSPost2010Prop30
280
     1
102
RTVSPost2010PropOp30
 70
     1
102
RTVSPost2010Prop31
280
     0
102
RTVSPost2010PropOp31
 70
     1
102
RTVSPost2010Prop32
280
     0
102
RTVSPost2010PropOp32
 70
     1
102
RTVSPost2010Prop33
280
     0
102
RTVSPost2010PropOp33
 70
     1
102
RTVSPost2010Prop34
280
     0
102
RTVSPost2010PropOp34
 70
     1
102
RTVSPost2010Prop35
280
     0
102
RTVSPost2010PropOp35
 70
     1
102
RTVSPost2010Prop36
280
     0
102
RTVSPost2010PropOp36
 70
     1
102
RTVSPost2010Prop37
 90
       50
102
RTVSPost2010PropOp37
 70
     1
102
RTVSPost2010Prop38
140
0.0
102
RTVSPost2010PropOp38
 70
     1
102
RTVSPost2010Prop39
140
1.0
102
RTVSPost2010PropOp39
 70
     1
102
RTVSPost2010Prop40
 90
        0
102
RTVSPost2010PropOp40
 70
     1
102
RTVSPost2010Prop41ColorIndex
 90
       18
102
RTVSPost2010Prop41ColorRGB
 90
        0
102
RTVSPost2010PropOp41
 70
     1
102
RTVSPost2010Prop42
 90
       50
102
RTVSPost2010PropOp42
 70
     1
102
RTVSPost2010Prop43
 90
        3
102
RTVSPost2010PropOp43
 70
     1
102
RTVSPost2010Prop44ColorIndex
 90
        5
102
RTVSPost2010Prop44ColorRGB
 90
      255
102
RTVSPost2010PropOp44
 70
     1
102
RTVSPost2010Prop45
280
     0
102
RTVSPost2010PropOp45
 70
     1
102
RTVSPost2010Prop46
 90
       50
102
RTVSPost2010PropOp46
 70
     1
102
RTVSPost2010Prop47
 90
       50
102
RTVSPost2010PropOp47
 70
     1
102
RTVSPost2010Prop48
 90
       50
102
RTVSPost2010PropOp48
 70
     1
102
RTVSPost2010Prop49
280
     0
102
RTVSPost2010PropOp49
 70
     1
102
RTVSPost2010Prop50
 90
       50
102
RTVSPost2010PropOp50
 70
     1
102
RTVSPost2010Prop51ColorIndex
 90
      256
102
RTVSPost2010Prop51ColorRGB
 90
-16777216
102
RTVSPost2010PropOp51
 70
     0
102
RTVSPost2010Prop52
140
1.0
102
RTVSPost2010PropOp52
 70
     0
102
RTVSPost2010Prop53
 90
        2
102
RTVSPost2010PropOp53
 70
     1
102
RTVSPost2010Prop54
  1
strokes_ogs.tif
102
RTVSPost2010PropOp54
 70
     1
102
RTVSPost2010Prop55
280
     0
102
RTVSPost2010PropOp55
 70
     1
102
RTVSPost2010Prop56
140
1.0
102
RTVSPost2010PropOp56
 70
     1
102
RTVSPost2010Prop57
140
1.0
102
RTVSPost2010PropOp57
 70
     1
102
RTVSPropertyOp0
 70
     1
102
RTVSPropertyOp1
 70
     1
102
RTVSPropertyOp2
 70
     1
102
RTVSPropertyOp3
 70
     1
102
RTVSPropertyOp4
 70
     1
102
RTVSPropertyOp5
 70
     1
102
RTVSPropertyOp6
 70
     1
102
RTVSPropertyOp7
 70
     1
102
RTVSPropertyOp8
 70
     1
102
RTVSPropertyOp9
 70
     1
102
RTVSPropertyOp10
 70
     1
102
RTVSPropertyOp11
 70
     1
102
RTVSPropertyOp12
 70
     1
102
RTVSPropertyOp13
 70
     1
102
RTVSPropertyOp14
 70
     1
102
RTVSPropertyOp15
 70
     1
102
RTVSPropertyOp16
 70
     1
102
RTVSPropertyOp17
 70
     1
102
RTVSPropertyOp18
 70
     1
102
RTVSPropertyOp19
 70
     1
102
RTVSPropertyOp20
 70
     1
102
RTVSPropertyOp21
 70
     1
102
RTVSPropertyOp22
 70
     1
102
RTVSPropertyOp23
 70
     1
102
RTVSPropertyOp24
 70
     1
102
RTVSPropertyOp25
 70
     1
102
RTVSPropertyOp26
 70
     1
102
RTVSPropertyOp27
 70
     1
102
RTVSPropertyOp28
 70
     1
102
RTVSPropertyOp29
 70
     1
102
RTVSPropertyOp30
 70
     1
102
RTVSPropertyOp31
 70
     1
102
RTVSPropertyOp32
 70
     1
102
RTVSPropertyOp33
 70
     1
102
RTVSPropertyOp34
 70
     1
102
RTVSPropertyOp35
 70
     1
102
RTVSPropertyOp36
 70
     1
102
RTVSPropertyOp37
 70
     1
102
RTVSPropertyOp38
 70
     1
102
RTVSPropertyOp39
 70
     1
102
RTVSPropertyOp40
 70
     1
102
RTVSPropertyOp41
 70
     1
102
RTVSPropertyOp42
 70
     1
102
RTVSPropertyOp43
 70
     1
102
RTVSPropertyOp44
 70
     1
102
RTVSPropertyOp45
 70
     1
102
RTVSPropertyOp46
 70
     1
102
RTVSPropertyOp47
 70
     1
102
RTVSPropertyOp48
 70
     1
102
RTVSPropertyOp49
 70
     1
102
RTVSPropertyOp50
 70
     1
102
RTVSPropertyOp51
 70
     0
102
RTVSPropertyOp52
 70
     0
102
RTVSPropertyOp53
 70
     1
102
RTVSPropertyOp54
 70
     1
102
RTVSPropertyOp55
 70
     1
102
RTVSPropertyOp56
 70
     1
102
RTVSPropertyOp57
 70
     1
102
RTVSPropertyOp58
 70
     1
102
RTVSPropertyOp59
 70
     1
102
RTVSPropertyOp60
 70
     1
102
RTVSPropertyOp61
 70
     1
102
RTVSPropertyOp62
 70
     1
  0
XRECORD
  5
5F8
102
{ACAD_REACTORS
330
5F7
102
}
330
5F7
100
AcDbXrecord
280
     1
102
RTVSPost2010Prop28
280
     0
102
RTVSPost2010PropOp28
 70
     1
102
RTVSPost2010Prop29
280
     1
102
RTVSPost2010PropOp29
 70
     1
102
RTVSPost2010Prop30
280
     1
102
RTVSPost2010PropOp30
 70
     1
102
RTVSPost2010Prop31
280
     0
102
RTVSPost2010PropOp31
 70
     1
102
RTVSPost2010Prop32
280
     0
102
RTVSPost2010PropOp32
 70
     1
102
RTVSPost2010Prop33
280
     0
102
RTVSPost2010PropOp33
 70
     1
102
RTVSPost2010Prop34
280
     0
102
RTVSPost2010PropOp34
 70
     1
102
RTVSPost2010Prop35
280
     0
102
RTVSPost2010PropOp35
 70
     1
102
RTVSPost2010Prop36
280
     0
102
RTVSPost2010PropOp36
 70
     1
102
RTVSPost2010Prop37
 90
       50
102
RTVSPost2010PropOp37
 70
     1
102
RTVSPost2010Prop38
140
0.0
102
RTVSPost2010PropOp38
 70
     1
102
RTVSPost2010Prop39
140
1.0
102
RTVSPost2010PropOp39
 70
     1
102
RTVSPost2010Prop40
 90
        0
102
RTVSPost2010PropOp40
 70
     1
102
RTVSPost2010Prop41ColorIndex
 90
       18
102
RTVSPost2010Prop41ColorRGB
 90
        0
102
RTVSPost2010PropOp41
 70
     1
102
RTVSPost2010Prop42
 90
       50
102
RTVSPost2010PropOp42
 70
     1
102
RTVSPost2010Prop43
 90
        3
102
RTVSPost2010PropOp43
 70
     1
102
RTVSPost2010Prop44ColorIndex
 90
        5
102
RTVSPost2010Prop44ColorRGB
 90
      255
102
RTVSPost2010PropOp44
 70
     1
102
RTVSPost2010Prop45
280
     0
102
RTVSPost2010PropOp45
 70
     1
102
RTVSPost2010Prop46
 90
       50
102
RTVSPost2010PropOp46
 70
     1
102
RTVSPost2010Prop47
 90
       50
102
RTVSPost2010PropOp47
 70
     1
102
RTVSPost2010Prop48
 90
       50
102
RTVSPost2010PropOp48
 70
     1
102
RTVSPost2010Prop49
280
     0
102
RTVSPost2010PropOp49
 70
     1
102
RTVSPost2010Prop50
 90
       50
102
RTVSPost2010PropOp50
 70
     1
102
RTVSPost2010Prop51ColorIndex
 90
      256
102
RTVSPost2010Prop51ColorRGB
 90
-16777216
102
RTVSPost2010PropOp51
 70
     0
102
RTVSPost2010Prop52
140
1.0
102
RTVSPost2010PropOp52
 70
     0
102
RTVSPost2010Prop53
 90
        2
102
RTVSPost2010PropOp53
 70
     1
102
RTVSPost2010Prop54
  1
strokes_ogs.tif
102
RTVSPost2010PropOp54
 70
     1
102
RTVSPost2010Prop55
280
     0
102
RTVSPost2010PropOp55
 70
     1
102
RTVSPost2010Prop56
140
1.0
102
RTVSPost2010PropOp56
 70
     1
102
RTVSPost2010Prop57
140
1.0
102
RTVSPost2010PropOp57
 70
     1
102
RTVSPropertyOp0
 70
     1
102
RTVSPropertyOp1
 70
     1
102
RTVSPropertyOp2
 70
     1
102
RTVSPropertyOp3
 70
     1
102
RTVSPropertyOp4
 70
     1
102
RTVSPropertyOp5
 70
     1
102
RTVSPropertyOp6
 70
     1
102
RTVSPropertyOp7
 70
     1
102
RTVSPropertyOp8
 70
     1
102
RTVSPropertyOp9
 70
     1
102
RTVSPropertyOp10
 70
     1
102
RTVSPropertyOp11
 70
     1
102
RTVSPropertyOp12
 70
     1
102
RTVSPropertyOp13
 70
     1
102
RTVSPropertyOp14
 70
     1
102
RTVSPropertyOp15
 70
     1
102
RTVSPropertyOp16
 70
     1
102
RTVSPropertyOp17
 70
     1
102
RTVSPropertyOp18
 70
     1
102
RTVSPropertyOp19
 70
     1
102
RTVSPropertyOp20
 70
     1
102
RTVSPropertyOp21
 70
     1
102
RTVSPropertyOp22
 70
     1
102
RTVSPropertyOp23
 70
     1
102
RTVSPropertyOp24
 70
     1
102
RTVSPropertyOp25
 70
     1
102
RTVSPropertyOp26
 70
     1
102
RTVSPropertyOp27
 70
     1
102
RTVSPropertyOp28
 70
     1
102
RTVSPropertyOp29
 70
     1
102
RTVSPropertyOp30
 70
     1
102
RTVSPropertyOp31
 70
     1
102
RTVSPropertyOp32
 70
     1
102
RTVSPropertyOp33
 70
     1
102
RTVSPropertyOp34
 70
     1
102
RTVSPropertyOp35
 70
     1
102
RTVSPropertyOp36
 70
     1
102
RTVSPropertyOp37
 70
     1
102
RTVSPropertyOp38
 70
     1
102
RTVSPropertyOp39
 70
     1
102
RTVSPropertyOp40
 70
     1
102
RTVSPropertyOp41
 70
     1
102
RTVSPropertyOp42
 70
     1
102
RTVSPropertyOp43
 70
     1
102
RTVSPropertyOp44
 70
     1
102
RTVSPropertyOp45
 70
     1
102
RTVSPropertyOp46
 70
     1
102
RTVSPropertyOp47
 70
     1
102
RTVSPropertyOp48
 70
     1
102
RTVSPropertyOp49
 70
     1
102
RTVSPropertyOp50
 70
     1
102
RTVSPropertyOp51
 70
     0
102
RTVSPropertyOp52
 70
     0
102
RTVSPropertyOp53
 70
     1
102
RTVSPropertyOp54
 70
     1
102
RTVSPropertyOp55
 70
     1
102
RTVSPropertyOp56
 70
     1
102
RTVSPropertyOp57
 70
     1
102
RTVSPropertyOp58
 70
     1
102
RTVSPropertyOp59
 70
     1
102
RTVSPropertyOp60
 70
     1
102
RTVSPropertyOp61
 70
     1
102
RTVSPropertyOp62
 70
     1
  0
XRECORD
  5
5EC
102
{ACAD_REACTORS
330
5EB
102
}
330
5EB
100
AcDbXrecord
280
     1
102
RTVSPost2010Prop28
280
     0
102
RTVSPost2010PropOp28
 70
     1
102
RTVSPost2010Prop29
280
     1
102
RTVSPost2010PropOp29
 70
     1
102
RTVSPost2010Prop30
280
     1
102
RTVSPost2010PropOp30
 70
     1
102
RTVSPost2010Prop31
280
     0
102
RTVSPost2010PropOp31
 70
     1
102
RTVSPost2010Prop32
280
     0
102
RTVSPost2010PropOp32
 70
     1
102
RTVSPost2010Prop33
280
     0
102
RTVSPost2010PropOp33
 70
     1
102
RTVSPost2010Prop34
280
     0
102
RTVSPost2010PropOp34
 70
     1
102
RTVSPost2010Prop35
280
     0
102
RTVSPost2010PropOp35
 70
     1
102
RTVSPost2010Prop36
280
     0
102
RTVSPost2010PropOp36
 70
     1
102
RTVSPost2010Prop37
 90
       50
102
RTVSPost2010PropOp37
 70
     1
102
RTVSPost2010Prop38
140
0.0
102
RTVSPost2010PropOp38
 70
     1
102
RTVSPost2010Prop39
140
1.0
102
RTVSPost2010PropOp39
 70
     1
102
RTVSPost2010Prop40
 90
        0
102
RTVSPost2010PropOp40
 70
     1
102
RTVSPost2010Prop41ColorIndex
 90
       18
102
RTVSPost2010Prop41ColorRGB
 90
        0
102
RTVSPost2010PropOp41
 70
     1
102
RTVSPost2010Prop42
 90
       50
102
RTVSPost2010PropOp42
 70
     1
102
RTVSPost2010Prop43
 90
        3
102
RTVSPost2010PropOp43
 70
     1
102
RTVSPost2010Prop44ColorIndex
 90
        5
102
RTVSPost2010Prop44ColorRGB
 90
      255
102
RTVSPost2010PropOp44
 70
     1
102
RTVSPost2010Prop45
280
     0
102
RTVSPost2010PropOp45
 70
     1
102
RTVSPost2010Prop46
 90
       50
102
RTVSPost2010PropOp46
 70
     1
102
RTVSPost2010Prop47
 90
       50
102
RTVSPost2010PropOp47
 70
     1
102
RTVSPost2010Prop48
 90
       50
102
RTVSPost2010PropOp48
 70
     1
102
RTVSPost2010Prop49
280
     0
102
RTVSPost2010PropOp49
 70
     1
102
RTVSPost2010Prop50
 90
       50
102
RTVSPost2010PropOp50
 70
     1
102
RTVSPost2010Prop51ColorIndex
 90
      256
102
RTVSPost2010Prop51ColorRGB
 90
-16777216
102
RTVSPost2010PropOp51
 70
     0
102
RTVSPost2010Prop52
140
1.0
102
RTVSPost2010PropOp52
 70
     0
102
RTVSPost2010Prop53
 90
        2
102
RTVSPost2010PropOp53
 70
     1
102
RTVSPost2010Prop54
  1
strokes_ogs.tif
102
RTVSPost2010PropOp54
 70
     1
102
RTVSPost2010Prop55
280
     0
102
RTVSPost2010PropOp55
 70
     1
102
RTVSPost2010Prop56
140
1.0
102
RTVSPost2010PropOp56
 70
     1
102
RTVSPost2010Prop57
140
1.0
102
RTVSPost2010PropOp57
 70
     1
102
RTVSPropertyOp0
 70
     1
102
RTVSPropertyOp1
 70
     1
102
RTVSPropertyOp2
 70
     1
102
RTVSPropertyOp3
 70
     1
102
RTVSPropertyOp4
 70
     1
102
RTVSPropertyOp5
 70
     1
102
RTVSPropertyOp6
 70
     1
102
RTVSPropertyOp7
 70
     1
102
RTVSPropertyOp8
 70
     1
102
RTVSPropertyOp9
 70
     1
102
RTVSPropertyOp10
 70
     1
102
RTVSPropertyOp11
 70
     1
102
RTVSPropertyOp12
 70
     1
102
RTVSPropertyOp13
 70
     1
102
RTVSPropertyOp14
 70
     1
102
RTVSPropertyOp15
 70
     1
102
RTVSPropertyOp16
 70
     1
102
RTVSPropertyOp17
 70
     1
102
RTVSPropertyOp18
 70
     1
102
RTVSPropertyOp19
 70
     1
102
RTVSPropertyOp20
 70
     1
102
RTVSPropertyOp21
 70
     1
102
RTVSPropertyOp22
 70
     1
102
RTVSPropertyOp23
 70
     1
102
RTVSPropertyOp24
 70
     1
102
RTVSPropertyOp25
 70
     1
102
RTVSPropertyOp26
 70
     1
102
RTVSPropertyOp27
 70
     1
102
RTVSPropertyOp28
 70
     1
102
RTVSPropertyOp29
 70
     1
102
RTVSPropertyOp30
 70
     1
102
RTVSPropertyOp31
 70
     1
102
RTVSPropertyOp32
 70
     1
102
RTVSPropertyOp33
 70
     1
102
RTVSPropertyOp34
 70
     1
102
RTVSPropertyOp35
 70
     1
102
RTVSPropertyOp36
 70
     1
102
RTVSPropertyOp37
 70
     1
102
RTVSPropertyOp38
 70
     1
102
RTVSPropertyOp39
 70
     1
102
RTVSPropertyOp40
 70
     1
102
RTVSPropertyOp41
 70
     1
102
RTVSPropertyOp42
 70
     1
102
RTVSPropertyOp43
 70
     1
102
RTVSPropertyOp44
 70
     1
102
RTVSPropertyOp45
 70
     1
102
RTVSPropertyOp46
 70
     1
102
RTVSPropertyOp47
 70
     1
102
RTVSPropertyOp48
 70
     1
102
RTVSPropertyOp49
 70
     1
102
RTVSPropertyOp50
 70
     1
102
RTVSPropertyOp51
 70
     0
102
RTVSPropertyOp52
 70
     0
102
RTVSPropertyOp53
 70
     1
102
RTVSPropertyOp54
 70
     1
102
RTVSPropertyOp55
 70
     1
102
RTVSPropertyOp56
 70
     1
102
RTVSPropertyOp57
 70
     1
102
RTVSPropertyOp58
 70
     1
102
RTVSPropertyOp59
 70
     1
102
RTVSPropertyOp60
 70
     1
102
RTVSPropertyOp61
 70
     1
102
RTVSPropertyOp62
 70
     1
  0
XRECORD
  5
60A
102
{ACAD_REACTORS
330
609
102
}
330
609
100
AcDbXrecord
280
     1
102
RTVSPost2010Prop28
280
     0
102
RTVSPost2010PropOp28
 70
     1
102
RTVSPost2010Prop29
280
     1
102
RTVSPost2010PropOp29
 70
     1
102
RTVSPost2010Prop30
280
     1
102
RTVSPost2010PropOp30
 70
     1
102
RTVSPost2010Prop31
280
     0
102
RTVSPost2010PropOp31
 70
     1
102
RTVSPost2010Prop32
280
     0
102
RTVSPost2010PropOp32
 70
     1
102
RTVSPost2010Prop33
280
     0
102
RTVSPost2010PropOp33
 70
     1
102
RTVSPost2010Prop34
280
     0
102
RTVSPost2010PropOp34
 70
     1
102
RTVSPost2010Prop35
280
     0
102
RTVSPost2010PropOp35
 70
     1
102
RTVSPost2010Prop36
280
     0
102
RTVSPost2010PropOp36
 70
     1
102
RTVSPost2010Prop37
 90
       50
102
RTVSPost2010PropOp37
 70
     1
102
RTVSPost2010Prop38
140
0.0
102
RTVSPost2010PropOp38
 70
     1
102
RTVSPost2010Prop39
140
1.0
102
RTVSPost2010PropOp39
 70
     1
102
RTVSPost2010Prop40
 90
        0
102
RTVSPost2010PropOp40
 70
     1
102
RTVSPost2010Prop41ColorIndex
 90
       18
102
RTVSPost2010Prop41ColorRGB
 90
        0
102
RTVSPost2010PropOp41
 70
     1
102
RTVSPost2010Prop42
 90
       50
102
RTVSPost2010PropOp42
 70
     1
102
RTVSPost2010Prop43
 90
        3
102
RTVSPost2010PropOp43
 70
     1
102
RTVSPost2010Prop44ColorIndex
 90
        5
102
RTVSPost2010Prop44ColorRGB
 90
      255
102
RTVSPost2010PropOp44
 70
     1
102
RTVSPost2010Prop45
280
     0
102
RTVSPost2010PropOp45
 70
     1
102
RTVSPost2010Prop46
 90
       50
102
RTVSPost2010PropOp46
 70
     1
102
RTVSPost2010Prop47
 90
       50
102
RTVSPost2010PropOp47
 70
     1
102
RTVSPost2010Prop48
 90
       50
102
RTVSPost2010PropOp48
 70
     1
102
RTVSPost2010Prop49
280
     0
102
RTVSPost2010PropOp49
 70
     1
102
RTVSPost2010Prop50
 90
       50
102
RTVSPost2010PropOp50
 70
     1
102
RTVSPost2010Prop51ColorIndex
 90
      256
102
RTVSPost2010Prop51ColorRGB
 90
-16777216
102
RTVSPost2010PropOp51
 70
     0
102
RTVSPost2010Prop52
140
1.0
102
RTVSPost2010PropOp52
 70
     0
102
RTVSPost2010Prop53
 90
        2
102
RTVSPost2010PropOp53
 70
     1
102
RTVSPost2010Prop54
  1
strokes_ogs.tif
102
RTVSPost2010PropOp54
 70
     1
102
RTVSPost2010Prop55
280
     0
102
RTVSPost2010PropOp55
 70
     1
102
RTVSPost2010Prop56
140
1.0
102
RTVSPost2010PropOp56
 70
     1
102
RTVSPost2010Prop57
140
1.0
102
RTVSPost2010PropOp57
 70
     1
102
RTVSPropertyOp0
 70
     1
102
RTVSPropertyOp1
 70
     1
102
RTVSPropertyOp2
 70
     1
102
RTVSPropertyOp3
 70
     1
102
RTVSPropertyOp4
 70
     1
102
RTVSPropertyOp5
 70
     1
102
RTVSPropertyOp6
 70
     1
102
RTVSPropertyOp7
 70
     1
102
RTVSPropertyOp8
 70
     1
102
RTVSPropertyOp9
 70
     1
102
RTVSPropertyOp10
 70
     1
102
RTVSPropertyOp11
 70
     1
102
RTVSPropertyOp12
 70
     1
102
RTVSPropertyOp13
 70
     1
102
RTVSPropertyOp14
 70
     1
102
RTVSPropertyOp15
 70
     1
102
RTVSPropertyOp16
 70
     1
102
RTVSPropertyOp17
 70
     1
102
RTVSPropertyOp18
 70
     1
102
RTVSPropertyOp19
 70
     1
102
RTVSPropertyOp20
 70
     1
102
RTVSPropertyOp21
 70
     1
102
RTVSPropertyOp22
 70
     1
102
RTVSPropertyOp23
 70
     1
102
RTVSPropertyOp24
 70
     1
102
RTVSPropertyOp25
 70
     1
102
RTVSPropertyOp26
 70
     1
102
RTVSPropertyOp27
 70
     1
102
RTVSPropertyOp28
 70
     1
102
RTVSPropertyOp29
 70
     1
102
RTVSPropertyOp30
 70
     1
102
RTVSPropertyOp31
 70
     1
102
RTVSPropertyOp32
 70
     1
102
RTVSPropertyOp33
 70
     1
102
RTVSPropertyOp34
 70
     1
102
RTVSPropertyOp35
 70
     1
102
RTVSPropertyOp36
 70
     1
102
RTVSPropertyOp37
 70
     1
102
RTVSPropertyOp38
 70
     1
102
RTVSPropertyOp39
 70
     1
102
RTVSPropertyOp40
 70
     1
102
RTVSPropertyOp41
 70
     1
102
RTVSPropertyOp42
 70
     1
102
RTVSPropertyOp43
 70
     1
102
RTVSPropertyOp44
 70
     1
102
RTVSPropertyOp45
 70
     1
102
RTVSPropertyOp46
 70
     1
102
RTVSPropertyOp47
 70
     1
102
RTVSPropertyOp48
 70
     1
102
RTVSPropertyOp49
 70
     1
102
RTVSPropertyOp50
 70
     1
102
RTVSPropertyOp51
 70
     0
102
RTVSPropertyOp52
 70
     0
102
RTVSPropertyOp53
 70
     1
102
RTVSPropertyOp54
 70
     1
102
RTVSPropertyOp55
 70
     1
102
RTVSPropertyOp56
 70
     1
102
RTVSPropertyOp57
 70
     1
102
RTVSPropertyOp58
 70
     1
102
RTVSPropertyOp59
 70
     1
102
RTVSPropertyOp60
 70
     1
102
RTVSPropertyOp61
 70
     1
102
RTVSPropertyOp62
 70
     1
  0
ENDSEC
  0
EOF
