  0
SECTION
  2
HEADER
  9
$ACADVER
  1
AC1018
  9
$ACADMAINTVER
 70
     0
  9
$DWGCODEPAGE
  3
ANSI_1252
  9
$INSBASE
 10
0.0
 20
0.0
 30
0.0
  9
$EXTMIN
 10
1.000000000000000E+20
 20
1.000000000000000E+20
 30
1.000000000000000E+20
  9
$EXTMAX
 10
-1.000000000000000E+20
 20
-1.000000000000000E+20
 30
-1.000000000000000E+20
  9
$LIMMIN
 10
0.0
 20
0.0
  9
$LIMMAX
 10
12.0
 20
9.0
  9
$ORTHOMODE
 70
     0
  9
$REGENMODE
 70
     1
  9
$FILLMODE
 70
     1
  9
$QTEXTMODE
 70
     0
  9
$MIRRTEXT
 70
     1
  9
$LTSCALE
 40
1.0
  9
$ATTMODE
 70
     1
  9
$TEXTSIZE
 40
0.2
  9
$TRACEWID
 40
0.05
  9
$TEXTSTYLE
  7
Standard
  9
$CLAYER
  8
0
  9
$CELTYPE
  6
ByLayer
  9
$CECOLOR
 62
   256
  9
$CELTSCALE
 40
1.0
  9
$DISPSILH
 70
     0
  9
$DIMSCALE
 40
1.0
  9
$DIMASZ
 40
0.18
  9
$DIMEXO
 40
0.0625
  9
$DIMDLI
 40
0.38
  9
$DIMRND
 40
0.0
  9
$DIMDLE
 40
0.0
  9
$DIMEXE
 40
0.18
  9
$DIMTP
 40
0.0
  9
$DIMTM
 40
0.0
  9
$DIMTXT
 40
0.18
  9
$DIMCEN
 40
0.09
  9
$DIMTSZ
 40
0.0
  9
$DIMTOL
 70
     0
  9
$DIMLIM
 70
     0
  9
$DIMTIH
 70
     1
  9
$DIMTOH
 70
     1
  9
$DIMSE1
 70
     0
  9
$DIMSE2
 70
     0
  9
$DIMTAD
 70
     0
  9
$DIMZIN
 70
     0
  9
$DIMBLK
  1

  9
$DIMASO
 70
     1
  9
$DIMSHO
 70
     1
  9
$DIMPOST
  1

  9
$DIMAPOST
  1

  9
$DIMALT
 70
     0
  9
$DIMALTD
 70
     2
  9
$DIMALTF
 40
25.4
  9
$DIMLFAC
 40
1.0
  9
$DIMTOFL
 70
     0
  9
$DIMTVP
 40
0.0
  9
$DIMTIX
 70
     0
  9
$DIMSOXD
 70
     0
  9
$DIMSAH
 70
     0
  9
$DIMBLK1
  1

  9
$DIMBLK2
  1

  9
$DIMSTYLE
  2
Standard
  9
$DIMCLRD
 70
     0
  9
$DIMCLRE
 70
     0
  9
$DIMCLRT
 70
     0
  9
$DIMTFAC
 40
1.0
  9
$DIMGAP
 40
0.09
  9
$DIMJUST
 70
     0
  9
$DIMSD1
 70
     0
  9
$DIMSD2
 70
     0
  9
$DIMTOLJ
 70
     1
  9
$DIMTZIN
 70
     0
  9
$DIMALTZ
 70
     0
  9
$DIMALTTZ
 70
     0
  9
$DIMUPT
 70
     0
  9
$DIMDEC
 70
     4
  9
$DIMTDEC
 70
     4
  9
$DIMALTU
 70
     2
  9
$DIMALTTD
 70
     2
  9
$DIMTXSTY
  7
Standard
  9
$DIMAUNIT
 70
     0
  9
$DIMADEC
 70
     0
  9
$DIMALTRND
 40
0.0
  9
$DIMAZIN
 70
     0
  9
$DIMDSEP
 70
    46
  9
$DIMATFIT
 70
     3
  9
$DIMFRAC
 70
     0
  9
$DIMLDRBLK
  1

  9
$DIMLUNIT
 70
     2
  9
$DIMLWD
 70
    -2
  9
$DIMLWE
 70
    -2
  9
$DIMTMOVE
 70
     0
  9
$LUNITS
 70
     2
  9
$LUPREC
 70
     4
  9
$SKETCHINC
 40
0.1
  9
$FILLETRAD
 40
0.5
  9
$AUNITS
 70
     0
  9
$AUPREC
 70
     0
  9
$MENU
  1
.
  9
$ELEVATION
 40
0.0
  9
$PELEVATION
 40
0.0
  9
$THICKNESS
 40
0.0
  9
$LIMCHECK
 70
     0
  9
$CHAMFERA
 40
0.5
  9
$CHAMFERB
 40
0.5
  9
$CHAMFERC
 40
1.0
  9
$CHAMFERD
 40
0.0
  9
$SKPOLY
 70
     0
  9
$TDCREATE
 40
2457548.34520846
  9
$TDUCREATE
 40
2457548.261875127
  9
$TDUPDATE
 40
2457548.345208472
  9
$TDUUPDATE
 40
2457548.261875139
  9
$TDINDWG
 40
0.0000000116
  9
$TDUSRTIMER
 40
0.0000000116
  9
$USRTIMER
 70
     1
  9
$ANGBASE
 50
0.0
  9
$ANGDIR
 70
     0
  9
$PDMODE
 70
     0
  9
$PDSIZE
 40
0.0
  9
$PLINEWID
 40
0.0
  9
$SPLFRAME
 70
     0
  9
$SPLINETYPE
 70
     6
  9
$SPLINESEGS
 70
     8
  9
$HANDSEED
  5
510
  9
$SURFTAB1
 70
     6
  9
$SURFTAB2
 70
     6
  9
$SURFTYPE
 70
     6
  9
$SURFU
 70
     6
  9
$SURFV
 70
     6
  9
$UCSBASE
  2

  9
$UCSNAME
  2

  9
$UCSORG
 10
0.0
 20
0.0
 30
0.0
  9
$UCSXDIR
 10
1.0
 20
0.0
 30
0.0
  9
$UCSYDIR
 10
0.0
 20
1.0
 30
0.0
  9
$UCSORTHOREF
  2

  9
$UCSORTHOVIEW
 70
     0
  9
$UCSORGTOP
 10
0.0
 20
0.0
 30
0.0
  9
$UCSORGBOTTOM
 10
0.0
 20
0.0
 30
0.0
  9
$UCSORGLEFT
 10
0.0
 20
0.0
 30
0.0
  9
$UCSORGRIGHT
 10
0.0
 20
0.0
 30
0.0
  9
$UCSORGFRONT
 10
0.0
 20
0.0
 30
0.0
  9
$UCSORGBACK
 10
0.0
 20
0.0
 30
0.0
  9
$PUCSBASE
  2

  9
$PUCSNAME
  2

  9
$PUCSORG
 10
0.0
 20
0.0
 30
0.0
  9
$PUCSXDIR
 10
1.0
 20
0.0
 30
0.0
  9
$PUCSYDIR
 10
0.0
 20
1.0
 30
0.0
  9
$PUCSORTHOREF
  2

  9
$PUCSORTHOVIEW
 70
     0
  9
$PUCSORGTOP
 10
0.0
 20
0.0
 30
0.0
  9
$PUCSORGBOTTOM
 10
0.0
 20
0.0
 30
0.0
  9
$PUCSORGLEFT
 10
0.0
 20
0.0
 30
0.0
  9
$PUCSORGRIGHT
 10
0.0
 20
0.0
 30
0.0
  9
$PUCSORGFRONT
 10
0.0
 20
0.0
 30
0.0
  9
$PUCSORGBACK
 10
0.0
 20
0.0
 30
0.0
  9
$USERI1
 70
     0
  9
$USERI2
 70
     0
  9
$USERI3
 70
     0
  9
$USERI4
 70
     0
  9
$USERI5
 70
     0
  9
$USERR1
 40
0.0
  9
$USERR2
 40
0.0
  9
$USERR3
 40
0.0
  9
$USERR4
 40
0.0
  9
$USERR5
 40
0.0
  9
$WORLDVIEW
 70
     1
  9
$SHADEDGE
 70
     3
  9
$SHADEDIF
 70
    70
  9
$TILEMODE
 70
     1
  9
$MAXACTVP
 70
    64
  9
$PINSBASE
 10
0.0
 20
0.0
 30
0.0
  9
$PLIMCHECK
 70
     0
  9
$PEXTMIN
 10
1.000000000000000E+20
 20
1.000000000000000E+20
 30
1.000000000000000E+20
  9
$PEXTMAX
 10
-1.000000000000000E+20
 20
-1.000000000000000E+20
 30
-1.000000000000000E+20
  9
$PLIMMIN
 10
0.0
 20
0.0
  9
$PLIMMAX
 10
12.0
 20
9.0
  9
$UNITMODE
 70
     0
  9
$VISRETAIN
 70
     1
  9
$PLINEGEN
 70
     0
  9
$PSLTSCALE
 70
     1
  9
$TREEDEPTH
 70
  3020
  9
$CMLSTYLE
  2
Standard
  9
$CMLJUST
 70
     0
  9
$CMLSCALE
 40
1.0
  9
$PROXYGRAPHICS
 70
     1
  9
$MEASUREMENT
 70
     0
  9
$CELWEIGHT
370
    -1
  9
$ENDCAPS
280
     0
  9
$JOINSTYLE
280
     0
  9
$LWDISPLAY
290
     1
  9
$INSUNITS
 70
     1
  9
$HYPERLINKBASE
  1

  9
$STYLESHEET
  1

  9
$XEDIT
290
     1
  9
$CEPSNTYPE
380
     0
  9
$PSTYLEMODE
290
     1
  9
$FINGERPRINTGUID
  2
{DD69DAEF-ABBF-4562-AF9D-84CEA9B7B487}
  9
$VERSIONGUID
  2
{FAEB1C32-E019-11D5-929B-00C0DF256EC4}
  9
$EXTNAMES
290
     1
  9
$PSVPSCALE
 40
0.0
  9
$OLESTARTUP
290
     0
  9
$SORTENTS
280
   127
  9
$INDEXCTL
280
     0
  9
$HIDETEXT
280
     1
  9
$XCLIPFRAME
290
     0
  9
$HALOGAP
280
     0
  9
$OBSCOLOR
 70
   257
  9
$OBSLTYPE
280
     0
  9
$INTERSECTIONDISPLAY
280
     0
  9
$INTERSECTIONCOLOR
 70
   257
  9
$DIMASSOC
280
     2
  9
$PROJECTNAME
  1

  0
ENDSEC
  0
SECTION
  2
CLASSES
  0
CLASS
  1
ACDBDICTIONARYWDFLT
  2
AcDbDictionaryWithDefault
  3
ObjectDBX Classes
 90
        0
 91
        3
280
     0
281
     0
  0
CLASS
  1
VISUALSTYLE
  2
AcDbVisualStyle
  3
ObjectDBX Classes
 90
     4095
 91
        3
280
     0
281
     0
  0
ENDSEC
  0
SECTION
  2
TABLES
  0
TABLE
  2
VPORT
  5
8
330
0
100
AcDbSymbolTable
 70
     1
  0
VPORT
  5
29
330
8
100
AcDbSymbolTableRecord
100
AcDbViewportTableRecord
  2
*Active
 70
     0
 10
0.0
 20
0.0
 11
1.0
 21
1.0
 12
0.0
 22
0.0
 13
0.0
 23
0.0
 14
0.5
 24
0.5
 15
0.5
 25
0.5
 16
0.0
 26
0.0
 36
1.0
 17
102.4171766237013
 27
-146.339732493797
 37
0.0
 40
256.1421603092284
 41
0.9214873476458577
 42
50.0
 43
0.0
 44
0.0
 50
0.0
 51
0.0
 71
     0
 72
   100
 73
     1
 74
     3
 75
     0
 76
     0
 77
     0
 78
     0
281
     0
 65
     1
110
0.0
120
0.0
130
0.0
111
1.0
121
0.0
131
0.0
112
0.0
122
1.0
132
0.0
 79
     0
146
0.0
  0
ENDTAB
  0
TABLE
  2
LTYPE
  5
5
330
0
100
AcDbSymbolTable
 70
     1
  0
LTYPE
  5
14
330
5
100
AcDbSymbolTableRecord
100
AcDbLinetypeTableRecord
  2
ByBlock
 70
     0
  3

 72
    65
 73
     0
 40
0.0
  0
LTYPE
  5
15
330
5
100
AcDbSymbolTableRecord
100
AcDbLinetypeTableRecord
  2
ByLayer
 70
     0
  3

 72
    65
 73
     0
 40
0.0
  0
LTYPE
  5
16
330
5
100
AcDbSymbolTableRecord
100
AcDbLinetypeTableRecord
  2
Continuous
 70
     0
  3
Solid line
 72
    65
 73
     0
 40
0.0
  0
ENDTAB
  0
TABLE
  2
LAYER
  5
2
330
0
100
AcDbSymbolTable
 70
     2
  0
LAYER
  5
10
330
2
100
AcDbSymbolTableRecord
100
AcDbLayerTableRecord
  2
0
 70
     0
 62
     7
  6
Continuous
370
    -3
390
F
  0
LAYER
  5
3B
330
2
100
AcDbSymbolTableRecord
100
AcDbLayerTableRecord
  2
Capa 1
 70
     0
 62
     7
  6
Continuous
370
    -3
390
F
  0
ENDTAB
  0
TABLE
  2
STYLE
  5
3
330
0
100
AcDbSymbolTable
 70
     1
  0
STYLE
  5
11
330
3
100
AcDbSymbolTableRecord
100
AcDbTextStyleTableRecord
  2
Standard
 70
     0
 40
0.0
 41
1.0
 50
0.0
 71
     0
 42
0.2
  3
txt
  4

  0
ENDTAB
  0
TABLE
  2
VIEW
  5
6
330
0
100
AcDbSymbolTable
 70
     0
  0
ENDTAB
  0
TABLE
  2
UCS
  5
7
330
0
100
AcDbSymbolTable
 70
     0
  0
ENDTAB
  0
TABLE
  2
APPID
  5
9
330
0
100
AcDbSymbolTable
 70
     1
  0
APPID
  5
12
330
9
100
AcDbSymbolTableRecord
100
AcDbRegAppTableRecord
  2
ACAD
 70
     0
  0
ENDTAB
  0
TABLE
  2
DIMSTYLE
  5
A
330
0
100
AcDbSymbolTable
 70
     1
100
AcDbDimStyleTable
  0
DIMSTYLE
105
27
330
A
100
AcDbSymbolTableRecord
100
AcDbDimStyleTableRecord
  2
Standard
 70
     0
340
11
  0
ENDTAB
  0
TABLE
  2
BLOCK_RECORD
  5
1
330
0
100
AcDbSymbolTable
 70
     2
  0
BLOCK_RECORD
  5
1F
330
1
100
AcDbSymbolTableRecord
100
AcDbBlockTableRecord
  2
*Model_Space
340
22
  0
BLOCK_RECORD
  5
1B
330
1
100
AcDbSymbolTableRecord
100
AcDbBlockTableRecord
  2
*Paper_Space
340
1E
  0
BLOCK_RECORD
  5
23
330
1
100
AcDbSymbolTableRecord
100
AcDbBlockTableRecord
  2
*Paper_Space0
340
26
  0
BLOCK_RECORD
  5
3C
330
1
100
AcDbSymbolTableRecord
100
AcDbBlockTableRecord
  2
block 2
340
0
102
{BLKREFS
331
3D
102
}
  0
ENDTAB
  0
ENDSEC
  0
SECTION
  2
BLOCKS
  0
BLOCK
  5
20
330
1F
100
AcDbEntity
  8
0
100
AcDbBlockBegin
  2
*Model_Space
 70
     0
 71
     0
 10
0.0
 20
0.0
 30
0.0
  3
*Model_Space
  1

  0
ENDBLK
  5
21
330
1F
100
AcDbEntity
  8
0
100
AcDbBlockEnd
  0
BLOCK
  5
1C
330
1B
100
AcDbEntity
 67
     1
  8
0
100
AcDbBlockBegin
  2
*Paper_Space
 70
     0
 71
     0
 10
0.0
 20
0.0
 30
0.0
  3
*Paper_Space
  1

  0
ENDBLK
  5
1D
330
1B
100
AcDbEntity
 67
     1
  8
0
100
AcDbBlockEnd
  0
BLOCK
  5
24
330
23
100
AcDbEntity
  8
0
100
AcDbBlockBegin
  2
*Paper_Space0
 70
     0
 71
     0
 10
0.0
 20
0.0
 30
0.0
  3
*Paper_Space0
  1

  0
ENDBLK
  5
25
330
23
100
AcDbEntity
  8
0
100
AcDbBlockEnd
  0
BLOCK
  5
3E
330
3C
100
AcDbEntity
  8
0
100
AcDbBlockBegin
  2
block 2
 70
     0
 71
     0
 10
0.0
 20
0.0
 30
0.0
  3
block 2
  1

  0
POLYLINE
  5
40
330
3C
100
AcDbEntity
  8
Capa 1
 62
     7
420
 16777215
370
     9
100
AcDb2dPolyline
 66
     1
 10
0.0
 20
0.0
 30
0.0
  0
VERTEX
  5
41
330
40
100
AcDbEntity
  8
Capa 1
 62
     7
420
 16777215
370
     9
100
AcDbVertex
100
AcDb2dVertex
 10
132.1063204964873
 20
-207.7992024220085
 30
0.0
  0
VERTEX
  5
42
330
40
100
AcDbEntity
  8
Capa 1
 62
     7
420
 16777215
370
     9
100
AcDbVertex
100
AcDb2dVertex
 10
154.2017849006857
 20
-207.7992024220085
 30
0.0
  0
SEQEND
  5
43
330
40
100
AcDbEntity
  8
Capa 1
370
     9
  0
POLYLINE
  5
44
330
3C
100
AcDbEntity
  8
Capa 1
 62
     7
420
 16777215
370
     9
100
AcDb2dPolyline
 66
     1
 10
0.0
 20
0.0
 30
0.0
  0
VERTEX
  5
45
330
44
100
AcDbEntity
  8
Capa 1
 62
     7
420
 16777215
370
     9
100
AcDbVertex
100
AcDb2dVertex
 10
134.3135931738869
 20
-198.9590874068575
 30
0.0
  0
VERTEX
  5
46
330
44
100
AcDbEntity
  8
Capa 1
 62
     7
420
 16777215
370
     9
100
AcDbVertex
100
AcDb2dVertex
 10
130.4967718857786
 20
-193.3353135367356
 30
0.0
  0
SEQEND
  5
47
330
44
100
AcDbEntity
  8
Capa 1
370
     9
  0
POLYLINE
  5
48
330
3C
100
AcDbEntity
  8
Capa 1
 62
     7
420
 16777215
370
     9
100
AcDb2dPolyline
 66
     1
 10
0.0
 20
0.0
 30
0.0
  0
VERTEX
  5
49
330
48
100
AcDbEntity
  8
Capa 1
 62
     7
420
 16777215
370
     9
100
AcDbVertex
100
AcDb2dVertex
 10
151.9903781087038
 20
-198.9590874068575
 30
0.0
  0
VERTEX
  5
4A
330
48
100
AcDbEntity
  8
Capa 1
 62
     7
420
 16777215
370
     9
100
AcDbVertex
100
AcDb2dVertex
 10
155.8099554732003
 20
-193.3353135367356
 30
0.0
  0
SEQEND
  5
4B
330
48
100
AcDbEntity
  8
Capa 1
370
     9
  0
POLYLINE
  5
4C
330
3C
100
AcDbEntity
  8
Capa 1
 62
     7
420
 16777215
370
     9
100
AcDb2dPolyline
 66
     1
 10
0.0
 20
0.0
 30
0.0
  0
VERTEX
  5
4D
330
4C
100
AcDbEntity
  8
Capa 1
 62
     7
420
 16777215
370
     9
100
AcDbVertex
100
AcDb2dVertex
 10
134.3135931738869
 20
-198.9590874068575
 30
0.0
  0
VERTEX
  5
4E
330
4C
100
AcDbEntity
  8
Capa 1
 62
     7
420
 16777215
370
     9
100
AcDbVertex
100
AcDb2dVertex
 10
151.9903781087038
 20
-198.9590874068575
 30
0.0
  0
SEQEND
  5
4F
330
4C
100
AcDbEntity
  8
Capa 1
370
     9
  0
POLYLINE
  5
50
330
3C
100
AcDbEntity
  8
Capa 1
 62
     7
420
 16777215
370
     9
100
AcDb2dPolyline
 66
     1
 10
0.0
 20
0.0
 30
0.0
  0
VERTEX
  5
51
330
50
100
AcDbEntity
  8
Capa 1
 62
     7
420
 16777215
370
     9
100
AcDbVertex
100
AcDb2dVertex
 10
130.4967718857786
 20
-193.3353135367356
 30
0.0
  0
VERTEX
  5
52
330
50
100
AcDbEntity
  8
Capa 1
 62
     7
420
 16777215
370
     9
100
AcDbVertex
100
AcDb2dVertex
 10
155.8099554732003
 20
-193.3353135367356
 30
0.0
  0
SEQEND
  5
53
330
50
100
AcDbEntity
  8
Capa 1
370
     9
  0
SPLINE
  5
54
330
3C
100
AcDbEntity
  8
Capa 1
 62
     7
420
 16777215
370
     9
100
AcDbSpline
210
0.0
220
0.0
230
1.0
 70
     8
 71
     3
 72
     8
 73
     4
 74
     0
 42
0.0000000001
 43
0.0000000001
 40
0.0
 40
0.0
 40
0.0
 40
0.0
 40
1.0
 40
1.0
 40
1.0
 40
1.0
 10
136.3227728608846
 20
-206.5923854735255
 30
0.0
 10
136.3227728608846
 20
-206.8139051132271
 30
0.0
 10
136.5026068452146
 20
-206.9937390975571
 30
0.0
 10
136.7241264849162
 20
-206.9937390975571
 30
0.0
  0
SPLINE
  5
55
330
3C
100
AcDbEntity
  8
Capa 1
 62
     7
420
 16777215
370
     9
100
AcDbSpline
210
0.0
220
0.0
230
1.0
 70
     8
 71
     3
 72
     8
 73
     4
 74
     0
 42
0.0000000001
 43
0.0000000001
 40
0.0
 40
0.0
 40
0.0
 40
0.0
 40
1.0
 40
1.0
 40
1.0
 40
1.0
 10
139.5387694963653
 20
-206.9937390975571
 30
0.0
 10
139.7602891360669
 20
-206.9937390975571
 30
0.0
 10
139.9401231203969
 20
-206.8139051132271
 30
0.0
 10
139.9401231203969
 20
-206.5923854735255
 30
0.0
  0
SPLINE
  5
56
330
3C
100
AcDbEntity
  8
Capa 1
 62
     7
420
 16777215
370
     9
100
AcDbSpline
210
0.0
220
0.0
230
1.0
 70
     8
 71
     3
 72
     8
 73
     4
 74
     0
 42
0.0000000001
 43
0.0000000001
 40
0.0
 40
0.0
 40
0.0
 40
0.0
 40
1.0
 40
1.0
 40
1.0
 40
1.0
 10
139.9401231203969
 20
-202.5736815899816
 30
0.0
 10
139.9401231203969
 20
-202.35216195028
 30
0.0
 10
139.7602891360669
 20
-202.17232796595
 30
0.0
 10
139.5387694963653
 20
-202.17232796595
 30
0.0
  0
SPLINE
  5
57
330
3C
100
AcDbEntity
  8
Capa 1
 62
     7
420
 16777215
370
     9
100
AcDbSpline
210
0.0
220
0.0
230
1.0
 70
     8
 71
     3
 72
     8
 73
     4
 74
     0
 42
0.0000000001
 43
0.0000000001
 40
0.0
 40
0.0
 40
0.0
 40
0.0
 40
1.0
 40
1.0
 40
1.0
 40
1.0
 10
136.7241264849162
 20
-202.17232796595
 30
0.0
 10
136.5026068452146
 20
-202.17232796595
 30
0.0
 10
136.3227728608846
 20
-202.35216195028
 30
0.0
 10
136.3227728608846
 20
-202.5736815899816
 30
0.0
  0
POLYLINE
  5
58
330
3C
100
AcDbEntity
  8
Capa 1
 62
     7
420
 16777215
370
     9
100
AcDb2dPolyline
 66
     1
 10
0.0
 20
0.0
 30
0.0
  0
VERTEX
  5
59
330
58
100
AcDbEntity
  8
Capa 1
 62
     7
420
 16777215
370
     9
100
AcDbVertex
100
AcDb2dVertex
 10
136.7241264849162
 20
-202.17232796595
 30
0.0
  0
VERTEX
  5
5A
330
58
100
AcDbEntity
  8
Capa 1
 62
     7
420
 16777215
370
     9
100
AcDbVertex
100
AcDb2dVertex
 10
139.5387694963653
 20
-202.17232796595
 30
0.0
  0
SEQEND
  5
5B
330
58
100
AcDbEntity
  8
Capa 1
370
     9
  0
POLYLINE
  5
5C
330
3C
100
AcDbEntity
  8
Capa 1
 62
     7
420
 16777215
370
     9
100
AcDb2dPolyline
 66
     1
 10
0.0
 20
0.0
 30
0.0
  0
VERTEX
  5
5D
330
5C
100
AcDbEntity
  8
Capa 1
 62
     7
420
 16777215
370
     9
100
AcDbVertex
100
AcDb2dVertex
 10
136.7241264849162
 20
-206.9937390975571
 30
0.0
  0
VERTEX
  5
5E
330
5C
100
AcDbEntity
  8
Capa 1
 62
     7
420
 16777215
370
     9
100
AcDbVertex
100
AcDb2dVertex
 10
139.5387694963653
 20
-206.9937390975571
 30
0.0
  0
SEQEND
  5
5F
330
5C
100
AcDbEntity
  8
Capa 1
370
     9
  0
SPLINE
  5
60
330
3C
100
AcDbEntity
  8
Capa 1
 62
     7
420
 16777215
370
     9
100
AcDbSpline
210
0.0
220
0.0
230
1.0
 70
     8
 71
     3
 72
     8
 73
     4
 74
     0
 42
0.0000000001
 43
0.0000000001
 40
0.0
 40
0.0
 40
0.0
 40
0.0
 40
1.0
 40
1.0
 40
1.0
 40
1.0
 10
149.5826008740627
 20
-206.9937390975571
 30
0.0
 10
149.8041205137642
 20
-206.9937390975571
 30
0.0
 10
149.9839544980943
 20
-206.8139051132271
 30
0.0
 10
149.9839544980943
 20
-206.5923854735255
 30
0.0
  0
SPLINE
  5
61
330
3C
100
AcDbEntity
  8
Capa 1
 62
     7
420
 16777215
370
     9
100
AcDbSpline
210
0.0
220
0.0
230
1.0
 70
     8
 71
     3
 72
     8
 73
     4
 74
     0
 42
0.0000000001
 43
0.0000000001
 40
0.0
 40
0.0
 40
0.0
 40
0.0
 40
1.0
 40
1.0
 40
1.0
 40
1.0
 10
146.366604238582
 20
-206.5923854735255
 30
0.0
 10
146.366604238582
 20
-206.8139051132271
 30
0.0
 10
146.546438222912
 20
-206.9937390975571
 30
0.0
 10
146.7679578626136
 20
-206.9937390975571
 30
0.0
  0
SPLINE
  5
62
330
3C
100
AcDbEntity
  8
Capa 1
 62
     7
420
 16777215
370
     9
100
AcDbSpline
210
0.0
220
0.0
230
1.0
 70
     8
 71
     3
 72
     8
 73
     4
 74
     0
 42
0.0000000001
 43
0.0000000001
 40
0.0
 40
0.0
 40
0.0
 40
0.0
 40
1.0
 40
1.0
 40
1.0
 40
1.0
 10
146.7679578626136
 20
-202.17232796595
 30
0.0
 10
146.546438222912
 20
-202.17232796595
 30
0.0
 10
146.366604238582
 20
-202.35216195028
 30
0.0
 10
146.366604238582
 20
-202.5736815899816
 30
0.0
  0
SPLINE
  5
63
330
3C
100
AcDbEntity
  8
Capa 1
 62
     7
420
 16777215
370
     9
100
AcDbSpline
210
0.0
220
0.0
230
1.0
 70
     8
 71
     3
 72
     8
 73
     4
 74
     0
 42
0.0000000001
 43
0.0000000001
 40
0.0
 40
0.0
 40
0.0
 40
0.0
 40
1.0
 40
1.0
 40
1.0
 40
1.0
 10
149.9839544980943
 20
-202.5736815899816
 30
0.0
 10
149.9839544980943
 20
-202.35216195028
 30
0.0
 10
149.8041205137642
 20
-202.17232796595
 30
0.0
 10
149.5826008740627
 20
-202.17232796595
 30
0.0
  0
POLYLINE
  5
64
330
3C
100
AcDbEntity
  8
Capa 1
 62
     7
420
 16777215
370
     9
100
AcDb2dPolyline
 66
     1
 10
0.0
 20
0.0
 30
0.0
  0
VERTEX
  5
65
330
64
100
AcDbEntity
  8
Capa 1
 62
     7
420
 16777215
370
     9
100
AcDbVertex
100
AcDb2dVertex
 10
146.7679578626136
 20
-202.17232796595
 30
0.0
  0
VERTEX
  5
66
330
64
100
AcDbEntity
  8
Capa 1
 62
     7
420
 16777215
370
     9
100
AcDbVertex
100
AcDb2dVertex
 10
149.5826008740627
 20
-202.17232796595
 30
0.0
  0
SEQEND
  5
67
330
64
100
AcDbEntity
  8
Capa 1
370
     9
  0
POLYLINE
  5
68
330
3C
100
AcDbEntity
  8
Capa 1
 62
     7
420
 16777215
370
     9
100
AcDb2dPolyline
 66
     1
 10
0.0
 20
0.0
 30
0.0
  0
VERTEX
  5
69
330
68
100
AcDbEntity
  8
Capa 1
 62
     7
420
 16777215
370
     9
100
AcDbVertex
100
AcDb2dVertex
 10
146.7679578626136
 20
-206.9937390975571
 30
0.0
  0
VERTEX
  5
6A
330
68
100
AcDbEntity
  8
Capa 1
 62
     7
420
 16777215
370
     9
100
AcDbVertex
100
AcDb2dVertex
 10
149.5826008740627
 20
-206.9937390975571
 30
0.0
  0
SEQEND
  5
6B
330
68
100
AcDbEntity
  8
Capa 1
370
     9
  0
POLYLINE
  5
6C
330
3C
100
AcDbEntity
  8
Capa 1
 62
     7
420
 16777215
370
     9
100
AcDb2dPolyline
 66
     1
 10
0.0
 20
0.0
 30
0.0
  0
VERTEX
  5
6D
330
6C
100
AcDbEntity
  8
Capa 1
 62
     7
420
 16777215
370
     9
100
AcDbVertex
100
AcDb2dVertex
 10
139.9401231203969
 20
-202.5736815899816
 30
0.0
  0
VERTEX
  5
6E
330
6C
100
AcDbEntity
  8
Capa 1
 62
     7
420
 16777215
370
     9
100
AcDbVertex
100
AcDb2dVertex
 10
139.9401231203969
 20
-206.5923854735255
 30
0.0
  0
SEQEND
  5
6F
330
6C
100
AcDbEntity
  8
Capa 1
370
     9
  0
POLYLINE
  5
70
330
3C
100
AcDbEntity
  8
Capa 1
 62
     7
420
 16777215
370
     9
100
AcDb2dPolyline
 66
     1
 10
0.0
 20
0.0
 30
0.0
  0
VERTEX
  5
71
330
70
100
AcDbEntity
  8
Capa 1
 62
     7
420
 16777215
370
     9
100
AcDbVertex
100
AcDb2dVertex
 10
146.366604238582
 20
-202.5736815899816
 30
0.0
  0
VERTEX
  5
72
330
70
100
AcDbEntity
  8
Capa 1
 62
     7
420
 16777215
370
     9
100
AcDbVertex
100
AcDb2dVertex
 10
146.366604238582
 20
-206.5923854735255
 30
0.0
  0
SEQEND
  5
73
330
70
100
AcDbEntity
  8
Capa 1
370
     9
  0
POLYLINE
  5
74
330
3C
100
AcDbEntity
  8
Capa 1
 62
     7
420
 16777215
370
     9
100
AcDb2dPolyline
 66
     1
 10
0.0
 20
0.0
 30
0.0
  0
VERTEX
  5
75
330
74
100
AcDbEntity
  8
Capa 1
 62
     7
420
 16777215
370
     9
100
AcDbVertex
100
AcDb2dVertex
 10
136.3227728608846
 20
-202.5736815899816
 30
0.0
  0
VERTEX
  5
76
330
74
100
AcDbEntity
  8
Capa 1
 62
     7
420
 16777215
370
     9
100
AcDbVertex
100
AcDb2dVertex
 10
136.3227728608846
 20
-206.5923854735255
 30
0.0
  0
SEQEND
  5
77
330
74
100
AcDbEntity
  8
Capa 1
370
     9
  0
POLYLINE
  5
78
330
3C
100
AcDbEntity
  8
Capa 1
 62
     7
420
 16777215
370
     9
100
AcDb2dPolyline
 66
     1
 10
0.0
 20
0.0
 30
0.0
  0
VERTEX
  5
79
330
78
100
AcDbEntity
  8
Capa 1
 62
     7
420
 16777215
370
     9
100
AcDbVertex
100
AcDb2dVertex
 10
149.9839544980943
 20
-202.5736815899816
 30
0.0
  0
VERTEX
  5
7A
330
78
100
AcDbEntity
  8
Capa 1
 62
     7
420
 16777215
370
     9
100
AcDbVertex
100
AcDb2dVertex
 10
149.9839544980943
 20
-206.5923854735255
 30
0.0
  0
SEQEND
  5
7B
330
78
100
AcDbEntity
  8
Capa 1
370
     9
  0
POLYLINE
  5
7C
330
3C
100
AcDbEntity
  8
Capa 1
 62
     7
420
 16777215
370
     9
100
AcDb2dPolyline
 66
     1
 10
0.0
 20
0.0
 30
0.0
  0
VERTEX
  5
7D
330
7C
100
AcDbEntity
  8
Capa 1
 62
     7
420
 16777215
370
     9
100
AcDbVertex
100
AcDb2dVertex
 10
111.9177164433747
 20
-216.2265949980267
 30
0.0
  0
VERTEX
  5
7E
330
7C
100
AcDbEntity
  8
Capa 1
 62
     7
420
 16777215
370
     9
100
AcDbVertex
100
AcDb2dVertex
 10
113.8066622979372
 20
-225.2796169141662
 30
0.0
  0
SEQEND
  5
7F
330
7C
100
AcDbEntity
  8
Capa 1
370
     9
  0
POLYLINE
  5
80
330
3C
100
AcDbEntity
  8
Capa 1
 62
     7
420
 16777215
370
     9
100
AcDb2dPolyline
 66
     1
 10
0.0
 20
0.0
 30
0.0
  0
VERTEX
  5
81
330
80
100
AcDbEntity
  8
Capa 1
 62
     7
420
 16777215
370
     9
100
AcDbVertex
100
AcDb2dVertex
 10
109.3462971731843
 20
-221.6567545018775
 30
0.0
  0
VERTEX
  5
82
330
80
100
AcDbEntity
  8
Capa 1
 62
     7
420
 16777215
370
     9
100
AcDbVertex
100
AcDb2dVertex
 10
113.0494303102793
 20
-221.6567545018775
 30
0.0
  0
SEQEND
  5
83
330
80
100
AcDbEntity
  8
Capa 1
370
     9
  0
POLYLINE
  5
84
330
3C
100
AcDbEntity
  8
Capa 1
 62
     7
420
 16777215
370
     9
100
AcDb2dPolyline
 66
     1
 10
0.0
 20
0.0
 30
0.0
  0
VERTEX
  5
85
330
84
100
AcDbEntity
  8
Capa 1
 62
     7
420
 16777215
370
     9
100
AcDbVertex
100
AcDb2dVertex
 10
109.1664631888542
 20
-219.6472303053312
 30
0.0
  0
VERTEX
  5
86
330
84
100
AcDbEntity
  8
Capa 1
 62
     7
420
 16777215
370
     9
100
AcDbVertex
100
AcDb2dVertex
 10
112.6315402279185
 20
-219.6472303053312
 30
0.0
  0
SEQEND
  5
87
330
84
100
AcDbEntity
  8
Capa 1
370
     9
  0
POLYLINE
  5
88
330
3C
100
AcDbEntity
  8
Capa 1
 62
     7
420
 16777215
370
     9
100
AcDb2dPolyline
 66
     1
 10
0.0
 20
0.0
 30
0.0
  0
VERTEX
  5
89
330
88
100
AcDbEntity
  8
Capa 1
 62
     7
420
 16777215
370
     9
100
AcDbVertex
100
AcDb2dVertex
 10
115.8420247106228
 20
-221.6567545018775
 30
0.0
  0
VERTEX
  5
8A
330
88
100
AcDbEntity
  8
Capa 1
 62
     7
420
 16777215
370
     9
100
AcDbVertex
100
AcDb2dVertex
 10
121.6597574565642
 20
-221.6567545018775
 30
0.0
  0
SEQEND
  5
8B
330
88
100
AcDbEntity
  8
Capa 1
370
     9
  0
POLYLINE
  5
8C
330
3C
100
AcDbEntity
  8
Capa 1
 62
     7
420
 16777215
370
     9
100
AcDb2dPolyline
 66
     1
 10
0.0
 20
0.0
 30
0.0
  0
VERTEX
  5
8D
330
8C
100
AcDbEntity
  8
Capa 1
 62
     7
420
 16777215
370
     9
100
AcDbVertex
100
AcDb2dVertex
 10
115.4213785518738
 20
-219.6472303053312
 30
0.0
  0
VERTEX
  5
8E
330
8C
100
AcDbEntity
  8
Capa 1
 62
     7
420
 16777215
370
     9
100
AcDbVertex
100
AcDb2dVertex
 10
121.6597574565642
 20
-219.6472303053312
 30
0.0
  0
SEQEND
  5
8F
330
8C
100
AcDbEntity
  8
Capa 1
370
     9
  0
POLYLINE
  5
90
330
3C
100
AcDbEntity
  8
Capa 1
 62
     7
420
 16777215
370
     9
100
AcDb2dPolyline
 66
     1
 10
0.0
 20
0.0
 30
0.0
  0
VERTEX
  5
91
330
90
100
AcDbEntity
  8
Capa 1
 62
     7
420
 16777215
370
     9
100
AcDbVertex
100
AcDb2dVertex
 10
101.720750571358
 20
-219.6472303053312
 30
0.0
  0
VERTEX
  5
92
330
90
100
AcDbEntity
  8
Capa 1
 62
     7
420
 16777215
370
     9
100
AcDbVertex
100
AcDb2dVertex
 10
101.720750571358
 20
-221.6567545018775
 30
0.0
  0
SEQEND
  5
93
330
90
100
AcDbEntity
  8
Capa 1
370
     9
  0
POLYLINE
  5
94
330
3C
100
AcDbEntity
  8
Capa 1
 62
     7
420
 16777215
370
     9
100
AcDb2dPolyline
 66
     1
 10
0.0
 20
0.0
 30
0.0
  0
VERTEX
  5
95
330
94
100
AcDbEntity
  8
Capa 1
 62
     7
420
 16777215
370
     9
100
AcDbVertex
100
AcDb2dVertex
 10
114.7072102577815
 20
-216.2265949980267
 30
0.0
  0
VERTEX
  5
96
330
94
100
AcDbEntity
  8
Capa 1
 62
     7
420
 16777215
370
     9
100
AcDbVertex
100
AcDb2dVertex
 10
116.596156112344
 20
-225.2796169141662
 30
0.0
  0
SEQEND
  5
97
330
94
100
AcDbEntity
  8
Capa 1
370
     9
  0
POLYLINE
  5
98
330
3C
100
AcDbEntity
  8
Capa 1
 62
     7
420
 16777215
370
     9
100
AcDb2dPolyline
 66
     1
 10
0.0
 20
0.0
 30
0.0
  0
VERTEX
  5
99
330
98
100
AcDbEntity
  8
Capa 1
 62
     7
420
 16777215
370
     9
100
AcDbVertex
100
AcDb2dVertex
 10
61.49357637351549
 20
-160.7460882844663
 30
0.0
  0
VERTEX
  5
9A
330
98
100
AcDbEntity
  8
Capa 1
 62
     7
420
 16777215
370
     9
100
AcDbVertex
100
AcDb2dVertex
 10
61.49357637351549
 20
-124.2924994263922
 30
0.0
  0
SEQEND
  5
9B
330
98
100
AcDbEntity
  8
Capa 1
370
     9
  0
SPLINE
  5
9C
330
3C
100
AcDbEntity
  8
Capa 1
 62
     7
420
 16777215
370
     9
100
AcDbSpline
210
0.0
220
0.0
230
1.0
 70
     8
 71
     3
 72
     8
 73
     4
 74
     0
 42
0.0000000001
 43
0.0000000001
 40
0.0
 40
0.0
 40
0.0
 40
0.0
 40
1.0
 40
1.0
 40
1.0
 40
1.0
 10
60.88947888017694
 20
-160.7460882844663
 30
0.0
 10
60.5566826563018
 20
-160.7460882844663
 30
0.0
 10
60.28762069890379
 20
-161.0144612227672
 30
0.0
 10
60.28762069890379
 20
-161.3465684275453
 30
0.0
  0
SPLINE
  5
9D
330
3C
100
AcDbEntity
  8
Capa 1
 62
     7
420
 16777215
370
     9
100
AcDbSpline
210
0.0
220
0.0
230
1.0
 70
     8
 71
     3
 72
     8
 73
     4
 74
     0
 42
0.0000000001
 43
0.0000000001
 40
0.0
 40
0.0
 40
0.0
 40
0.0
 40
1.0
 40
1.0
 40
1.0
 40
1.0
 10
80.37114933971624
 20
-161.3465684275453
 30
0.0
 10
80.37114933971624
 20
-161.0144612227672
 30
0.0
 10
80.10191512754398
 20
-160.7460882844663
 30
0.0
 10
79.76911890366884
 20
-160.7460882844663
 30
0.0
  0
POLYLINE
  5
9E
330
3C
100
AcDbEntity
  8
Capa 1
 62
     7
420
 16777215
370
     9
100
AcDb2dPolyline
 66
     1
 10
0.0
 20
0.0
 30
0.0
  0
VERTEX
  5
9F
330
9E
100
AcDbEntity
  8
Capa 1
 62
     7
420
 16777215
370
     9
100
AcDbVertex
100
AcDb2dVertex
 10
80.37114933971624
 20
-161.3465684275453
 30
0.0
  0
VERTEX
  5
A0
330
9E
100
AcDbEntity
  8
Capa 1
 62
     7
420
 16777215
370
     9
100
AcDbVertex
100
AcDb2dVertex
 10
80.37114933971624
 20
-163.9593288435588
 30
0.0
  0
SEQEND
  5
A1
330
9E
100
AcDbEntity
  8
Capa 1
370
     9
  0
POLYLINE
  5
A2
330
3C
100
AcDbEntity
  8
Capa 1
 62
     7
420
 16777215
370
     9
100
AcDb2dPolyline
 66
     1
 10
0.0
 20
0.0
 30
0.0
  0
VERTEX
  5
A3
330
A2
100
AcDbEntity
  8
Capa 1
 62
     7
420
 16777215
370
     9
100
AcDbVertex
100
AcDb2dVertex
 10
60.88947888017694
 20
-160.7460882844663
 30
0.0
  0
VERTEX
  5
A4
330
A2
100
AcDbEntity
  8
Capa 1
 62
     7
420
 16777215
370
     9
100
AcDbVertex
100
AcDb2dVertex
 10
79.76911890366884
 20
-160.7460882844663
 30
0.0
  0
SEQEND
  5
A5
330
A2
100
AcDbEntity
  8
Capa 1
370
     9
  0
POLYLINE
  5
A6
330
3C
100
AcDbEntity
  8
Capa 1
 62
     7
420
 16777215
370
     9
100
AcDb2dPolyline
 66
     1
 10
0.0
 20
0.0
 30
0.0
  0
VERTEX
  5
A7
330
A6
100
AcDbEntity
  8
Capa 1
 62
     7
420
 16777215
370
     9
100
AcDbVertex
100
AcDb2dVertex
 10
60.28762069890379
 20
-163.9593288435588
 30
0.0
  0
VERTEX
  5
A8
330
A6
100
AcDbEntity
  8
Capa 1
 62
     7
420
 16777215
370
     9
100
AcDbVertex
100
AcDb2dVertex
 10
60.28762069890379
 20
-161.3465684275453
 30
0.0
  0
SEQEND
  5
A9
330
A6
100
AcDbEntity
  8
Capa 1
370
     9
  0
POLYLINE
  5
AA
330
3C
100
AcDbEntity
  8
Capa 1
 62
     7
420
 16777215
370
     9
100
AcDb2dPolyline
 66
     1
 10
0.0
 20
0.0
 30
0.0
  0
VERTEX
  5
AB
330
AA
100
AcDbEntity
  8
Capa 1
 62
     7
420
 16777215
370
     9
100
AcDbVertex
100
AcDb2dVertex
 10
60.28762069890379
 20
-163.9593288435588
 30
0.0
  0
VERTEX
  5
AC
330
AA
100
AcDbEntity
  8
Capa 1
 62
     7
420
 16777215
370
     9
100
AcDbVertex
100
AcDb2dVertex
 10
80.37114933971624
 20
-163.9593288435588
 30
0.0
  0
SEQEND
  5
AD
330
AA
100
AcDbEntity
  8
Capa 1
370
     9
  0
POLYLINE
  5
AE
330
3C
100
AcDbEntity
  8
Capa 1
 62
     7
420
 16777215
370
     9
100
AcDb2dPolyline
 66
     1
 10
0.0
 20
0.0
 30
0.0
  0
VERTEX
  5
AF
330
AE
100
AcDbEntity
  8
Capa 1
 62
     7
420
 16777215
370
     9
100
AcDbVertex
100
AcDb2dVertex
 10
90.39689396611605
 20
-146.9886162284438
 30
0.0
  0
VERTEX
  5
B0
330
AE
100
AcDbEntity
  8
Capa 1
 62
     7
420
 16777215
370
     9
100
AcDbVertex
100
AcDb2dVertex
 10
90.39689396611605
 20
-129.3130370770467
 30
0.0
  0
SEQEND
  5
B1
330
AE
100
AcDbEntity
  8
Capa 1
370
     9
  0
POLYLINE
  5
B2
330
3C
100
AcDbEntity
  8
Capa 1
 62
     7
420
 16777215
370
     9
100
AcDb2dPolyline
 66
     1
 10
0.0
 20
0.0
 30
0.0
  0
VERTEX
  5
B3
330
B2
100
AcDbEntity
  8
Capa 1
 62
     7
420
 16777215
370
     9
100
AcDbVertex
100
AcDb2dVertex
 10
91.20029023327632
 20
-129.113738303225
 30
0.0
  0
VERTEX
  5
B4
330
B2
100
AcDbEntity
  8
Capa 1
 62
     7
420
 16777215
370
     9
100
AcDbVertex
100
AcDb2dVertex
 10
95.05638560991646
 20
-129.113738303225
 30
0.0
  0
SEQEND
  5
B5
330
B2
100
AcDbEntity
  8
Capa 1
370
     9
  0
POLYLINE
  5
B6
330
3C
100
AcDbEntity
  8
Capa 1
 62
     7
420
 16777215
370
     9
100
AcDb2dPolyline
 66
     1
 10
0.0
 20
0.0
 30
0.0
  0
VERTEX
  5
B7
330
B6
100
AcDbEntity
  8
Capa 1
 62
     7
420
 16777215
370
     9
100
AcDbVertex
100
AcDb2dVertex
 10
80.05144447868506
 20
-177.5429958323504
 30
0.0
  0
VERTEX
  5
B8
330
B6
100
AcDbEntity
  8
Capa 1
 62
     7
420
 16777215
370
     9
100
AcDbVertex
100
AcDb2dVertex
 10
80.05144447868506
 20
-176.1398084412081
 30
0.0
  0
SEQEND
  5
B9
330
B6
100
AcDbEntity
  8
Capa 1
370
     9
  0
POLYLINE
  5
BA
330
3C
100
AcDbEntity
  8
Capa 1
 62
     7
420
 16777215
370
     9
100
AcDb2dPolyline
 66
     1
 10
0.0
 20
0.0
 30
0.0
  0
VERTEX
  5
BB
330
BA
100
AcDbEntity
  8
Capa 1
 62
     7
420
 16777215
370
     9
100
AcDbVertex
100
AcDb2dVertex
 10
73.28165959539487
 20
-177.5429958323504
 30
0.0
  0
VERTEX
  5
BC
330
BA
100
AcDbEntity
  8
Capa 1
 62
     7
420
 16777215
370
     9
100
AcDbVertex
100
AcDb2dVertex
 10
72.8382758064432
 20
-177.5429958323504
 30
0.0
  0
SEQEND
  5
BD
330
BA
100
AcDbEntity
  8
Capa 1
370
     9
  0
POLYLINE
  5
BE
330
3C
100
AcDbEntity
  8
Capa 1
 62
     7
420
 16777215
370
     9
100
AcDb2dPolyline
 66
     1
 10
0.0
 20
0.0
 30
0.0
  0
VERTEX
  5
BF
330
BE
100
AcDbEntity
  8
Capa 1
 62
     7
420
 16777215
370
     9
100
AcDbVertex
100
AcDb2dVertex
 10
80.05144447868506
 20
-177.5429958323504
 30
0.0
  0
VERTEX
  5
C0
330
BE
100
AcDbEntity
  8
Capa 1
 62
     7
420
 16777215
370
     9
100
AcDbVertex
100
AcDb2dVertex
 10
80.53444686571709
 20
-177.5429958323504
 30
0.0
  0
SEQEND
  5
C1
330
BE
100
AcDbEntity
  8
Capa 1
370
     9
  0
POLYLINE
  5
C2
330
3C
100
AcDbEntity
  8
Capa 1
 62
     7
420
 16777215
370
     9
100
AcDb2dPolyline
 66
     1
 10
0.0
 20
0.0
 30
0.0
  0
VERTEX
  5
C3
330
C2
100
AcDbEntity
  8
Capa 1
 62
     7
420
 16777215
370
     9
100
AcDbVertex
100
AcDb2dVertex
 10
80.05144447868506
 20
-177.5429958323504
 30
0.0
  0
VERTEX
  5
C4
330
C2
100
AcDbEntity
  8
Capa 1
 62
     7
420
 16777215
370
     9
100
AcDbVertex
100
AcDb2dVertex
 10
82.62889266597473
 20
-176.1398084412081
 30
0.0
  0
SEQEND
  5
C5
330
C2
100
AcDbEntity
  8
Capa 1
370
     9
  0
POLYLINE
  5
C6
330
3C
100
AcDbEntity
  8
Capa 1
 62
     7
420
 16777215
370
     9
100
AcDb2dPolyline
 66
     1
 10
0.0
 20
0.0
 30
0.0
  0
VERTEX
  5
C7
330
C6
100
AcDbEntity
  8
Capa 1
 62
     7
420
 16777215
370
     9
100
AcDbVertex
100
AcDb2dVertex
 10
80.53444686571709
 20
-177.5429958323504
 30
0.0
  0
VERTEX
  5
C8
330
C6
100
AcDbEntity
  8
Capa 1
 62
     7
420
 16777215
370
     9
100
AcDbVertex
100
AcDb2dVertex
 10
83.11172279823249
 20
-176.1398084412081
 30
0.0
  0
SEQEND
  5
C9
330
C6
100
AcDbEntity
  8
Capa 1
370
     9
  0
POLYLINE
  5
CA
330
3C
100
AcDbEntity
  8
Capa 1
 62
     7
420
 16777215
370
     9
100
AcDb2dPolyline
 66
     1
 10
0.0
 20
0.0
 30
0.0
  0
VERTEX
  5
CB
330
CA
100
AcDbEntity
  8
Capa 1
 62
     7
420
 16777215
370
     9
100
AcDbVertex
100
AcDb2dVertex
 10
73.28165959539487
 20
-177.5429958323504
 30
0.0
  0
VERTEX
  5
CC
330
CA
100
AcDbEntity
  8
Capa 1
 62
     7
420
 16777215
370
     9
100
AcDbVertex
100
AcDb2dVertex
 10
73.28165959539487
 20
-176.1398084412081
 30
0.0
  0
SEQEND
  5
CD
330
CA
100
AcDbEntity
  8
Capa 1
370
     9
  0
POLYLINE
  5
CE
330
3C
100
AcDbEntity
  8
Capa 1
 62
     7
420
 16777215
370
     9
100
AcDb2dPolyline
 66
     1
 10
0.0
 20
0.0
 30
0.0
  0
VERTEX
  5
CF
330
CE
100
AcDbEntity
  8
Capa 1
 62
     7
420
 16777215
370
     9
100
AcDbVertex
100
AcDb2dVertex
 10
72.8382758064432
 20
-177.5429958323504
 30
0.0
  0
VERTEX
  5
D0
330
CE
100
AcDbEntity
  8
Capa 1
 62
     7
420
 16777215
370
     9
100
AcDbVertex
100
AcDb2dVertex
 10
72.8382758064432
 20
-176.1398084412081
 30
0.0
  0
SEQEND
  5
D1
330
CE
100
AcDbEntity
  8
Capa 1
370
     9
  0
POLYLINE
  5
D2
330
3C
100
AcDbEntity
  8
Capa 1
 62
     7
420
 16777215
370
     9
100
AcDb2dPolyline
 66
     1
 10
0.0
 20
0.0
 30
0.0
  0
VERTEX
  5
D3
330
D2
100
AcDbEntity
  8
Capa 1
 62
     7
420
 16777215
370
     9
100
AcDbVertex
100
AcDb2dVertex
 10
66.62762992040906
 20
-177.5429958323504
 30
0.0
  0
VERTEX
  5
D4
330
D2
100
AcDbEntity
  8
Capa 1
 62
     7
420
 16777215
370
     9
100
AcDbVertex
100
AcDb2dVertex
 10
66.99849444939622
 20
-177.5429958323504
 30
0.0
  0
SEQEND
  5
D5
330
D2
100
AcDbEntity
  8
Capa 1
370
     9
  0
POLYLINE
  5
D6
330
3C
100
AcDbEntity
  8
Capa 1
 62
     7
420
 16777215
370
     9
100
AcDb2dPolyline
 66
     1
 10
0.0
 20
0.0
 30
0.0
  0
VERTEX
  5
D7
330
D6
100
AcDbEntity
  8
Capa 1
 62
     7
420
 16777215
370
     9
100
AcDbVertex
100
AcDb2dVertex
 10
66.99849444939622
 20
-177.5429958323504
 30
0.0
  0
VERTEX
  5
D8
330
D6
100
AcDbEntity
  8
Capa 1
 62
     7
420
 16777215
370
     9
100
AcDbVertex
100
AcDb2dVertex
 10
66.99849444939622
 20
-176.1398084412081
 30
0.0
  0
SEQEND
  5
D9
330
D6
100
AcDbEntity
  8
Capa 1
370
     9
  0
POLYLINE
  5
DA
330
3C
100
AcDbEntity
  8
Capa 1
 62
     7
420
 16777215
370
     9
100
AcDb2dPolyline
 66
     1
 10
0.0
 20
0.0
 30
0.0
  0
VERTEX
  5
DB
330
DA
100
AcDbEntity
  8
Capa 1
 62
     7
420
 16777215
370
     9
100
AcDbVertex
100
AcDb2dVertex
 10
66.62762992040906
 20
-177.5429958323504
 30
0.0
  0
VERTEX
  5
DC
330
DA
100
AcDbEntity
  8
Capa 1
 62
     7
420
 16777215
370
     9
100
AcDbVertex
100
AcDb2dVertex
 10
66.62762992040906
 20
-176.1398084412081
 30
0.0
  0
SEQEND
  5
DD
330
DA
100
AcDbEntity
  8
Capa 1
370
     9
  0
POLYLINE
  5
DE
330
3C
100
AcDbEntity
  8
Capa 1
 62
     7
420
 16777215
370
     9
100
AcDb2dPolyline
 66
     1
 10
0.0
 20
0.0
 30
0.0
  0
VERTEX
  5
DF
330
DE
100
AcDbEntity
  8
Capa 1
 62
     7
420
 16777215
370
     9
100
AcDbVertex
100
AcDb2dVertex
 10
80.53444686571709
 20
-180.1195827457687
 30
0.0
  0
VERTEX
  5
E0
330
DE
100
AcDbEntity
  8
Capa 1
 62
     7
420
 16777215
370
     9
100
AcDbVertex
100
AcDb2dVertex
 10
62.14125432474247
 20
-180.1195827457687
 30
0.0
  0
SEQEND
  5
E1
330
DE
100
AcDbEntity
  8
Capa 1
370
     9
  0
POLYLINE
  5
E2
330
3C
100
AcDbEntity
  8
Capa 1
 62
     7
420
 16777215
370
     9
100
AcDb2dPolyline
 66
     1
 10
0.0
 20
0.0
 30
0.0
  0
VERTEX
  5
E3
330
E2
100
AcDbEntity
  8
Capa 1
 62
     7
420
 16777215
370
     9
100
AcDbVertex
100
AcDb2dVertex
 10
80.53444686571709
 20
-177.5429958323504
 30
0.0
  0
VERTEX
  5
E4
330
E2
100
AcDbEntity
  8
Capa 1
 62
     7
420
 16777215
370
     9
100
AcDbVertex
100
AcDb2dVertex
 10
80.53444686571709
 20
-180.1195827457687
 30
0.0
  0
SEQEND
  5
E5
330
E2
100
AcDbEntity
  8
Capa 1
370
     9
  0
POLYLINE
  5
E6
330
3C
100
AcDbEntity
  8
Capa 1
 62
     7
420
 16777215
370
     9
100
AcDb2dPolyline
 66
     1
 10
0.0
 20
0.0
 30
0.0
  0
VERTEX
  5
E7
330
E6
100
AcDbEntity
  8
Capa 1
 62
     7
420
 16777215
370
     9
100
AcDbVertex
100
AcDb2dVertex
 10
80.53444686571709
 20
-177.5429958323504
 30
0.0
  0
VERTEX
  5
E8
330
E6
100
AcDbEntity
  8
Capa 1
 62
     7
420
 16777215
370
     9
100
AcDbVertex
100
AcDb2dVertex
 10
83.11172279823249
 20
-176.1398084412081
 30
0.0
  0
SEQEND
  5
E9
330
E6
100
AcDbEntity
  8
Capa 1
370
     9
  0
POLYLINE
  5
EA
330
3C
100
AcDbEntity
  8
Capa 1
 62
     7
420
 16777215
370
     9
100
AcDb2dPolyline
 66
     1
 10
0.0
 20
0.0
 30
0.0
  0
VERTEX
  5
EB
330
EA
100
AcDbEntity
  8
Capa 1
 62
     7
420
 16777215
370
     9
100
AcDbVertex
100
AcDb2dVertex
 10
59.5651841756469
 20
-176.1398084412081
 30
0.0
  0
VERTEX
  5
EC
330
EA
100
AcDbEntity
  8
Capa 1
 62
     7
420
 16777215
370
     9
100
AcDbVertex
100
AcDb2dVertex
 10
83.11172279823249
 20
-176.1398084412081
 30
0.0
  0
SEQEND
  5
ED
330
EA
100
AcDbEntity
  8
Capa 1
370
     9
  0
POLYLINE
  5
EE
330
3C
100
AcDbEntity
  8
Capa 1
 62
     7
420
 16777215
370
     9
100
AcDb2dPolyline
 66
     1
 10
0.0
 20
0.0
 30
0.0
  0
VERTEX
  5
EF
330
EE
100
AcDbEntity
  8
Capa 1
 62
     7
420
 16777215
370
     9
100
AcDbVertex
100
AcDb2dVertex
 10
83.11172279823249
 20
-174.6312011282172
 30
0.0
  0
VERTEX
  5
F0
330
EE
100
AcDbEntity
  8
Capa 1
 62
     7
420
 16777215
370
     9
100
AcDbVertex
100
AcDb2dVertex
 10
83.11172279823249
 20
-176.1398084412081
 30
0.0
  0
SEQEND
  5
F1
330
EE
100
AcDbEntity
  8
Capa 1
370
     9
  0
POLYLINE
  5
F2
330
3C
100
AcDbEntity
  8
Capa 1
 62
     7
420
 16777215
370
     9
100
AcDb2dPolyline
 66
     1
 10
0.0
 20
0.0
 30
0.0
  0
VERTEX
  5
F3
330
F2
100
AcDbEntity
  8
Capa 1
 62
     7
420
 16777215
370
     9
100
AcDbVertex
100
AcDb2dVertex
 10
59.5651841756469
 20
-174.6312011282172
 30
0.0
  0
VERTEX
  5
F4
330
F2
100
AcDbEntity
  8
Capa 1
 62
     7
420
 16777215
370
     9
100
AcDbVertex
100
AcDb2dVertex
 10
83.11172279823249
 20
-174.6312011282172
 30
0.0
  0
SEQEND
  5
F5
330
F2
100
AcDbEntity
  8
Capa 1
370
     9
  0
POLYLINE
  5
F6
330
3C
100
AcDbEntity
  8
Capa 1
 62
     7
420
 16777215
370
     9
100
AcDb2dPolyline
 66
     1
 10
0.0
 20
0.0
 30
0.0
  0
VERTEX
  5
F7
330
F6
100
AcDbEntity
  8
Capa 1
 62
     7
420
 16777215
370
     9
100
AcDbVertex
100
AcDb2dVertex
 10
59.5651841756469
 20
-176.1398084412081
 30
0.0
  0
VERTEX
  5
F8
330
F6
100
AcDbEntity
  8
Capa 1
 62
     7
420
 16777215
370
     9
100
AcDbVertex
100
AcDb2dVertex
 10
59.5651841756469
 20
-174.6312011282172
 30
0.0
  0
SEQEND
  5
F9
330
F6
100
AcDbEntity
  8
Capa 1
370
     9
  0
POLYLINE
  5
FA
330
3C
100
AcDbEntity
  8
Capa 1
 62
     7
420
 16777215
370
     9
100
AcDb2dPolyline
 66
     1
 10
0.0
 20
0.0
 30
0.0
  0
VERTEX
  5
FB
330
FA
100
AcDbEntity
  8
Capa 1
 62
     7
420
 16777215
370
     9
100
AcDbVertex
100
AcDb2dVertex
 10
66.62762992040906
 20
-177.5429958323504
 30
0.0
  0
VERTEX
  5
FC
330
FA
100
AcDbEntity
  8
Capa 1
 62
     7
420
 16777215
370
     9
100
AcDbVertex
100
AcDb2dVertex
 10
59.5651841756469
 20
-176.1398084412081
 30
0.0
  0
SEQEND
  5
FD
330
FA
100
AcDbEntity
  8
Capa 1
370
     9
  0
POLYLINE
  5
FE
330
3C
100
AcDbEntity
  8
Capa 1
 62
     7
420
 16777215
370
     9
100
AcDb2dPolyline
 66
     1
 10
0.0
 20
0.0
 30
0.0
  0
VERTEX
  5
FF
330
FE
100
AcDbEntity
  8
Capa 1
 62
     7
420
 16777215
370
     9
100
AcDbVertex
100
AcDb2dVertex
 10
62.14125432474247
 20
-180.1195827457687
 30
0.0
  0
VERTEX
  5
100
330
FE
100
AcDbEntity
  8
Capa 1
 62
     7
420
 16777215
370
     9
100
AcDbVertex
100
AcDb2dVertex
 10
62.14125432474247
 20
-176.6517496303162
 30
0.0
  0
SEQEND
  5
101
330
FE
100
AcDbEntity
  8
Capa 1
370
     9
  0
POLYLINE
  5
102
330
3C
100
AcDbEntity
  8
Capa 1
 62
     7
420
 16777215
370
     9
100
AcDb2dPolyline
 66
     1
 10
0.0
 20
0.0
 30
0.0
  0
VERTEX
  5
103
330
102
100
AcDbEntity
  8
Capa 1
 62
     7
420
 16777215
370
     9
100
AcDbVertex
100
AcDb2dVertex
 10
80.3897528553366
 20
-184.0800645156119
 30
0.0
  0
VERTEX
  5
104
330
102
100
AcDbEntity
  8
Capa 1
 62
     7
420
 16777215
370
     9
100
AcDbVertex
100
AcDb2dVertex
 10
80.3897528553366
 20
-185.6854790117384
 30
0.0
  0
SEQEND
  5
105
330
102
100
AcDbEntity
  8
Capa 1
370
     9
  0
POLYLINE
  5
106
330
3C
100
AcDbEntity
  8
Capa 1
 62
     7
420
 16777215
370
     9
100
AcDb2dPolyline
 66
     1
 10
0.0
 20
0.0
 30
0.0
  0
VERTEX
  5
107
330
106
100
AcDbEntity
  8
Capa 1
 62
     7
420
 16777215
370
     9
100
AcDbVertex
100
AcDb2dVertex
 10
80.3897528553366
 20
-181.6695312045826
 30
0.0
  0
VERTEX
  5
108
330
106
100
AcDbEntity
  8
Capa 1
 62
     7
420
 16777215
370
     9
100
AcDbVertex
100
AcDb2dVertex
 10
80.3897528553366
 20
-182.8735920766775
 30
0.0
  0
SEQEND
  5
109
330
106
100
AcDbEntity
  8
Capa 1
370
     9
  0
POLYLINE
  5
10A
330
3C
100
AcDbEntity
  8
Capa 1
 62
     7
420
 16777215
370
     9
100
AcDb2dPolyline
 66
     1
 10
0.0
 20
0.0
 30
0.0
  0
VERTEX
  5
10B
330
10A
100
AcDbEntity
  8
Capa 1
 62
     7
420
 16777215
370
     9
100
AcDbVertex
100
AcDb2dVertex
 10
65.80838621401665
 20
-181.6695312045826
 30
0.0
  0
VERTEX
  5
10C
330
10A
100
AcDbEntity
  8
Capa 1
 62
     7
420
 16777215
370
     9
100
AcDbVertex
100
AcDb2dVertex
 10
65.80838621401665
 20
-180.1612684011402
 30
0.0
  0
SEQEND
  5
10D
330
10A
100
AcDbEntity
  8
Capa 1
370
     9
  0
POLYLINE
  5
10E
330
3C
100
AcDbEntity
  8
Capa 1
 62
     7
420
 16777215
370
     9
100
AcDb2dPolyline
 66
     1
 10
0.0
 20
0.0
 30
0.0
  0
VERTEX
  5
10F
330
10E
100
AcDbEntity
  8
Capa 1
 62
     7
420
 16777215
370
     9
100
AcDbVertex
100
AcDb2dVertex
 10
68.82094996109338
 20
-181.6695312045826
 30
0.0
  0
VERTEX
  5
110
330
10E
100
AcDbEntity
  8
Capa 1
 62
     7
420
 16777215
370
     9
100
AcDbVertex
100
AcDb2dVertex
 10
68.82094996109338
 20
-180.1612684011402
 30
0.0
  0
SEQEND
  5
111
330
10E
100
AcDbEntity
  8
Capa 1
370
     9
  0
POLYLINE
  5
112
330
3C
100
AcDbEntity
  8
Capa 1
 62
     7
420
 16777215
370
     9
100
AcDb2dPolyline
 66
     1
 10
0.0
 20
0.0
 30
0.0
  0
VERTEX
  5
113
330
112
100
AcDbEntity
  8
Capa 1
 62
     7
420
 16777215
370
     9
100
AcDbVertex
100
AcDb2dVertex
 10
73.52384980800792
 20
-181.6695312045826
 30
0.0
  0
VERTEX
  5
114
330
112
100
AcDbEntity
  8
Capa 1
 62
     7
420
 16777215
370
     9
100
AcDbVertex
100
AcDb2dVertex
 10
73.52384980800792
 20
-180.1612684011402
 30
0.0
  0
SEQEND
  5
115
330
112
100
AcDbEntity
  8
Capa 1
370
     9
  0
POLYLINE
  5
116
330
3C
100
AcDbEntity
  8
Capa 1
 62
     7
420
 16777215
370
     9
100
AcDb2dPolyline
 66
     1
 10
0.0
 20
0.0
 30
0.0
  0
VERTEX
  5
117
330
116
100
AcDbEntity
  8
Capa 1
 62
     7
420
 16777215
370
     9
100
AcDbVertex
100
AcDb2dVertex
 10
68.82094996109338
 20
-185.6854790117384
 30
0.0
  0
VERTEX
  5
118
330
116
100
AcDbEntity
  8
Capa 1
 62
     7
420
 16777215
370
     9
100
AcDbVertex
100
AcDb2dVertex
 10
68.82094996109338
 20
-190.030777947284
 30
0.0
  0
SEQEND
  5
119
330
116
100
AcDbEntity
  8
Capa 1
370
     9
  0
POLYLINE
  5
11A
330
3C
100
AcDbEntity
  8
Capa 1
 62
     7
420
 16777215
370
     9
100
AcDb2dPolyline
 66
     1
 10
0.0
 20
0.0
 30
0.0
  0
VERTEX
  5
11B
330
11A
100
AcDbEntity
  8
Capa 1
 62
     7
420
 16777215
370
     9
100
AcDbVertex
100
AcDb2dVertex
 10
65.80838621401665
 20
-185.6854790117384
 30
0.0
  0
VERTEX
  5
11C
330
11A
100
AcDbEntity
  8
Capa 1
 62
     7
420
 16777215
370
     9
100
AcDbVertex
100
AcDb2dVertex
 10
65.80838621401665
 20
-190.030777947284
 30
0.0
  0
SEQEND
  5
11D
330
11A
100
AcDbEntity
  8
Capa 1
370
     9
  0
POLYLINE
  5
11E
330
3C
100
AcDbEntity
  8
Capa 1
 62
     7
420
 16777215
370
     9
100
AcDb2dPolyline
 66
     1
 10
0.0
 20
0.0
 30
0.0
  0
VERTEX
  5
11F
330
11E
100
AcDbEntity
  8
Capa 1
 62
     7
420
 16777215
370
     9
100
AcDbVertex
100
AcDb2dVertex
 10
65.74740802392773
 20
-197.2348171164899
 30
0.0
  0
VERTEX
  5
120
330
11E
100
AcDbEntity
  8
Capa 1
 62
     7
420
 16777215
370
     9
100
AcDbVertex
100
AcDb2dVertex
 10
68.92895370455597
 20
-197.2348171164899
 30
0.0
  0
SEQEND
  5
121
330
11E
100
AcDbEntity
  8
Capa 1
370
     9
  0
POLYLINE
  5
122
330
3C
100
AcDbEntity
  8
Capa 1
 62
     7
420
 16777215
370
     9
100
AcDb2dPolyline
 66
     1
 10
0.0
 20
0.0
 30
0.0
  0
VERTEX
  5
123
330
122
100
AcDbEntity
  8
Capa 1
 62
     7
420
 16777215
370
     9
100
AcDbVertex
100
AcDb2dVertex
 10
65.74740802392773
 20
-197.2348171164899
 30
0.0
  0
VERTEX
  5
124
330
122
100
AcDbEntity
  8
Capa 1
 62
     7
420
 16777215
370
     9
100
AcDbVertex
100
AcDb2dVertex
 10
65.74740802392773
 20
-196.5402858666635
 30
0.0
  0
SEQEND
  5
125
330
122
100
AcDbEntity
  8
Capa 1
370
     9
  0
POLYLINE
  5
126
330
3C
100
AcDbEntity
  8
Capa 1
 62
     7
420
 16777215
370
     9
100
AcDb2dPolyline
 66
     1
 10
0.0
 20
0.0
 30
0.0
  0
VERTEX
  5
127
330
126
100
AcDbEntity
  8
Capa 1
 62
     7
420
 16777215
370
     9
100
AcDbVertex
100
AcDb2dVertex
 10
68.92895370455597
 20
-197.2348171164899
 30
0.0
  0
VERTEX
  5
128
330
126
100
AcDbEntity
  8
Capa 1
 62
     7
420
 16777215
370
     9
100
AcDbVertex
100
AcDb2dVertex
 10
68.92895370455597
 20
-196.5402858666635
 30
0.0
  0
SEQEND
  5
129
330
126
100
AcDbEntity
  8
Capa 1
370
     9
  0
POLYLINE
  5
12A
330
3C
100
AcDbEntity
  8
Capa 1
 62
     7
420
 16777215
370
     9
100
AcDb2dPolyline
 66
     1
 10
0.0
 20
0.0
 30
0.0
  0
VERTEX
  5
12B
330
12A
100
AcDbEntity
  8
Capa 1
 62
     7
420
 16777215
370
     9
100
AcDbVertex
100
AcDb2dVertex
 10
65.74740802392773
 20
-196.5402858666635
 30
0.0
  0
VERTEX
  5
12C
330
12A
100
AcDbEntity
  8
Capa 1
 62
     7
420
 16777215
370
     9
100
AcDbVertex
100
AcDb2dVertex
 10
68.92895370455597
 20
-196.5402858666635
 30
0.0
  0
SEQEND
  5
12D
330
12A
100
AcDbEntity
  8
Capa 1
370
     9
  0
SPLINE
  5
12E
330
3C
100
AcDbEntity
  8
Capa 1
 62
     7
420
 16777215
370
     9
100
AcDbSpline
210
0.0
220
0.0
230
1.0
 70
     8
 71
     3
 72
     8
 73
     4
 74
     0
 42
0.0000000001
 43
0.0000000001
 40
0.0
 40
0.0
 40
0.0
 40
0.0
 40
1.0
 40
1.0
 40
1.0
 40
1.0
 10
65.74740802392773
 20
-197.2348171164899
 30
0.0
 10
66.09622394180928
 20
-197.7746635790286
 30
0.0
 10
66.69119193211193
 20
-198.1067707838066
 30
0.0
 10
67.3347357687566
 20
-198.1233072421358
 30
0.0
  0
POLYLINE
  5
12F
330
3C
100
AcDbEntity
  8
Capa 1
 62
     7
420
 16777215
370
     9
100
AcDb2dPolyline
 66
     1
 10
0.0
 20
0.0
 30
0.0
  0
VERTEX
  5
130
330
12F
100
AcDbEntity
  8
Capa 1
 62
     7
420
 16777215
370
     9
100
AcDbVertex
100
AcDb2dVertex
 10
67.09943574711403
 20
-196.5402858666635
 30
0.0
  0
VERTEX
  5
131
330
12F
100
AcDbEntity
  8
Capa 1
 62
     7
420
 16777215
370
     9
100
AcDbVertex
100
AcDb2dVertex
 10
67.57692598136966
 20
-196.5402858666635
 30
0.0
  0
SEQEND
  5
132
330
12F
100
AcDbEntity
  8
Capa 1
370
     9
  0
SPLINE
  5
133
330
3C
100
AcDbEntity
  8
Capa 1
 62
     7
420
 16777215
370
     9
100
AcDbSpline
210
0.0
220
0.0
230
1.0
 70
     8
 71
     3
 72
     8
 73
     4
 74
     0
 42
0.0000000001
 43
0.0000000001
 40
0.0
 40
0.0
 40
0.0
 40
0.0
 40
1.0
 40
1.0
 40
1.0
 40
1.0
 10
67.3347357687566
 20
-198.1233072421358
 30
0.0
 10
67.98103568178946
 20
-198.1095268601948
 30
0.0
 10
68.57738171028622
 20
-197.7774196554168
 30
0.0
 10
68.92895370455597
 20
-197.2348171164899
 30
0.0
  0
POLYLINE
  5
134
330
3C
100
AcDbEntity
  8
Capa 1
 62
     7
420
 16777215
370
     9
100
AcDb2dPolyline
 66
     1
 10
0.0
 20
0.0
 30
0.0
  0
VERTEX
  5
135
330
134
100
AcDbEntity
  8
Capa 1
 62
     7
420
 16777215
370
     9
100
AcDbVertex
100
AcDb2dVertex
 10
69.54958765622372
 20
-196.2801811575272
 30
0.0
  0
VERTEX
  5
136
330
134
100
AcDbEntity
  8
Capa 1
 62
     7
420
 16777215
370
     9
100
AcDbVertex
100
AcDb2dVertex
 10
69.54958765622372
 20
-190.3156873439141
 30
0.0
  0
SEQEND
  5
137
330
134
100
AcDbEntity
  8
Capa 1
370
     9
  0
POLYLINE
  5
138
330
3C
100
AcDbEntity
  8
Capa 1
 62
     7
420
 16777215
370
     9
100
AcDb2dPolyline
 66
     1
 10
0.0
 20
0.0
 30
0.0
  0
VERTEX
  5
139
330
138
100
AcDbEntity
  8
Capa 1
 62
     7
420
 16777215
370
     9
100
AcDbVertex
100
AcDb2dVertex
 10
68.36912568820286
 20
-196.2801811575272
 30
0.0
  0
VERTEX
  5
13A
330
138
100
AcDbEntity
  8
Capa 1
 62
     7
420
 16777215
370
     9
100
AcDbVertex
100
AcDb2dVertex
 10
68.36912568820286
 20
-190.3156873439141
 30
0.0
  0
SEQEND
  5
13B
330
138
100
AcDbEntity
  8
Capa 1
370
     9
  0
POLYLINE
  5
13C
330
3C
100
AcDbEntity
  8
Capa 1
 62
     7
420
 16777215
370
     9
100
AcDb2dPolyline
 66
     1
 10
0.0
 20
0.0
 30
0.0
  0
VERTEX
  5
13D
330
13C
100
AcDbEntity
  8
Capa 1
 62
     7
420
 16777215
370
     9
100
AcDbVertex
100
AcDb2dVertex
 10
66.15013968615344
 20
-196.2801811575272
 30
0.0
  0
VERTEX
  5
13E
330
13C
100
AcDbEntity
  8
Capa 1
 62
     7
420
 16777215
370
     9
100
AcDbVertex
100
AcDb2dVertex
 10
66.15013968615344
 20
-190.3156873439141
 30
0.0
  0
SEQEND
  5
13F
330
13C
100
AcDbEntity
  8
Capa 1
370
     9
  0
POLYLINE
  5
140
330
3C
100
AcDbEntity
  8
Capa 1
 62
     7
420
 16777215
370
     9
100
AcDb2dPolyline
 66
     1
 10
0.0
 20
0.0
 30
0.0
  0
VERTEX
  5
141
330
140
100
AcDbEntity
  8
Capa 1
 62
     7
420
 16777215
370
     9
100
AcDbVertex
100
AcDb2dVertex
 10
64.96967771813259
 20
-196.2801811575272
 30
0.0
  0
VERTEX
  5
142
330
140
100
AcDbEntity
  8
Capa 1
 62
     7
420
 16777215
370
     9
100
AcDbVertex
100
AcDb2dVertex
 10
64.96967771813259
 20
-190.3156873439141
 30
0.0
  0
SEQEND
  5
143
330
140
100
AcDbEntity
  8
Capa 1
370
     9
  0
SPLINE
  5
144
330
3C
100
AcDbEntity
  8
Capa 1
 62
     7
420
 16777215
370
     9
100
AcDbSpline
210
0.0
220
0.0
230
1.0
 70
     8
 71
     3
 72
     8
 73
     4
 74
     0
 42
0.0000000001
 43
0.0000000001
 40
0.0
 40
0.0
 40
0.0
 40
0.0
 40
1.0
 40
1.0
 40
1.0
 40
1.0
 10
69.03609617414723
 20
-196.5402858666635
 30
0.0
 10
69.23470592887188
 20
-196.5206488223976
 30
0.0
 10
69.41729598959013
 20
-196.4265977156503
 30
0.0
 10
69.54958765622372
 20
-196.2801811575272
 30
0.0
  0
POLYLINE
  5
145
330
3C
100
AcDbEntity
  8
Capa 1
 62
     7
420
 16777215
370
     9
100
AcDb2dPolyline
 66
     1
 10
0.0
 20
0.0
 30
0.0
  0
VERTEX
  5
146
330
145
100
AcDbEntity
  8
Capa 1
 62
     7
420
 16777215
370
     9
100
AcDbVertex
100
AcDb2dVertex
 10
69.03609617414723
 20
-196.5402858666635
 30
0.0
  0
VERTEX
  5
147
330
145
100
AcDbEntity
  8
Capa 1
 62
     7
420
 16777215
370
     9
100
AcDbVertex
100
AcDb2dVertex
 10
65.63819849704531
 20
-196.5402858666635
 30
0.0
  0
SEQEND
  5
148
330
145
100
AcDbEntity
  8
Capa 1
370
     9
  0
SPLINE
  5
149
330
3C
100
AcDbEntity
  8
Capa 1
 62
     7
420
 16777215
370
     9
100
AcDbSpline
210
0.0
220
0.0
230
1.0
 70
     8
 71
     3
 72
     8
 73
     4
 74
     0
 42
0.0000000001
 43
0.0000000001
 40
0.0
 40
0.0
 40
0.0
 40
0.0
 40
1.0
 40
1.0
 40
1.0
 40
1.0
 10
68.36912568820286
 20
-196.2801811575272
 30
0.0
 10
68.73861217899591
 20
-196.5320176374989
 30
0.0
 10
69.23746200526008
 20
-196.4820637529628
 30
0.0
 10
69.54958765622372
 20
-196.1582247773493
 30
0.0
  0
SPLINE
  5
14A
330
3C
100
AcDbEntity
  8
Capa 1
 62
     7
420
 16777215
370
     9
100
AcDbSpline
210
0.0
220
0.0
230
1.0
 70
     8
 71
     3
 72
     8
 73
     4
 74
     0
 42
0.0000000001
 43
0.0000000001
 40
0.0
 40
0.0
 40
0.0
 40
0.0
 40
1.0
 40
1.0
 40
1.0
 40
1.0
 10
64.96967771813259
 20
-196.1582247773493
 30
0.0
 10
65.28249238819326
 20
-196.4820637529628
 30
0.0
 10
65.77996417626335
 20
-196.5320176374989
 30
0.0
 10
66.15013968615344
 20
-196.2801811575272
 30
0.0
  0
SPLINE
  5
14B
330
3C
100
AcDbEntity
  8
Capa 1
 62
     7
420
 16777215
370
     9
100
AcDbSpline
210
0.0
220
0.0
230
1.0
 70
     8
 71
     3
 72
     8
 73
     4
 74
     0
 42
0.0000000001
 43
0.0000000001
 40
0.0
 40
0.0
 40
0.0
 40
0.0
 40
1.0
 40
1.0
 40
1.0
 40
1.0
 10
64.96967771813259
 20
-196.2801811575272
 30
0.0
 10
65.13797063258704
 20
-196.4682833710218
 30
0.0
 10
65.38774005526766
 20
-196.5650905541573
 30
0.0
 10
65.63819849704531
 20
-196.5402858666635
 30
0.0
  0
SPLINE
  5
14C
330
3C
100
AcDbEntity
  8
Capa 1
 62
     7
420
 16777215
370
     9
100
AcDbSpline
210
0.0
220
0.0
230
1.0
 70
     8
 71
     3
 72
     8
 73
     4
 74
     0
 42
0.0000000001
 43
0.0000000001
 40
0.0
 40
0.0
 40
0.0
 40
0.0
 40
1.0
 40
1.0
 40
1.0
 40
1.0
 10
66.15013968615344
 20
-196.2801811575272
 30
0.0
 10
66.87671032399263
 20
-196.484819829351
 30
0.0
 10
67.64324406946072
 20
-196.484819829351
 30
0.0
 10
68.36912568820286
 20
-196.2801811575272
 30
0.0
  0
SPLINE
  5
14D
330
3C
100
AcDbEntity
  8
Capa 1
 62
     7
420
 16777215
370
     9
100
AcDbSpline
210
0.0
220
0.0
230
1.0
 70
     8
 71
     3
 72
     8
 73
     4
 74
     0
 42
0.0000000001
 43
0.0000000001
 40
0.0
 40
0.0
 40
0.0
 40
0.0
 40
1.0
 40
1.0
 40
1.0
 40
1.0
 10
69.54958765622372
 20
-190.437643724092
 30
0.0
 10
69.23746200526008
 20
-190.1138047484785
 30
0.0
 10
68.73861217899591
 20
-190.0638508639424
 30
0.0
 10
68.36912568820286
 20
-190.3156873439141
 30
0.0
  0
POLYLINE
  5
14E
330
3C
100
AcDbEntity
  8
Capa 1
 62
     7
420
 16777215
370
     9
100
AcDb2dPolyline
 66
     1
 10
0.0
 20
0.0
 30
0.0
  0
VERTEX
  5
14F
330
14E
100
AcDbEntity
  8
Capa 1
 62
     7
420
 16777215
370
     9
100
AcDbVertex
100
AcDb2dVertex
 10
69.06727428828874
 20
-190.030777947284
 30
0.0
  0
VERTEX
  5
150
330
14E
100
AcDbEntity
  8
Capa 1
 62
     7
420
 16777215
370
     9
100
AcDbVertex
100
AcDb2dVertex
 10
65.45268010516462
 20
-190.030777947284
 30
0.0
  0
SEQEND
  5
151
330
14E
100
AcDbEntity
  8
Capa 1
370
     9
  0
POLYLINE
  5
152
330
3C
100
AcDbEntity
  8
Capa 1
 62
     7
420
 16777215
370
     9
100
AcDb2dPolyline
 66
     1
 10
0.0
 20
0.0
 30
0.0
  0
VERTEX
  5
153
330
152
100
AcDbEntity
  8
Capa 1
 62
     7
420
 16777215
370
     9
100
AcDbVertex
100
AcDb2dVertex
 10
69.54958765622372
 20
-190.3156873439141
 30
0.0
  0
VERTEX
  5
154
330
152
100
AcDbEntity
  8
Capa 1
 62
     7
420
 16777215
370
     9
100
AcDbVertex
100
AcDb2dVertex
 10
69.06727428828874
 20
-190.0390461764486
 30
0.0
  0
SEQEND
  5
155
330
152
100
AcDbEntity
  8
Capa 1
370
     9
  0
SPLINE
  5
156
330
3C
100
AcDbEntity
  8
Capa 1
 62
     7
420
 16777215
370
     9
100
AcDbSpline
210
0.0
220
0.0
230
1.0
 70
     8
 71
     3
 72
     8
 73
     4
 74
     0
 42
0.0000000001
 43
0.0000000001
 40
0.0
 40
0.0
 40
0.0
 40
0.0
 40
1.0
 40
1.0
 40
1.0
 40
1.0
 10
66.15013968615344
 20
-190.3156873439141
 30
0.0
 10
65.77996417626335
 20
-190.0638508639424
 30
0.0
 10
65.28249238819326
 20
-190.1138047484785
 30
0.0
 10
64.96967771813259
 20
-190.437643724092
 30
0.0
  0
POLYLINE
  5
157
330
3C
100
AcDbEntity
  8
Capa 1
 62
     7
420
 16777215
370
     9
100
AcDb2dPolyline
 66
     1
 10
0.0
 20
0.0
 30
0.0
  0
VERTEX
  5
158
330
157
100
AcDbEntity
  8
Capa 1
 62
     7
420
 16777215
370
     9
100
AcDbVertex
100
AcDb2dVertex
 10
64.96967771813259
 20
-190.3156873439141
 30
0.0
  0
VERTEX
  5
159
330
157
100
AcDbEntity
  8
Capa 1
 62
     7
420
 16777215
370
     9
100
AcDbVertex
100
AcDb2dVertex
 10
65.45268010516462
 20
-190.0390461764486
 30
0.0
  0
SEQEND
  5
15A
330
157
100
AcDbEntity
  8
Capa 1
370
     9
  0
SPLINE
  5
15B
330
3C
100
AcDbEntity
  8
Capa 1
 62
     7
420
 16777215
370
     9
100
AcDbSpline
210
0.0
220
0.0
230
1.0
 70
     8
 71
     3
 72
     8
 73
     4
 74
     0
 42
0.0000000001
 43
0.0000000001
 40
0.0
 40
0.0
 40
0.0
 40
0.0
 40
1.0
 40
1.0
 40
1.0
 40
1.0
 10
68.36912568820286
 20
-190.3156873439141
 30
0.0
 10
67.64892847701138
 20
-190.0748751694952
 30
0.0
 10
66.86982013302213
 20
-190.0748751694952
 30
0.0
 10
66.15013968615344
 20
-190.3156873439141
 30
0.0
  0
POLYLINE
  5
15C
330
3C
100
AcDbEntity
  8
Capa 1
 62
     7
420
 16777215
370
     9
100
AcDb2dPolyline
 66
     1
 10
0.0
 20
0.0
 30
0.0
  0
VERTEX
  5
15D
330
15C
100
AcDbEntity
  8
Capa 1
 62
     7
420
 16777215
370
     9
100
AcDbVertex
100
AcDb2dVertex
 10
78.56316322905712
 20
-198.2366508836006
 30
0.0
  0
VERTEX
  5
15E
330
15C
100
AcDbEntity
  8
Capa 1
 62
     7
420
 16777215
370
     9
100
AcDbVertex
100
AcDb2dVertex
 10
72.32409530526968
 20
-199.9802137086855
 30
0.0
  0
SEQEND
  5
15F
330
15C
100
AcDbEntity
  8
Capa 1
370
     9
  0
POLYLINE
  5
160
330
3C
100
AcDbEntity
  8
Capa 1
 62
     7
420
 16777215
370
     9
100
AcDb2dPolyline
 66
     1
 10
0.0
 20
0.0
 30
0.0
  0
VERTEX
  5
161
330
160
100
AcDbEntity
  8
Capa 1
 62
     7
420
 16777215
370
     9
100
AcDbVertex
100
AcDb2dVertex
 10
72.49221596494986
 20
-204.4777858646792
 30
0.0
  0
VERTEX
  5
162
330
160
100
AcDbEntity
  8
Capa 1
 62
     7
420
 16777215
370
     9
100
AcDbVertex
100
AcDb2dVertex
 10
78.67805716349021
 20
-202.8227619935652
 30
0.0
  0
SEQEND
  5
163
330
160
100
AcDbEntity
  8
Capa 1
370
     9
  0
POLYLINE
  5
164
330
3C
100
AcDbEntity
  8
Capa 1
 62
     7
420
 16777215
370
     9
100
AcDb2dPolyline
 66
     1
 10
0.0
 20
0.0
 30
0.0
  0
VERTEX
  5
165
330
164
100
AcDbEntity
  8
Capa 1
 62
     7
420
 16777215
370
     9
100
AcDbVertex
100
AcDb2dVertex
 10
65.80838621401665
 20
-184.0800645156119
 30
0.0
  0
VERTEX
  5
166
330
164
100
AcDbEntity
  8
Capa 1
 62
     7
420
 16777215
370
     9
100
AcDbVertex
100
AcDb2dVertex
 10
65.80838621401665
 20
-182.8735920766775
 30
0.0
  0
SEQEND
  5
167
330
164
100
AcDbEntity
  8
Capa 1
370
     9
  0
POLYLINE
  5
168
330
3C
100
AcDbEntity
  8
Capa 1
 62
     7
420
 16777215
370
     9
100
AcDb2dPolyline
 66
     1
 10
0.0
 20
0.0
 30
0.0
  0
VERTEX
  5
169
330
168
100
AcDbEntity
  8
Capa 1
 62
     7
420
 16777215
370
     9
100
AcDbVertex
100
AcDb2dVertex
 10
68.82094996109338
 20
-184.0800645156119
 30
0.0
  0
VERTEX
  5
16A
330
168
100
AcDbEntity
  8
Capa 1
 62
     7
420
 16777215
370
     9
100
AcDbVertex
100
AcDb2dVertex
 10
68.82094996109338
 20
-182.8735920766775
 30
0.0
  0
SEQEND
  5
16B
330
168
100
AcDbEntity
  8
Capa 1
370
     9
  0
POLYLINE
  5
16C
330
3C
100
AcDbEntity
  8
Capa 1
 62
     7
420
 16777215
370
     9
100
AcDb2dPolyline
 66
     1
 10
0.0
 20
0.0
 30
0.0
  0
VERTEX
  5
16D
330
16C
100
AcDbEntity
  8
Capa 1
 62
     7
420
 16777215
370
     9
100
AcDbVertex
100
AcDb2dVertex
 10
65.80838621401665
 20
-174.6312011282172
 30
0.0
  0
VERTEX
  5
16E
330
16C
100
AcDbEntity
  8
Capa 1
 62
     7
420
 16777215
370
     9
100
AcDbVertex
100
AcDb2dVertex
 10
65.80838621401665
 20
-163.9593288435588
 30
0.0
  0
SEQEND
  5
16F
330
16C
100
AcDbEntity
  8
Capa 1
370
     9
  0
POLYLINE
  5
170
330
3C
100
AcDbEntity
  8
Capa 1
 62
     7
420
 16777215
370
     9
100
AcDb2dPolyline
 66
     1
 10
0.0
 20
0.0
 30
0.0
  0
VERTEX
  5
171
330
170
100
AcDbEntity
  8
Capa 1
 62
     7
420
 16777215
370
     9
100
AcDbVertex
100
AcDb2dVertex
 10
68.82094996109338
 20
-174.6312011282172
 30
0.0
  0
VERTEX
  5
172
330
170
100
AcDbEntity
  8
Capa 1
 62
     7
420
 16777215
370
     9
100
AcDbVertex
100
AcDb2dVertex
 10
68.82094996109338
 20
-163.9593288435588
 30
0.0
  0
SEQEND
  5
173
330
170
100
AcDbEntity
  8
Capa 1
370
     9
  0
POLYLINE
  5
174
330
3C
100
AcDbEntity
  8
Capa 1
 62
     7
420
 16777215
370
     9
100
AcDb2dPolyline
 66
     1
 10
0.0
 20
0.0
 30
0.0
  0
VERTEX
  5
175
330
174
100
AcDbEntity
  8
Capa 1
 62
     7
420
 16777215
370
     9
100
AcDbVertex
100
AcDb2dVertex
 10
61.59107257574806
 20
-185.5662787079487
 30
0.0
  0
VERTEX
  5
176
330
174
100
AcDbEntity
  8
Capa 1
 62
     7
420
 16777215
370
     9
100
AcDbVertex
100
AcDb2dVertex
 10
61.59107257574806
 20
-184.1603352404182
 30
0.0
  0
SEQEND
  5
177
330
174
100
AcDbEntity
  8
Capa 1
370
     9
  0
SPLINE
  5
178
330
3C
100
AcDbEntity
  8
Capa 1
 62
     7
420
 16777215
370
     9
100
AcDbSpline
210
0.0
220
0.0
230
1.0
 70
     8
 71
     3
 72
     8
 73
     4
 74
     0
 42
0.0000000001
 43
0.0000000001
 40
0.0
 40
0.0
 40
0.0
 40
0.0
 40
1.0
 40
1.0
 40
1.0
 40
1.0
 10
61.67203231965144
 20
-181.6695312045826
 30
0.0
 10
61.62638480447188
 20
-181.6695312045826
 30
0.0
 10
61.59107257574806
 20
-181.7053601976292
 30
0.0
 10
61.59107257574806
 20
-181.749801929389
 30
0.0
  0
POLYLINE
  5
179
330
3C
100
AcDbEntity
  8
Capa 1
 62
     7
420
 16777215
370
     9
100
AcDb2dPolyline
 66
     1
 10
0.0
 20
0.0
 30
0.0
  0
VERTEX
  5
17A
330
179
100
AcDbEntity
  8
Capa 1
 62
     7
420
 16777215
370
     9
100
AcDbVertex
100
AcDb2dVertex
 10
61.59107257574806
 20
-182.7933213518711
 30
0.0
  0
VERTEX
  5
17B
330
179
100
AcDbEntity
  8
Capa 1
 62
     7
420
 16777215
370
     9
100
AcDbVertex
100
AcDb2dVertex
 10
61.59107257574806
 20
-181.749801929389
 30
0.0
  0
SEQEND
  5
17C
330
179
100
AcDbEntity
  8
Capa 1
370
     9
  0
SPLINE
  5
17D
330
3C
100
AcDbEntity
  8
Capa 1
 62
     7
420
 16777215
370
     9
100
AcDbSpline
210
0.0
220
0.0
230
1.0
 70
     8
 71
     3
 72
     8
 73
     4
 74
     0
 42
0.0000000001
 43
0.0000000001
 40
0.0
 40
0.0
 40
0.0
 40
0.0
 40
1.0
 40
1.0
 40
1.0
 40
1.0
 10
61.59107257574806
 20
-182.7933213518711
 30
0.0
 10
61.59107257574806
 20
-182.8374185740823
 30
0.0
 10
61.62638480447188
 20
-182.8735920766775
 30
0.0
 10
61.67203231965144
 20
-182.8735920766775
 30
0.0
  0
SPLINE
  5
17E
330
3C
100
AcDbEntity
  8
Capa 1
 62
     7
420
 16777215
370
     9
100
AcDbSpline
210
0.0
220
0.0
230
1.0
 70
     8
 71
     3
 72
     8
 73
     4
 74
     0
 42
0.0000000001
 43
0.0000000001
 40
0.0
 40
0.0
 40
0.0
 40
0.0
 40
1.0
 40
1.0
 40
1.0
 40
1.0
 10
61.67203231965144
 20
-184.0800645156119
 30
0.0
 10
61.62638480447188
 20
-184.0800645156119
 30
0.0
 10
61.59107257574806
 20
-184.1162380182071
 30
0.0
 10
61.59107257574806
 20
-184.1603352404182
 30
0.0
  0
SPLINE
  5
17F
330
3C
100
AcDbEntity
  8
Capa 1
 62
     7
420
 16777215
370
     9
100
AcDbSpline
210
0.0
220
0.0
230
1.0
 70
     8
 71
     3
 72
     8
 73
     4
 74
     0
 42
0.0000000001
 43
0.0000000001
 40
0.0
 40
0.0
 40
0.0
 40
0.0
 40
1.0
 40
1.0
 40
1.0
 40
1.0
 10
61.59107257574806
 20
-185.5662787079487
 30
0.0
 10
61.59107257574806
 20
-185.632769050814
 30
0.0
 10
61.64516057486649
 20
-185.6854790117384
 30
0.0
 10
61.71147866295755
 20
-185.6854790117384
 30
0.0
  0
POLYLINE
  5
180
330
3C
100
AcDbEntity
  8
Capa 1
 62
     7
420
 16777215
370
     9
100
AcDb2dPolyline
 66
     1
 10
0.0
 20
0.0
 30
0.0
  0
VERTEX
  5
181
330
180
100
AcDbEntity
  8
Capa 1
 62
     7
420
 16777215
370
     9
100
AcDbVertex
100
AcDb2dVertex
 10
80.3897528553366
 20
-181.6695312045826
 30
0.0
  0
VERTEX
  5
182
330
180
100
AcDbEntity
  8
Capa 1
 62
     7
420
 16777215
370
     9
100
AcDbVertex
100
AcDb2dVertex
 10
61.67203231965144
 20
-181.6695312045826
 30
0.0
  0
SEQEND
  5
183
330
180
100
AcDbEntity
  8
Capa 1
370
     9
  0
POLYLINE
  5
184
330
3C
100
AcDbEntity
  8
Capa 1
 62
     7
420
 16777215
370
     9
100
AcDb2dPolyline
 66
     1
 10
0.0
 20
0.0
 30
0.0
  0
VERTEX
  5
185
330
184
100
AcDbEntity
  8
Capa 1
 62
     7
420
 16777215
370
     9
100
AcDbVertex
100
AcDb2dVertex
 10
80.3897528553366
 20
-182.8735920766775
 30
0.0
  0
VERTEX
  5
186
330
184
100
AcDbEntity
  8
Capa 1
 62
     7
420
 16777215
370
     9
100
AcDbVertex
100
AcDb2dVertex
 10
61.67203231965144
 20
-182.8735920766775
 30
0.0
  0
SEQEND
  5
187
330
184
100
AcDbEntity
  8
Capa 1
370
     9
  0
POLYLINE
  5
188
330
3C
100
AcDbEntity
  8
Capa 1
 62
     7
420
 16777215
370
     9
100
AcDb2dPolyline
 66
     1
 10
0.0
 20
0.0
 30
0.0
  0
VERTEX
  5
189
330
188
100
AcDbEntity
  8
Capa 1
 62
     7
420
 16777215
370
     9
100
AcDbVertex
100
AcDb2dVertex
 10
80.3897528553366
 20
-184.0800645156119
 30
0.0
  0
VERTEX
  5
18A
330
188
100
AcDbEntity
  8
Capa 1
 62
     7
420
 16777215
370
     9
100
AcDbVertex
100
AcDb2dVertex
 10
61.67203231965144
 20
-184.0800645156119
 30
0.0
  0
SEQEND
  5
18B
330
188
100
AcDbEntity
  8
Capa 1
370
     9
  0
POLYLINE
  5
18C
330
3C
100
AcDbEntity
  8
Capa 1
 62
     7
420
 16777215
370
     9
100
AcDb2dPolyline
 66
     1
 10
0.0
 20
0.0
 30
0.0
  0
VERTEX
  5
18D
330
18C
100
AcDbEntity
  8
Capa 1
 62
     7
420
 16777215
370
     9
100
AcDbVertex
100
AcDb2dVertex
 10
80.35030651203049
 20
-185.6854790117384
 30
0.0
  0
VERTEX
  5
18E
330
18C
100
AcDbEntity
  8
Capa 1
 62
     7
420
 16777215
370
     9
100
AcDbVertex
100
AcDb2dVertex
 10
61.71147866295755
 20
-185.6854790117384
 30
0.0
  0
SEQEND
  5
18F
330
18C
100
AcDbEntity
  8
Capa 1
370
     9
  0
POLYLINE
  5
190
330
3C
100
AcDbEntity
  8
Capa 1
 62
     7
420
 16777215
370
     9
100
AcDb2dPolyline
 66
     1
 10
0.0
 20
0.0
 30
0.0
  0
VERTEX
  5
191
330
190
100
AcDbEntity
  8
Capa 1
 62
     7
420
 16777215
370
     9
100
AcDbVertex
100
AcDb2dVertex
 10
73.52384980800792
 20
-204.2039007736018
 30
0.0
  0
VERTEX
  5
192
330
190
100
AcDbEntity
  8
Capa 1
 62
     7
420
 16777215
370
     9
100
AcDbVertex
100
AcDb2dVertex
 10
73.52384980800792
 20
-207.3837239064874
 30
0.0
  0
SEQEND
  5
193
330
190
100
AcDbEntity
  8
Capa 1
370
     9
  0
POLYLINE
  5
194
330
3C
100
AcDbEntity
  8
Capa 1
 62
     7
420
 16777215
370
     9
100
AcDb2dPolyline
 66
     1
 10
0.0
 20
0.0
 30
0.0
  0
VERTEX
  5
195
330
194
100
AcDbEntity
  8
Capa 1
 62
     7
420
 16777215
370
     9
100
AcDbVertex
100
AcDb2dVertex
 10
77.53979761516366
 20
-207.3837239064874
 30
0.0
  0
VERTEX
  5
196
330
194
100
AcDbEntity
  8
Capa 1
 62
     7
420
 16777215
370
     9
100
AcDbVertex
100
AcDb2dVertex
 10
77.53979761516366
 20
-203.1273084344612
 30
0.0
  0
SEQEND
  5
197
330
194
100
AcDbEntity
  8
Capa 1
370
     9
  0
POLYLINE
  5
198
330
3C
100
AcDbEntity
  8
Capa 1
 62
     7
420
 16777215
370
     9
100
AcDb2dPolyline
 66
     1
 10
0.0
 20
0.0
 30
0.0
  0
VERTEX
  5
199
330
198
100
AcDbEntity
  8
Capa 1
 62
     7
420
 16777215
370
     9
100
AcDbVertex
100
AcDb2dVertex
 10
72.51925996450908
 20
-218.6288600798914
 30
0.0
  0
VERTEX
  5
19A
330
198
100
AcDbEntity
  8
Capa 1
 62
     7
420
 16777215
370
     9
100
AcDbVertex
100
AcDb2dVertex
 10
71.91722952846168
 20
-218.2802164167841
 30
0.0
  0
SEQEND
  5
19B
330
198
100
AcDbEntity
  8
Capa 1
370
     9
  0
POLYLINE
  5
19C
330
3C
100
AcDbEntity
  8
Capa 1
 62
     7
420
 16777215
370
     9
100
AcDb2dPolyline
 66
     1
 10
0.0
 20
0.0
 30
0.0
  0
VERTEX
  5
19D
330
19C
100
AcDbEntity
  8
Capa 1
 62
     7
420
 16777215
370
     9
100
AcDbVertex
100
AcDb2dVertex
 10
72.51925996450908
 20
-214.6129122727357
 30
0.0
  0
VERTEX
  5
19E
330
19C
100
AcDbEntity
  8
Capa 1
 62
     7
420
 16777215
370
     9
100
AcDbVertex
100
AcDb2dVertex
 10
71.91722952846168
 20
-214.9587998594548
 30
0.0
  0
SEQEND
  5
19F
330
19C
100
AcDbEntity
  8
Capa 1
370
     9
  0
POLYLINE
  5
1A0
330
3C
100
AcDbEntity
  8
Capa 1
 62
     7
420
 16777215
370
     9
100
AcDb2dPolyline
 66
     1
 10
0.0
 20
0.0
 30
0.0
  0
VERTEX
  5
1A1
330
1A0
100
AcDbEntity
  8
Capa 1
 62
     7
420
 16777215
370
     9
100
AcDbVertex
100
AcDb2dVertex
 10
71.91722952846168
 20
-214.9587998594548
 30
0.0
  0
VERTEX
  5
1A2
330
1A0
100
AcDbEntity
  8
Capa 1
 62
     7
420
 16777215
370
     9
100
AcDbVertex
100
AcDb2dVertex
 10
71.91722952846168
 20
-218.2802164167841
 30
0.0
  0
SEQEND
  5
1A3
330
1A0
100
AcDbEntity
  8
Capa 1
370
     9
  0
SPLINE
  5
1A4
330
3C
100
AcDbEntity
  8
Capa 1
 62
     7
420
 16777215
370
     9
100
AcDbSpline
210
0.0
220
0.0
230
1.0
 70
     8
 71
     3
 72
     8
 73
     4
 74
     0
 42
0.0000000001
 43
0.0000000001
 40
0.0
 40
0.0
 40
0.0
 40
0.0
 40
1.0
 40
1.0
 40
1.0
 40
1.0
 10
77.53979761516366
 20
-218.2802164167841
 30
0.0
 10
77.81936711379169
 20
-218.5182725148149
 30
0.0
 10
78.17765704425767
 20
-218.6426404618324
 30
0.0
 10
78.54507647775957
 20
-218.6288600798914
 30
0.0
  0
SPLINE
  5
1A5
330
3C
100
AcDbEntity
  8
Capa 1
 62
     7
420
 16777215
370
     9
100
AcDbSpline
210
0.0
220
0.0
230
1.0
 70
     8
 71
     3
 72
     8
 73
     4
 74
     0
 42
0.0000000001
 43
0.0000000001
 40
0.0
 40
0.0
 40
0.0
 40
0.0
 40
1.0
 40
1.0
 40
1.0
 40
1.0
 10
78.54507647775957
 20
-214.6129122727357
 30
0.0
 10
78.17765704425767
 20
-214.5991318907947
 30
0.0
 10
77.81936711379169
 20
-214.7210882709725
 30
0.0
 10
77.53979761516366
 20
-214.9587998594548
 30
0.0
  0
SPLINE
  5
1A6
330
3C
100
AcDbEntity
  8
Capa 1
 62
     7
420
 16777215
370
     9
100
AcDbSpline
210
0.0
220
0.0
230
1.0
 70
     8
 71
     3
 72
     8
 73
     4
 74
     0
 42
0.0000000001
 43
0.0000000001
 40
0.0
 40
0.0
 40
0.0
 40
0.0
 40
1.0
 40
1.0
 40
1.0
 40
1.0
 10
73.52384980800792
 20
-214.9587998594548
 30
0.0
 10
73.24514158325121
 20
-214.7210882709725
 30
0.0
 10
72.88667939801097
 20
-214.5991318907947
 30
0.0
 10
72.51925996450908
 20
-214.6129122727357
 30
0.0
  0
SPLINE
  5
1A7
330
3C
100
AcDbEntity
  8
Capa 1
 62
     7
420
 16777215
370
     9
100
AcDbSpline
210
0.0
220
0.0
230
1.0
 70
     8
 71
     3
 72
     8
 73
     4
 74
     0
 42
0.0000000001
 43
0.0000000001
 40
0.0
 40
0.0
 40
0.0
 40
0.0
 40
1.0
 40
1.0
 40
1.0
 40
1.0
 10
72.51925996450908
 20
-218.6288600798914
 30
0.0
 10
72.88667939801097
 20
-218.6426404618324
 30
0.0
 10
73.24514158325121
 20
-218.5182725148149
 30
0.0
 10
73.52384980800792
 20
-218.2802164167841
 30
0.0
  0
SPLINE
  5
1A8
330
3C
100
AcDbEntity
  8
Capa 1
 62
     7
420
 16777215
370
     9
100
AcDbSpline
210
0.0
220
0.0
230
1.0
 70
     8
 71
     3
 72
     8
 73
     4
 74
     0
 42
0.0000000001
 43
0.0000000001
 40
0.0
 40
0.0
 40
0.0
 40
0.0
 40
1.0
 40
1.0
 40
1.0
 40
1.0
 10
73.52384980800792
 20
-218.2802164167841
 30
0.0
 10
74.82196178685007
 20
-218.7449597977443
 30
0.0
 10
76.24237465541857
 20
-218.7449597977443
 30
0.0
 10
77.53979761516366
 20
-218.2802164167841
 30
0.0
  0
SPLINE
  5
1A9
330
3C
100
AcDbEntity
  8
Capa 1
 62
     7
420
 16777215
370
     9
100
AcDbSpline
210
0.0
220
0.0
230
1.0
 70
     8
 71
     3
 72
     8
 73
     4
 74
     0
 42
0.0000000001
 43
0.0000000001
 40
0.0
 40
0.0
 40
0.0
 40
0.0
 40
1.0
 40
1.0
 40
1.0
 40
1.0
 10
77.53979761516366
 20
-214.9587998594548
 30
0.0
 10
76.24237465541857
 20
-214.4968125548828
 30
0.0
 10
74.82196178685007
 20
-214.4968125548828
 30
0.0
 10
73.52384980800792
 20
-214.9587998594548
 30
0.0
  0
POLYLINE
  5
1AA
330
3C
100
AcDbEntity
  8
Capa 1
 62
     7
420
 16777215
370
     9
100
AcDb2dPolyline
 66
     1
 10
0.0
 20
0.0
 30
0.0
  0
VERTEX
  5
1AB
330
1AA
100
AcDbEntity
  8
Capa 1
 62
     7
420
 16777215
370
     9
100
AcDbVertex
100
AcDb2dVertex
 10
77.53979761516366
 20
-214.9587998594548
 30
0.0
  0
VERTEX
  5
1AC
330
1AA
100
AcDbEntity
  8
Capa 1
 62
     7
420
 16777215
370
     9
100
AcDbVertex
100
AcDb2dVertex
 10
77.53979761516366
 20
-218.2802164167841
 30
0.0
  0
SEQEND
  5
1AD
330
1AA
100
AcDbEntity
  8
Capa 1
370
     9
  0
POLYLINE
  5
1AE
330
3C
100
AcDbEntity
  8
Capa 1
 62
     7
420
 16777215
370
     9
100
AcDb2dPolyline
 66
     1
 10
0.0
 20
0.0
 30
0.0
  0
VERTEX
  5
1AF
330
1AE
100
AcDbEntity
  8
Capa 1
 62
     7
420
 16777215
370
     9
100
AcDbVertex
100
AcDb2dVertex
 10
73.52384980800792
 20
-214.9587998594548
 30
0.0
  0
VERTEX
  5
1B0
330
1AE
100
AcDbEntity
  8
Capa 1
 62
     7
420
 16777215
370
     9
100
AcDbVertex
100
AcDb2dVertex
 10
73.52384980800792
 20
-218.2802164167841
 30
0.0
  0
SEQEND
  5
1B1
330
1AE
100
AcDbEntity
  8
Capa 1
370
     9
  0
POLYLINE
  5
1B2
330
3C
100
AcDbEntity
  8
Capa 1
 62
     7
420
 16777215
370
     9
100
AcDb2dPolyline
 66
     1
 10
0.0
 20
0.0
 30
0.0
  0
VERTEX
  5
1B3
330
1B2
100
AcDbEntity
  8
Capa 1
 62
     7
420
 16777215
370
     9
100
AcDbVertex
100
AcDb2dVertex
 10
78.54507647775957
 20
-218.6288600798914
 30
0.0
  0
VERTEX
  5
1B4
330
1B2
100
AcDbEntity
  8
Capa 1
 62
     7
420
 16777215
370
     9
100
AcDbVertex
100
AcDb2dVertex
 10
79.14710691380698
 20
-218.2802164167841
 30
0.0
  0
SEQEND
  5
1B5
330
1B2
100
AcDbEntity
  8
Capa 1
370
     9
  0
POLYLINE
  5
1B6
330
3C
100
AcDbEntity
  8
Capa 1
 62
     7
420
 16777215
370
     9
100
AcDb2dPolyline
 66
     1
 10
0.0
 20
0.0
 30
0.0
  0
VERTEX
  5
1B7
330
1B6
100
AcDbEntity
  8
Capa 1
 62
     7
420
 16777215
370
     9
100
AcDbVertex
100
AcDb2dVertex
 10
78.54507647775957
 20
-214.6129122727357
 30
0.0
  0
VERTEX
  5
1B8
330
1B6
100
AcDbEntity
  8
Capa 1
 62
     7
420
 16777215
370
     9
100
AcDbVertex
100
AcDb2dVertex
 10
79.14710691380698
 20
-214.9587998594548
 30
0.0
  0
SEQEND
  5
1B9
330
1B6
100
AcDbEntity
  8
Capa 1
370
     9
  0
SPLINE
  5
1BA
330
3C
100
AcDbEntity
  8
Capa 1
 62
     7
420
 16777215
370
     9
100
AcDbSpline
210
0.0
220
0.0
230
1.0
 70
     8
 71
     3
 72
     8
 73
     4
 74
     0
 42
0.0000000001
 43
0.0000000001
 40
0.0
 40
0.0
 40
0.0
 40
0.0
 40
1.0
 40
1.0
 40
1.0
 40
1.0
 10
73.72383760092669
 20
-214.0096760532684
 30
0.0
 10
73.6130777810759
 20
-214.0096760532684
 30
0.0
 10
73.52384980800792
 20
-214.0982150072393
 30
0.0
 10
73.52384980800792
 20
-214.2088025723159
 30
0.0
  0
POLYLINE
  5
1BB
330
3C
100
AcDbEntity
  8
Capa 1
 62
     7
420
 16777215
370
     9
100
AcDb2dPolyline
 66
     1
 10
0.0
 20
0.0
 30
0.0
  0
VERTEX
  5
1BC
330
1BB
100
AcDbEntity
  8
Capa 1
 62
     7
420
 16777215
370
     9
100
AcDbVertex
100
AcDb2dVertex
 10
78.54507647775957
 20
-218.6288600798914
 30
0.0
  0
VERTEX
  5
1BD
330
1BB
100
AcDbEntity
  8
Capa 1
 62
     7
420
 16777215
370
     9
100
AcDbVertex
100
AcDb2dVertex
 10
72.51925996450908
 20
-218.6288600798914
 30
0.0
  0
SEQEND
  5
1BE
330
1BB
100
AcDbEntity
  8
Capa 1
370
     9
  0
POLYLINE
  5
1BF
330
3C
100
AcDbEntity
  8
Capa 1
 62
     7
420
 16777215
370
     9
100
AcDb2dPolyline
 66
     1
 10
0.0
 20
0.0
 30
0.0
  0
VERTEX
  5
1C0
330
1BF
100
AcDbEntity
  8
Capa 1
 62
     7
420
 16777215
370
     9
100
AcDbVertex
100
AcDb2dVertex
 10
79.14710691380698
 20
-214.9587998594548
 30
0.0
  0
VERTEX
  5
1C1
330
1BF
100
AcDbEntity
  8
Capa 1
 62
     7
420
 16777215
370
     9
100
AcDbVertex
100
AcDb2dVertex
 10
79.14710691380698
 20
-218.2802164167841
 30
0.0
  0
SEQEND
  5
1C2
330
1BF
100
AcDbEntity
  8
Capa 1
370
     9
  0
SPLINE
  5
1C3
330
3C
100
AcDbEntity
  8
Capa 1
 62
     7
420
 16777215
370
     9
100
AcDbSpline
210
0.0
220
0.0
230
1.0
 70
     8
 71
     3
 72
     8
 73
     4
 74
     0
 42
0.0000000001
 43
0.0000000001
 40
0.0
 40
0.0
 40
0.0
 40
0.0
 40
1.0
 40
1.0
 40
1.0
 40
1.0
 10
77.53979761516366
 20
-214.2088025723159
 30
0.0
 10
77.53979761516366
 20
-214.0982150072393
 30
0.0
 10
77.4505696420957
 20
-214.0096760532684
 30
0.0
 10
77.34049884134197
 20
-214.0096760532684
 30
0.0
  0
POLYLINE
  5
1C4
330
3C
100
AcDbEntity
  8
Capa 1
 62
     7
420
 16777215
370
     9
100
AcDb2dPolyline
 66
     1
 10
0.0
 20
0.0
 30
0.0
  0
VERTEX
  5
1C5
330
1C4
100
AcDbEntity
  8
Capa 1
 62
     7
420
 16777215
370
     9
100
AcDbVertex
100
AcDb2dVertex
 10
77.53979761516366
 20
-214.6129122727357
 30
0.0
  0
VERTEX
  5
1C6
330
1C4
100
AcDbEntity
  8
Capa 1
 62
     7
420
 16777215
370
     9
100
AcDbVertex
100
AcDb2dVertex
 10
77.53979761516366
 20
-214.2088025723159
 30
0.0
  0
SEQEND
  5
1C7
330
1C4
100
AcDbEntity
  8
Capa 1
370
     9
  0
POLYLINE
  5
1C8
330
3C
100
AcDbEntity
  8
Capa 1
 62
     7
420
 16777215
370
     9
100
AcDb2dPolyline
 66
     1
 10
0.0
 20
0.0
 30
0.0
  0
VERTEX
  5
1C9
330
1C8
100
AcDbEntity
  8
Capa 1
 62
     7
420
 16777215
370
     9
100
AcDbVertex
100
AcDb2dVertex
 10
72.51925996450908
 20
-214.6129122727357
 30
0.0
  0
VERTEX
  5
1CA
330
1C8
100
AcDbEntity
  8
Capa 1
 62
     7
420
 16777215
370
     9
100
AcDbVertex
100
AcDb2dVertex
 10
78.54507647775957
 20
-214.6129122727357
 30
0.0
  0
SEQEND
  5
1CB
330
1C8
100
AcDbEntity
  8
Capa 1
370
     9
  0
POLYLINE
  5
1CC
330
3C
100
AcDbEntity
  8
Capa 1
 62
     7
420
 16777215
370
     9
100
AcDb2dPolyline
 66
     1
 10
0.0
 20
0.0
 30
0.0
  0
VERTEX
  5
1CD
330
1CC
100
AcDbEntity
  8
Capa 1
 62
     7
420
 16777215
370
     9
100
AcDbVertex
100
AcDb2dVertex
 10
73.72383760092669
 20
-214.0096760532684
 30
0.0
  0
VERTEX
  5
1CE
330
1CC
100
AcDbEntity
  8
Capa 1
 62
     7
420
 16777215
370
     9
100
AcDbVertex
100
AcDb2dVertex
 10
77.34049884134197
 20
-214.0096760532684
 30
0.0
  0
SEQEND
  5
1CF
330
1CC
100
AcDbEntity
  8
Capa 1
370
     9
  0
POLYLINE
  5
1D0
330
3C
100
AcDbEntity
  8
Capa 1
 62
     7
420
 16777215
370
     9
100
AcDb2dPolyline
 66
     1
 10
0.0
 20
0.0
 30
0.0
  0
VERTEX
  5
1D1
330
1D0
100
AcDbEntity
  8
Capa 1
 62
     7
420
 16777215
370
     9
100
AcDbVertex
100
AcDb2dVertex
 10
73.52384980800792
 20
-212.404261557142
 30
0.0
  0
VERTEX
  5
1D2
330
1D0
100
AcDbEntity
  8
Capa 1
 62
     7
420
 16777215
370
     9
100
AcDbVertex
100
AcDb2dVertex
 10
73.52384980800792
 20
-209.5896185456929
 30
0.0
  0
SEQEND
  5
1D3
330
1D0
100
AcDbEntity
  8
Capa 1
370
     9
  0
SPLINE
  5
1D4
330
3C
100
AcDbEntity
  8
Capa 1
 62
     7
420
 16777215
370
     9
100
AcDbSpline
210
0.0
220
0.0
230
1.0
 70
     8
 71
     3
 72
    11
 73
     7
 74
     0
 42
0.0000000001
 43
0.0000000001
 40
0.0
 40
0.0
 40
0.0
 40
0.0
 40
1.0
 40
1.0
 40
1.0
 40
2.0
 40
2.0
 40
2.0
 40
2.0
 10
74.52723386808694
 20
-209.5896185456929
 30
0.0
 10
74.52723386808694
 20
-209.3129773782273
 30
0.0
 10
74.37151555215365
 20
-209.0887016621376
 30
0.0
 10
74.17635089291424
 20
-209.0887016621376
 30
0.0
 10
73.9818752527719
 20
-209.0887016621376
 30
0.0
 10
73.82495115341877
 20
-209.3129773782273
 30
0.0
 10
73.82495115341877
 20
-209.5896185456929
 30
0.0
  0
SPLINE
  5
1D5
330
3C
100
AcDbEntity
  8
Capa 1
 62
     7
420
 16777215
370
     9
100
AcDbSpline
210
0.0
220
0.0
230
1.0
 70
     8
 71
     3
 72
    11
 73
     7
 74
     0
 42
0.0000000001
 43
0.0000000001
 40
0.0
 40
0.0
 40
0.0
 40
0.0
 40
1.0
 40
1.0
 40
1.0
 40
2.0
 40
2.0
 40
2.0
 40
2.0
 10
73.82495115341877
 20
-212.404261557142
 30
0.0
 10
73.82495115341877
 20
-212.6812472341561
 30
0.0
 10
73.9818752527719
 20
-212.9055229502459
 30
0.0
 10
74.17635089291424
 20
-212.9055229502459
 30
0.0
 10
74.37151555215365
 20
-212.9055229502459
 30
0.0
 10
74.52723386808694
 20
-212.6812472341561
 30
0.0
 10
74.52723386808694
 20
-212.404261557142
 30
0.0
  0
POLYLINE
  5
1D6
330
3C
100
AcDbEntity
  8
Capa 1
 62
     7
420
 16777215
370
     9
100
AcDb2dPolyline
 66
     1
 10
0.0
 20
0.0
 30
0.0
  0
VERTEX
  5
1D7
330
1D6
100
AcDbEntity
  8
Capa 1
 62
     7
420
 16777215
370
     9
100
AcDbVertex
100
AcDb2dVertex
 10
74.52723386808694
 20
-212.404261557142
 30
0.0
  0
VERTEX
  5
1D8
330
1D6
100
AcDbEntity
  8
Capa 1
 62
     7
420
 16777215
370
     9
100
AcDbVertex
100
AcDb2dVertex
 10
74.52723386808694
 20
-209.5896185456929
 30
0.0
  0
SEQEND
  5
1D9
330
1D6
100
AcDbEntity
  8
Capa 1
370
     9
  0
POLYLINE
  5
1DA
330
3C
100
AcDbEntity
  8
Capa 1
 62
     7
420
 16777215
370
     9
100
AcDb2dPolyline
 66
     1
 10
0.0
 20
0.0
 30
0.0
  0
VERTEX
  5
1DB
330
1DA
100
AcDbEntity
  8
Capa 1
 62
     7
420
 16777215
370
     9
100
AcDbVertex
100
AcDb2dVertex
 10
73.82495115341877
 20
-212.404261557142
 30
0.0
  0
VERTEX
  5
1DC
330
1DA
100
AcDbEntity
  8
Capa 1
 62
     7
420
 16777215
370
     9
100
AcDbVertex
100
AcDb2dVertex
 10
73.82495115341877
 20
-209.5896185456929
 30
0.0
  0
SEQEND
  5
1DD
330
1DA
100
AcDbEntity
  8
Capa 1
370
     9
  0
POLYLINE
  5
1DE
330
3C
100
AcDbEntity
  8
Capa 1
 62
     7
420
 16777215
370
     9
100
AcDb2dPolyline
 66
     1
 10
0.0
 20
0.0
 30
0.0
  0
VERTEX
  5
1DF
330
1DE
100
AcDbEntity
  8
Capa 1
 62
     7
420
 16777215
370
     9
100
AcDbVertex
100
AcDb2dVertex
 10
73.52384980800792
 20
-212.404261557142
 30
0.0
  0
VERTEX
  5
1E0
330
1DE
100
AcDbEntity
  8
Capa 1
 62
     7
420
 16777215
370
     9
100
AcDbVertex
100
AcDb2dVertex
 10
73.1896755459387
 20
-213.0688204762467
 30
0.0
  0
SEQEND
  5
1E1
330
1DE
100
AcDbEntity
  8
Capa 1
370
     9
  0
SPLINE
  5
1E2
330
3C
100
AcDbEntity
  8
Capa 1
 62
     7
420
 16777215
370
     9
100
AcDbSpline
210
0.0
220
0.0
230
1.0
 70
     8
 71
     3
 72
     8
 73
     4
 74
     0
 42
0.0000000001
 43
0.0000000001
 40
0.0
 40
0.0
 40
0.0
 40
0.0
 40
1.0
 40
1.0
 40
1.0
 40
1.0
 10
73.12197941965354
 20
-208.0369140104908
 30
0.0
 10
73.12197941965354
 20
-208.5795165494176
 30
0.0
 10
73.26098902248337
 20
-209.1135063496314
 30
0.0
 10
73.52384980800792
 20
-209.5896185456929
 30
0.0
  0
POLYLINE
  5
1E3
330
3C
100
AcDbEntity
  8
Capa 1
 62
     7
420
 16777215
370
     9
100
AcDb2dPolyline
 66
     1
 10
0.0
 20
0.0
 30
0.0
  0
VERTEX
  5
1E4
330
1E3
100
AcDbEntity
  8
Capa 1
 62
     7
420
 16777215
370
     9
100
AcDbVertex
100
AcDb2dVertex
 10
73.12197941965354
 20
-208.0369140104908
 30
0.0
  0
VERTEX
  5
1E5
330
1E3
100
AcDbEntity
  8
Capa 1
 62
     7
420
 16777215
370
     9
100
AcDbVertex
100
AcDb2dVertex
 10
73.12197941965354
 20
-207.3837239064874
 30
0.0
  0
SEQEND
  5
1E6
330
1E3
100
AcDbEntity
  8
Capa 1
370
     9
  0
SPLINE
  5
1E7
330
3C
100
AcDbEntity
  8
Capa 1
 62
     7
420
 16777215
370
     9
100
AcDbSpline
210
0.0
220
0.0
230
1.0
 70
     8
 71
     3
 72
    11
 73
     7
 74
     0
 42
0.0000000001
 43
0.0000000001
 40
0.0
 40
0.0
 40
0.0
 40
0.0
 40
1.0
 40
1.0
 40
1.0
 40
2.0
 40
2.0
 40
2.0
 40
2.0
 10
76.03342961423817
 20
-209.5896185456929
 30
0.0
 10
76.03342961423817
 20
-209.3129773782273
 30
0.0
 10
75.81001517201972
 20
-209.0887016621376
 30
0.0
 10
75.5318237115858
 20
-209.0887016621376
 30
0.0
 10
75.25569930844303
 20
-209.0887016621376
 30
0.0
 10
75.03021780893341
 20
-209.3129773782273
 30
0.0
 10
75.03021780893341
 20
-209.5896185456929
 30
0.0
  0
SPLINE
  5
1E8
330
3C
100
AcDbEntity
  8
Capa 1
 62
     7
420
 16777215
370
     9
100
AcDbSpline
210
0.0
220
0.0
230
1.0
 70
     8
 71
     3
 72
    11
 73
     7
 74
     0
 42
0.0000000001
 43
0.0000000001
 40
0.0
 40
0.0
 40
0.0
 40
0.0
 40
1.0
 40
1.0
 40
1.0
 40
2.0
 40
2.0
 40
2.0
 40
2.0
 10
77.23955754362414
 20
-209.5896185456929
 30
0.0
 10
77.23955754362414
 20
-209.3129773782273
 30
0.0
 10
77.08246118949675
 20
-209.0887016621376
 30
0.0
 10
76.8879855493544
 20
-209.0887016621376
 30
0.0
 10
76.69419892830909
 20
-209.0887016621376
 30
0.0
 10
76.5365858098589
 20
-209.3129773782273
 30
0.0
 10
76.5365858098589
 20
-209.5896185456929
 30
0.0
  0
SPLINE
  5
1E9
330
3C
100
AcDbEntity
  8
Capa 1
 62
     7
420
 16777215
370
     9
100
AcDbSpline
210
0.0
220
0.0
230
1.0
 70
     8
 71
     3
 72
    11
 73
     7
 74
     0
 42
0.0000000001
 43
0.0000000001
 40
0.0
 40
0.0
 40
0.0
 40
0.0
 40
1.0
 40
1.0
 40
1.0
 40
2.0
 40
2.0
 40
2.0
 40
2.0
 10
76.5365858098589
 20
-212.404261557142
 30
0.0
 10
76.5365858098589
 20
-212.6812472341561
 30
0.0
 10
76.69419892830909
 20
-212.9055229502459
 30
0.0
 10
76.8879855493544
 20
-212.9055229502459
 30
0.0
 10
77.08246118949675
 20
-212.9055229502459
 30
0.0
 10
77.23955754362414
 20
-212.6812472341561
 30
0.0
 10
77.23955754362414
 20
-212.404261557142
 30
0.0
  0
SPLINE
  5
1EA
330
3C
100
AcDbEntity
  8
Capa 1
 62
     7
420
 16777215
370
     9
100
AcDbSpline
210
0.0
220
0.0
230
1.0
 70
     8
 71
     3
 72
    11
 73
     7
 74
     0
 42
0.0000000001
 43
0.0000000001
 40
0.0
 40
0.0
 40
0.0
 40
0.0
 40
1.0
 40
1.0
 40
1.0
 40
2.0
 40
2.0
 40
2.0
 40
2.0
 10
75.03021780893341
 20
-212.404261557142
 30
0.0
 10
75.03021780893341
 20
-212.6812472341561
 30
0.0
 10
75.25569930844303
 20
-212.9055229502459
 30
0.0
 10
75.5318237115858
 20
-212.9055229502459
 30
0.0
 10
75.81001517201972
 20
-212.9055229502459
 30
0.0
 10
76.03342961423817
 20
-212.6812472341561
 30
0.0
 10
76.03342961423817
 20
-212.404261557142
 30
0.0
  0
POLYLINE
  5
1EB
330
3C
100
AcDbEntity
  8
Capa 1
 62
     7
420
 16777215
370
     9
100
AcDb2dPolyline
 66
     1
 10
0.0
 20
0.0
 30
0.0
  0
VERTEX
  5
1EC
330
1EB
100
AcDbEntity
  8
Capa 1
 62
     7
420
 16777215
370
     9
100
AcDbVertex
100
AcDb2dVertex
 10
76.5365858098589
 20
-212.404261557142
 30
0.0
  0
VERTEX
  5
1ED
330
1EB
100
AcDbEntity
  8
Capa 1
 62
     7
420
 16777215
370
     9
100
AcDbVertex
100
AcDb2dVertex
 10
76.5365858098589
 20
-209.5896185456929
 30
0.0
  0
SEQEND
  5
1EE
330
1EB
100
AcDbEntity
  8
Capa 1
370
     9
  0
POLYLINE
  5
1EF
330
3C
100
AcDbEntity
  8
Capa 1
 62
     7
420
 16777215
370
     9
100
AcDb2dPolyline
 66
     1
 10
0.0
 20
0.0
 30
0.0
  0
VERTEX
  5
1F0
330
1EF
100
AcDbEntity
  8
Capa 1
 62
     7
420
 16777215
370
     9
100
AcDbVertex
100
AcDb2dVertex
 10
75.03021780893341
 20
-212.404261557142
 30
0.0
  0
VERTEX
  5
1F1
330
1EF
100
AcDbEntity
  8
Capa 1
 62
     7
420
 16777215
370
     9
100
AcDbVertex
100
AcDb2dVertex
 10
75.03021780893341
 20
-209.5896185456929
 30
0.0
  0
SEQEND
  5
1F2
330
1EF
100
AcDbEntity
  8
Capa 1
370
     9
  0
POLYLINE
  5
1F3
330
3C
100
AcDbEntity
  8
Capa 1
 62
     7
420
 16777215
370
     9
100
AcDb2dPolyline
 66
     1
 10
0.0
 20
0.0
 30
0.0
  0
VERTEX
  5
1F4
330
1F3
100
AcDbEntity
  8
Capa 1
 62
     7
420
 16777215
370
     9
100
AcDbVertex
100
AcDb2dVertex
 10
76.03342961423817
 20
-212.404261557142
 30
0.0
  0
VERTEX
  5
1F5
330
1F3
100
AcDbEntity
  8
Capa 1
 62
     7
420
 16777215
370
     9
100
AcDbVertex
100
AcDb2dVertex
 10
76.03342961423817
 20
-209.5896185456929
 30
0.0
  0
SEQEND
  5
1F6
330
1F3
100
AcDbEntity
  8
Capa 1
370
     9
  0
POLYLINE
  5
1F7
330
3C
100
AcDbEntity
  8
Capa 1
 62
     7
420
 16777215
370
     9
100
AcDb2dPolyline
 66
     1
 10
0.0
 20
0.0
 30
0.0
  0
VERTEX
  5
1F8
330
1F7
100
AcDbEntity
  8
Capa 1
 62
     7
420
 16777215
370
     9
100
AcDbVertex
100
AcDb2dVertex
 10
77.23955754362414
 20
-212.404261557142
 30
0.0
  0
VERTEX
  5
1F9
330
1F7
100
AcDbEntity
  8
Capa 1
 62
     7
420
 16777215
370
     9
100
AcDbVertex
100
AcDb2dVertex
 10
77.23955754362414
 20
-209.5896185456929
 30
0.0
  0
SEQEND
  5
1FA
330
1F7
100
AcDbEntity
  8
Capa 1
370
     9
  0
POLYLINE
  5
1FB
330
3C
100
AcDbEntity
  8
Capa 1
 62
     7
420
 16777215
370
     9
100
AcDb2dPolyline
 66
     1
 10
0.0
 20
0.0
 30
0.0
  0
VERTEX
  5
1FC
330
1FB
100
AcDbEntity
  8
Capa 1
 62
     7
420
 16777215
370
     9
100
AcDbVertex
100
AcDb2dVertex
 10
77.53979761516366
 20
-212.404261557142
 30
0.0
  0
VERTEX
  5
1FD
330
1FB
100
AcDbEntity
  8
Capa 1
 62
     7
420
 16777215
370
     9
100
AcDbVertex
100
AcDb2dVertex
 10
77.87328285813585
 20
-213.0688204762467
 30
0.0
  0
SEQEND
  5
1FE
330
1FB
100
AcDbEntity
  8
Capa 1
370
     9
  0
SPLINE
  5
1FF
330
3C
100
AcDbEntity
  8
Capa 1
 62
     7
420
 16777215
370
     9
100
AcDbSpline
210
0.0
220
0.0
230
1.0
 70
     8
 71
     3
 72
     8
 73
     4
 74
     0
 42
0.0000000001
 43
0.0000000001
 40
0.0
 40
0.0
 40
0.0
 40
0.0
 40
1.0
 40
1.0
 40
1.0
 40
1.0
 10
77.53979761516366
 20
-209.5896185456929
 30
0.0
 10
77.80334741978528
 20
-209.1135063496314
 30
0.0
 10
77.94252927738937
 20
-208.5795165494176
 30
0.0
 10
77.94252927738937
 20
-208.0369140104908
 30
0.0
  0
POLYLINE
  5
200
330
3C
100
AcDbEntity
  8
Capa 1
 62
     7
420
 16777215
370
     9
100
AcDb2dPolyline
 66
     1
 10
0.0
 20
0.0
 30
0.0
  0
VERTEX
  5
201
330
200
100
AcDbEntity
  8
Capa 1
 62
     7
420
 16777215
370
     9
100
AcDbVertex
100
AcDb2dVertex
 10
77.94252927738937
 20
-208.0369140104908
 30
0.0
  0
VERTEX
  5
202
330
200
100
AcDbEntity
  8
Capa 1
 62
     7
420
 16777215
370
     9
100
AcDbVertex
100
AcDb2dVertex
 10
77.94252927738937
 20
-207.3837239064874
 30
0.0
  0
SEQEND
  5
203
330
200
100
AcDbEntity
  8
Capa 1
370
     9
  0
POLYLINE
  5
204
330
3C
100
AcDbEntity
  8
Capa 1
 62
     7
420
 16777215
370
     9
100
AcDb2dPolyline
 66
     1
 10
0.0
 20
0.0
 30
0.0
  0
VERTEX
  5
205
330
204
100
AcDbEntity
  8
Capa 1
 62
     7
420
 16777215
370
     9
100
AcDbVertex
100
AcDb2dVertex
 10
77.53979761516366
 20
-212.404261557142
 30
0.0
  0
VERTEX
  5
206
330
204
100
AcDbEntity
  8
Capa 1
 62
     7
420
 16777215
370
     9
100
AcDbVertex
100
AcDb2dVertex
 10
77.53979761516366
 20
-209.5896185456929
 30
0.0
  0
SEQEND
  5
207
330
204
100
AcDbEntity
  8
Capa 1
370
     9
  0
POLYLINE
  5
208
330
3C
100
AcDbEntity
  8
Capa 1
 62
     7
420
 16777215
370
     9
100
AcDb2dPolyline
 66
     1
 10
0.0
 20
0.0
 30
0.0
  0
VERTEX
  5
209
330
208
100
AcDbEntity
  8
Capa 1
 62
     7
420
 16777215
370
     9
100
AcDbVertex
100
AcDb2dVertex
 10
73.12197941965354
 20
-207.3837239064874
 30
0.0
  0
VERTEX
  5
20A
330
208
100
AcDbEntity
  8
Capa 1
 62
     7
420
 16777215
370
     9
100
AcDbVertex
100
AcDb2dVertex
 10
77.94252927738937
 20
-207.3837239064874
 30
0.0
  0
SEQEND
  5
20B
330
208
100
AcDbEntity
  8
Capa 1
370
     9
  0
SPLINE
  5
20C
330
3C
100
AcDbEntity
  8
Capa 1
 62
     7
420
 16777215
370
     9
100
AcDbSpline
210
0.0
220
0.0
230
1.0
 70
     8
 71
     3
 72
    11
 73
     7
 74
     0
 42
0.0000000001
 43
0.0000000001
 40
0.0
 40
0.0
 40
0.0
 40
0.0
 40
1.0
 40
1.0
 40
1.0
 40
2.0
 40
2.0
 40
2.0
 40
2.0
 10
73.1896755459387
 20
-213.0688204762467
 30
0.0
 10
73.0298231154231
 20
-213.3895588659234
 30
0.0
 10
73.15987546999128
 20
-213.7826442607904
 30
0.0
 10
73.48302542650772
 20
-213.9431857104031
 30
0.0
 10
73.5584730176347
 20
-213.9793592129982
 30
0.0
 10
73.64012178063511
 20
-214.004163900492
 30
0.0
 10
73.72383760092669
 20
-214.0096760532684
 30
0.0
  0
SPLINE
  5
20D
330
3C
100
AcDbEntity
  8
Capa 1
 62
     7
420
 16777215
370
     9
100
AcDbSpline
210
0.0
220
0.0
230
1.0
 70
     8
 71
     3
 72
    11
 73
     7
 74
     0
 42
0.0000000001
 43
0.0000000001
 40
0.0
 40
0.0
 40
0.0
 40
0.0
 40
1.0
 40
1.0
 40
1.0
 40
2.0
 40
2.0
 40
2.0
 40
2.0
 10
77.34049884134197
 20
-214.0096760532684
 30
0.0
 10
77.69896102658221
 20
-213.9821152893864
 30
0.0
 10
77.96802298398022
 20
-213.6693006193258
 30
0.0
 10
77.94115123919528
 20
-213.3120442175053
 30
0.0
 10
77.93408879345051
 20
-213.2290174163108
 30
0.0
 10
77.91135116324786
 20
-213.1432345387281
 30
0.0
 10
77.87328285813585
 20
-213.0688204762467
 30
0.0
  0
POLYLINE
  5
20E
330
3C
100
AcDbEntity
  8
Capa 1
 62
     7
420
 16777215
370
     9
100
AcDb2dPolyline
 66
     1
 10
0.0
 20
0.0
 30
0.0
  0
VERTEX
  5
20F
330
20E
100
AcDbEntity
  8
Capa 1
 62
     7
420
 16777215
370
     9
100
AcDbVertex
100
AcDb2dVertex
 10
73.52384980800792
 20
-214.6129122727357
 30
0.0
  0
VERTEX
  5
210
330
20E
100
AcDbEntity
  8
Capa 1
 62
     7
420
 16777215
370
     9
100
AcDbVertex
100
AcDb2dVertex
 10
73.52384980800792
 20
-214.2088025723159
 30
0.0
  0
SEQEND
  5
211
330
20E
100
AcDbEntity
  8
Capa 1
370
     9
  0
POLYLINE
  5
212
330
3C
100
AcDbEntity
  8
Capa 1
 62
     7
420
 16777215
370
     9
100
AcDb2dPolyline
 66
     1
 10
0.0
 20
0.0
 30
0.0
  0
VERTEX
  5
213
330
212
100
AcDbEntity
  8
Capa 1
 62
     7
420
 16777215
370
     9
100
AcDbVertex
100
AcDb2dVertex
 10
73.52384980800792
 20
-174.6312011282172
 30
0.0
  0
VERTEX
  5
214
330
212
100
AcDbEntity
  8
Capa 1
 62
     7
420
 16777215
370
     9
100
AcDbVertex
100
AcDb2dVertex
 10
73.52384980800792
 20
-170.1863389331479
 30
0.0
  0
SEQEND
  5
215
330
212
100
AcDbEntity
  8
Capa 1
370
     9
  0
POLYLINE
  5
216
330
3C
100
AcDbEntity
  8
Capa 1
 62
     7
420
 16777215
370
     9
100
AcDb2dPolyline
 66
     1
 10
0.0
 20
0.0
 30
0.0
  0
VERTEX
  5
217
330
216
100
AcDbEntity
  8
Capa 1
 62
     7
420
 16777215
370
     9
100
AcDbVertex
100
AcDb2dVertex
 10
77.53979761516366
 20
-174.6312011282172
 30
0.0
  0
VERTEX
  5
218
330
216
100
AcDbEntity
  8
Capa 1
 62
     7
420
 16777215
370
     9
100
AcDbVertex
100
AcDb2dVertex
 10
77.53979761516366
 20
-170.1863389331479
 30
0.0
  0
SEQEND
  5
219
330
216
100
AcDbEntity
  8
Capa 1
370
     9
  0
POLYLINE
  5
21A
330
3C
100
AcDbEntity
  8
Capa 1
 62
     7
420
 16777215
370
     9
100
AcDb2dPolyline
 66
     1
 10
0.0
 20
0.0
 30
0.0
  0
VERTEX
  5
21B
330
21A
100
AcDbEntity
  8
Capa 1
 62
     7
420
 16777215
370
     9
100
AcDbVertex
100
AcDb2dVertex
 10
77.53979761516366
 20
-181.6695312045826
 30
0.0
  0
VERTEX
  5
21C
330
21A
100
AcDbEntity
  8
Capa 1
 62
     7
420
 16777215
370
     9
100
AcDbVertex
100
AcDb2dVertex
 10
77.53979761516366
 20
-180.1612684011402
 30
0.0
  0
SEQEND
  5
21D
330
21A
100
AcDbEntity
  8
Capa 1
370
     9
  0
POLYLINE
  5
21E
330
3C
100
AcDbEntity
  8
Capa 1
 62
     7
420
 16777215
370
     9
100
AcDb2dPolyline
 66
     1
 10
0.0
 20
0.0
 30
0.0
  0
VERTEX
  5
21F
330
21E
100
AcDbEntity
  8
Capa 1
 62
     7
420
 16777215
370
     9
100
AcDbVertex
100
AcDb2dVertex
 10
73.52384980800792
 20
-185.6854790117384
 30
0.0
  0
VERTEX
  5
220
330
21E
100
AcDbEntity
  8
Capa 1
 62
     7
420
 16777215
370
     9
100
AcDbVertex
100
AcDb2dVertex
 10
73.52384980800792
 20
-199.642594351131
 30
0.0
  0
SEQEND
  5
221
330
21E
100
AcDbEntity
  8
Capa 1
370
     9
  0
POLYLINE
  5
222
330
3C
100
AcDbEntity
  8
Capa 1
 62
     7
420
 16777215
370
     9
100
AcDb2dPolyline
 66
     1
 10
0.0
 20
0.0
 30
0.0
  0
VERTEX
  5
223
330
222
100
AcDbEntity
  8
Capa 1
 62
     7
420
 16777215
370
     9
100
AcDbVertex
100
AcDb2dVertex
 10
77.53979761516366
 20
-185.6854790117384
 30
0.0
  0
VERTEX
  5
224
330
222
100
AcDbEntity
  8
Capa 1
 62
     7
420
 16777215
370
     9
100
AcDbVertex
100
AcDb2dVertex
 10
77.53979761516366
 20
-198.5219047897793
 30
0.0
  0
SEQEND
  5
225
330
222
100
AcDbEntity
  8
Capa 1
370
     9
  0
POLYLINE
  5
226
330
3C
100
AcDbEntity
  8
Capa 1
 62
     7
420
 16777215
370
     9
100
AcDb2dPolyline
 66
     1
 10
0.0
 20
0.0
 30
0.0
  0
VERTEX
  5
227
330
226
100
AcDbEntity
  8
Capa 1
 62
     7
420
 16777215
370
     9
100
AcDbVertex
100
AcDb2dVertex
 10
77.53979761516366
 20
-182.8735920766775
 30
0.0
  0
VERTEX
  5
228
330
226
100
AcDbEntity
  8
Capa 1
 62
     7
420
 16777215
370
     9
100
AcDbVertex
100
AcDb2dVertex
 10
77.53979761516366
 20
-184.0800645156119
 30
0.0
  0
SEQEND
  5
229
330
226
100
AcDbEntity
  8
Capa 1
370
     9
  0
POLYLINE
  5
22A
330
3C
100
AcDbEntity
  8
Capa 1
 62
     7
420
 16777215
370
     9
100
AcDb2dPolyline
 66
     1
 10
0.0
 20
0.0
 30
0.0
  0
VERTEX
  5
22B
330
22A
100
AcDbEntity
  8
Capa 1
 62
     7
420
 16777215
370
     9
100
AcDbVertex
100
AcDb2dVertex
 10
73.52384980800792
 20
-182.8735920766775
 30
0.0
  0
VERTEX
  5
22C
330
22A
100
AcDbEntity
  8
Capa 1
 62
     7
420
 16777215
370
     9
100
AcDbVertex
100
AcDb2dVertex
 10
73.52384980800792
 20
-184.0800645156119
 30
0.0
  0
SEQEND
  5
22D
330
22A
100
AcDbEntity
  8
Capa 1
370
     9
  0
SPLINE
  5
22E
330
3C
100
AcDbEntity
  8
Capa 1
 62
     7
420
 16777215
370
     9
100
AcDbSpline
210
0.0
220
0.0
230
1.0
 70
     8
 71
     3
 72
    11
 73
     7
 74
     0
 42
0.0000000001
 43
0.0000000001
 40
0.0
 40
0.0
 40
0.0
 40
0.0
 40
1.0
 40
1.0
 40
1.0
 40
2.0
 40
2.0
 40
2.0
 40
2.0
 10
74.52723386808694
 20
-167.9752766507145
 30
0.0
 10
74.52723386808694
 20
-168.2519178181801
 30
0.0
 10
74.37151555215365
 20
-168.478949610658
 30
0.0
 10
74.17635089291424
 20
-168.478949610658
 30
0.0
 10
73.9818752527719
 20
-168.478949610658
 30
0.0
 10
73.82495115341877
 20
-168.2519178181801
 30
0.0
 10
73.82495115341877
 20
-167.9752766507145
 30
0.0
  0
SPLINE
  5
22F
330
3C
100
AcDbEntity
  8
Capa 1
 62
     7
420
 16777215
370
     9
100
AcDbSpline
210
0.0
220
0.0
230
1.0
 70
     8
 71
     3
 72
    11
 73
     7
 74
     0
 42
0.0000000001
 43
0.0000000001
 40
0.0
 40
0.0
 40
0.0
 40
0.0
 40
1.0
 40
1.0
 40
1.0
 40
2.0
 40
2.0
 40
2.0
 40
2.0
 10
73.82495115341877
 20
-165.1630452061051
 30
0.0
 10
73.82495115341877
 20
-164.8864040386395
 30
0.0
 10
73.9818752527719
 20
-164.6621283225498
 30
0.0
 10
74.17635089291424
 20
-164.6621283225498
 30
0.0
 10
74.37151555215365
 20
-164.6621283225498
 30
0.0
 10
74.52723386808694
 20
-164.8864040386395
 30
0.0
 10
74.52723386808694
 20
-165.1630452061051
 30
0.0
  0
POLYLINE
  5
230
330
3C
100
AcDbEntity
  8
Capa 1
 62
     7
420
 16777215
370
     9
100
AcDb2dPolyline
 66
     1
 10
0.0
 20
0.0
 30
0.0
  0
VERTEX
  5
231
330
230
100
AcDbEntity
  8
Capa 1
 62
     7
420
 16777215
370
     9
100
AcDbVertex
100
AcDb2dVertex
 10
74.52723386808694
 20
-165.1630452061051
 30
0.0
  0
VERTEX
  5
232
330
230
100
AcDbEntity
  8
Capa 1
 62
     7
420
 16777215
370
     9
100
AcDbVertex
100
AcDb2dVertex
 10
74.52723386808694
 20
-167.9752766507145
 30
0.0
  0
SEQEND
  5
233
330
230
100
AcDbEntity
  8
Capa 1
370
     9
  0
POLYLINE
  5
234
330
3C
100
AcDbEntity
  8
Capa 1
 62
     7
420
 16777215
370
     9
100
AcDb2dPolyline
 66
     1
 10
0.0
 20
0.0
 30
0.0
  0
VERTEX
  5
235
330
234
100
AcDbEntity
  8
Capa 1
 62
     7
420
 16777215
370
     9
100
AcDbVertex
100
AcDb2dVertex
 10
73.82495115341877
 20
-165.1630452061051
 30
0.0
  0
VERTEX
  5
236
330
234
100
AcDbEntity
  8
Capa 1
 62
     7
420
 16777215
370
     9
100
AcDbVertex
100
AcDb2dVertex
 10
73.82495115341877
 20
-167.9752766507145
 30
0.0
  0
SEQEND
  5
237
330
234
100
AcDbEntity
  8
Capa 1
370
     9
  0
POLYLINE
  5
238
330
3C
100
AcDbEntity
  8
Capa 1
 62
     7
420
 16777215
370
     9
100
AcDb2dPolyline
 66
     1
 10
0.0
 20
0.0
 30
0.0
  0
VERTEX
  5
239
330
238
100
AcDbEntity
  8
Capa 1
 62
     7
420
 16777215
370
     9
100
AcDbVertex
100
AcDb2dVertex
 10
73.52384980800792
 20
-165.1630452061051
 30
0.0
  0
VERTEX
  5
23A
330
238
100
AcDbEntity
  8
Capa 1
 62
     7
420
 16777215
370
     9
100
AcDbVertex
100
AcDb2dVertex
 10
73.1896755459387
 20
-164.4988307965489
 30
0.0
  0
SEQEND
  5
23B
330
238
100
AcDbEntity
  8
Capa 1
370
     9
  0
SPLINE
  5
23C
330
3C
100
AcDbEntity
  8
Capa 1
 62
     7
420
 16777215
370
     9
100
AcDbSpline
210
0.0
220
0.0
230
1.0
 70
     8
 71
     3
 72
     8
 73
     4
 74
     0
 42
0.0000000001
 43
0.0000000001
 40
0.0
 40
0.0
 40
0.0
 40
0.0
 40
1.0
 40
1.0
 40
1.0
 40
1.0
 10
73.52384980800792
 20
-167.9752766507145
 30
0.0
 10
73.26098902248337
 20
-168.4510443372275
 30
0.0
 10
73.12197941965354
 20
-168.988134723378
 30
0.0
 10
73.12197941965354
 20
-169.5307372623048
 30
0.0
  0
POLYLINE
  5
23D
330
3C
100
AcDbEntity
  8
Capa 1
 62
     7
420
 16777215
370
     9
100
AcDb2dPolyline
 66
     1
 10
0.0
 20
0.0
 30
0.0
  0
VERTEX
  5
23E
330
23D
100
AcDbEntity
  8
Capa 1
 62
     7
420
 16777215
370
     9
100
AcDbVertex
100
AcDb2dVertex
 10
73.52384980800792
 20
-165.1630452061051
 30
0.0
  0
VERTEX
  5
23F
330
23D
100
AcDbEntity
  8
Capa 1
 62
     7
420
 16777215
370
     9
100
AcDbVertex
100
AcDb2dVertex
 10
73.52384980800792
 20
-167.9752766507145
 30
0.0
  0
SEQEND
  5
240
330
23D
100
AcDbEntity
  8
Capa 1
370
     9
  0
POLYLINE
  5
241
330
3C
100
AcDbEntity
  8
Capa 1
 62
     7
420
 16777215
370
     9
100
AcDb2dPolyline
 66
     1
 10
0.0
 20
0.0
 30
0.0
  0
VERTEX
  5
242
330
241
100
AcDbEntity
  8
Capa 1
 62
     7
420
 16777215
370
     9
100
AcDbVertex
100
AcDb2dVertex
 10
77.94252927738937
 20
-170.1863389331479
 30
0.0
  0
VERTEX
  5
243
330
241
100
AcDbEntity
  8
Capa 1
 62
     7
420
 16777215
370
     9
100
AcDbVertex
100
AcDb2dVertex
 10
73.81857772677105
 20
-170.1863389331479
 30
0.0
  0
SEQEND
  5
244
330
241
100
AcDbEntity
  8
Capa 1
370
     9
  0
POLYLINE
  5
245
330
3C
100
AcDbEntity
  8
Capa 1
 62
     7
420
 16777215
370
     9
100
AcDb2dPolyline
 66
     1
 10
0.0
 20
0.0
 30
0.0
  0
VERTEX
  5
246
330
245
100
AcDbEntity
  8
Capa 1
 62
     7
420
 16777215
370
     9
100
AcDbVertex
100
AcDb2dVertex
 10
73.12197941965354
 20
-170.1863389331479
 30
0.0
  0
VERTEX
  5
247
330
245
100
AcDbEntity
  8
Capa 1
 62
     7
420
 16777215
370
     9
100
AcDbVertex
100
AcDb2dVertex
 10
73.81857772677105
 20
-170.1863389331479
 30
0.0
  0
SEQEND
  5
248
330
245
100
AcDbEntity
  8
Capa 1
370
     9
  0
POLYLINE
  5
249
330
3C
100
AcDbEntity
  8
Capa 1
 62
     7
420
 16777215
370
     9
100
AcDb2dPolyline
 66
     1
 10
0.0
 20
0.0
 30
0.0
  0
VERTEX
  5
24A
330
249
100
AcDbEntity
  8
Capa 1
 62
     7
420
 16777215
370
     9
100
AcDbVertex
100
AcDb2dVertex
 10
77.53841957696956
 20
-171.4238172314496
 30
0.0
  0
VERTEX
  5
24B
330
249
100
AcDbEntity
  8
Capa 1
 62
     7
420
 16777215
370
     9
100
AcDbVertex
100
AcDb2dVertex
 10
76.3047308837016
 20
-170.1863389331479
 30
0.0
  0
SEQEND
  5
24C
330
249
100
AcDbEntity
  8
Capa 1
370
     9
  0
POLYLINE
  5
24D
330
3C
100
AcDbEntity
  8
Capa 1
 62
     7
420
 16777215
370
     9
100
AcDb2dPolyline
 66
     1
 10
0.0
 20
0.0
 30
0.0
  0
VERTEX
  5
24E
330
24D
100
AcDbEntity
  8
Capa 1
 62
     7
420
 16777215
370
     9
100
AcDbVertex
100
AcDb2dVertex
 10
76.20499536940362
 20
-174.628445051829
 30
0.0
  0
VERTEX
  5
24F
330
24D
100
AcDbEntity
  8
Capa 1
 62
     7
420
 16777215
370
     9
100
AcDbVertex
100
AcDb2dVertex
 10
73.52247176981383
 20
-171.9495388024987
 30
0.0
  0
SEQEND
  5
250
330
24D
100
AcDbEntity
  8
Capa 1
370
     9
  0
POLYLINE
  5
251
330
3C
100
AcDbEntity
  8
Capa 1
 62
     7
420
 16777215
370
     9
100
AcDb2dPolyline
 66
     1
 10
0.0
 20
0.0
 30
0.0
  0
VERTEX
  5
252
330
251
100
AcDbEntity
  8
Capa 1
 62
     7
420
 16777215
370
     9
100
AcDbVertex
100
AcDb2dVertex
 10
77.53841957696956
 20
-180.5126681406357
 30
0.0
  0
VERTEX
  5
253
330
251
100
AcDbEntity
  8
Capa 1
 62
     7
420
 16777215
370
     9
100
AcDbVertex
100
AcDb2dVertex
 10
77.14602320119961
 20
-180.1195827457687
 30
0.0
  0
SEQEND
  5
254
330
251
100
AcDbEntity
  8
Capa 1
370
     9
  0
POLYLINE
  5
255
330
3C
100
AcDbEntity
  8
Capa 1
 62
     7
420
 16777215
370
     9
100
AcDb2dPolyline
 66
     1
 10
0.0
 20
0.0
 30
0.0
  0
VERTEX
  5
256
330
255
100
AcDbEntity
  8
Capa 1
 62
     7
420
 16777215
370
     9
100
AcDbVertex
100
AcDb2dVertex
 10
74.1536132627116
 20
-181.6695312045826
 30
0.0
  0
VERTEX
  5
257
330
255
100
AcDbEntity
  8
Capa 1
 62
     7
420
 16777215
370
     9
100
AcDbVertex
100
AcDb2dVertex
 10
73.52247176981383
 20
-181.0383897116849
 30
0.0
  0
SEQEND
  5
258
330
255
100
AcDbEntity
  8
Capa 1
370
     9
  0
POLYLINE
  5
259
330
3C
100
AcDbEntity
  8
Capa 1
 62
     7
420
 16777215
370
     9
100
AcDb2dPolyline
 66
     1
 10
0.0
 20
0.0
 30
0.0
  0
VERTEX
  5
25A
330
259
100
AcDbEntity
  8
Capa 1
 62
     7
420
 16777215
370
     9
100
AcDbVertex
100
AcDb2dVertex
 10
76.56621363103206
 20
-184.0800645156119
 30
0.0
  0
VERTEX
  5
25B
330
259
100
AcDbEntity
  8
Capa 1
 62
     7
420
 16777215
370
     9
100
AcDbVertex
100
AcDb2dVertex
 10
75.35819089912921
 20
-182.8735920766775
 30
0.0
  0
SEQEND
  5
25C
330
259
100
AcDbEntity
  8
Capa 1
370
     9
  0
POLYLINE
  5
25D
330
3C
100
AcDbEntity
  8
Capa 1
 62
     7
420
 16777215
370
     9
100
AcDb2dPolyline
 66
     1
 10
0.0
 20
0.0
 30
0.0
  0
VERTEX
  5
25E
330
25D
100
AcDbEntity
  8
Capa 1
 62
     7
420
 16777215
370
     9
100
AcDbVertex
100
AcDb2dVertex
 10
77.53841957696956
 20
-189.6015190498219
 30
0.0
  0
VERTEX
  5
25F
330
25D
100
AcDbEntity
  8
Capa 1
 62
     7
420
 16777215
370
     9
100
AcDbVertex
100
AcDb2dVertex
 10
73.62496336050002
 20
-185.6854790117384
 30
0.0
  0
SEQEND
  5
260
330
25D
100
AcDbEntity
  8
Capa 1
370
     9
  0
POLYLINE
  5
261
330
3C
100
AcDbEntity
  8
Capa 1
 62
     7
420
 16777215
370
     9
100
AcDb2dPolyline
 66
     1
 10
0.0
 20
0.0
 30
0.0
  0
VERTEX
  5
262
330
261
100
AcDbEntity
  8
Capa 1
 62
     7
420
 16777215
370
     9
100
AcDbVertex
100
AcDb2dVertex
 10
77.53841957696956
 20
-194.1462890139634
 30
0.0
  0
VERTEX
  5
263
330
261
100
AcDbEntity
  8
Capa 1
 62
     7
420
 16777215
370
     9
100
AcDbVertex
100
AcDb2dVertex
 10
73.52247176981383
 20
-190.1275851304195
 30
0.0
  0
SEQEND
  5
264
330
261
100
AcDbEntity
  8
Capa 1
370
     9
  0
POLYLINE
  5
265
330
3C
100
AcDbEntity
  8
Capa 1
 62
     7
420
 16777215
370
     9
100
AcDb2dPolyline
 66
     1
 10
0.0
 20
0.0
 30
0.0
  0
VERTEX
  5
266
330
265
100
AcDbEntity
  8
Capa 1
 62
     7
420
 16777215
370
     9
100
AcDbVertex
100
AcDb2dVertex
 10
77.40974526059549
 20
-198.5577337828259
 30
0.0
  0
VERTEX
  5
267
330
265
100
AcDbEntity
  8
Capa 1
 62
     7
420
 16777215
370
     9
100
AcDbVertex
100
AcDb2dVertex
 10
73.52247176981383
 20
-194.6720105850126
 30
0.0
  0
SEQEND
  5
268
330
265
100
AcDbEntity
  8
Capa 1
370
     9
  0
POLYLINE
  5
269
330
3C
100
AcDbEntity
  8
Capa 1
 62
     7
420
 16777215
370
     9
100
AcDb2dPolyline
 66
     1
 10
0.0
 20
0.0
 30
0.0
  0
VERTEX
  5
26A
330
269
100
AcDbEntity
  8
Capa 1
 62
     7
420
 16777215
370
     9
100
AcDbVertex
100
AcDb2dVertex
 10
73.86009112736832
 20
-199.5512993207719
 30
0.0
  0
VERTEX
  5
26B
330
269
100
AcDbEntity
  8
Capa 1
 62
     7
420
 16777215
370
     9
100
AcDbVertex
100
AcDb2dVertex
 10
73.52247176981383
 20
-199.2164360396056
 30
0.0
  0
SEQEND
  5
26C
330
269
100
AcDbEntity
  8
Capa 1
370
     9
  0
POLYLINE
  5
26D
330
3C
100
AcDbEntity
  8
Capa 1
 62
     7
420
 16777215
370
     9
100
AcDb2dPolyline
 66
     1
 10
0.0
 20
0.0
 30
0.0
  0
VERTEX
  5
26E
330
26D
100
AcDbEntity
  8
Capa 1
 62
     7
420
 16777215
370
     9
100
AcDbVertex
100
AcDb2dVertex
 10
77.53841957696956
 20
-203.2351399231495
 30
0.0
  0
VERTEX
  5
26F
330
26D
100
AcDbEntity
  8
Capa 1
 62
     7
420
 16777215
370
     9
100
AcDbVertex
100
AcDb2dVertex
 10
77.45677081396914
 20
-203.1493570455668
 30
0.0
  0
SEQEND
  5
270
330
26D
100
AcDbEntity
  8
Capa 1
370
     9
  0
POLYLINE
  5
271
330
3C
100
AcDbEntity
  8
Capa 1
 62
     7
420
 16777215
370
     9
100
AcDb2dPolyline
 66
     1
 10
0.0
 20
0.0
 30
0.0
  0
VERTEX
  5
272
330
271
100
AcDbEntity
  8
Capa 1
 62
     7
420
 16777215
370
     9
100
AcDbVertex
100
AcDb2dVertex
 10
77.1432671248114
 20
-207.3837239064874
 30
0.0
  0
VERTEX
  5
273
330
271
100
AcDbEntity
  8
Capa 1
 62
     7
420
 16777215
370
     9
100
AcDbVertex
100
AcDb2dVertex
 10
73.87128768769537
 20
-204.1098496668545
 30
0.0
  0
SEQEND
  5
274
330
271
100
AcDbEntity
  8
Capa 1
370
     9
  0
POLYLINE
  5
275
330
3C
100
AcDbEntity
  8
Capa 1
 62
     7
420
 16777215
370
     9
100
AcDb2dPolyline
 66
     1
 10
0.0
 20
0.0
 30
0.0
  0
VERTEX
  5
276
330
275
100
AcDbEntity
  8
Capa 1
 62
     7
420
 16777215
370
     9
100
AcDbVertex
100
AcDb2dVertex
 10
74.22819957996725
 20
-207.3837239064874
 30
0.0
  0
VERTEX
  5
277
330
275
100
AcDbEntity
  8
Capa 1
 62
     7
420
 16777215
370
     9
100
AcDbVertex
100
AcDb2dVertex
 10
77.53841957696956
 20
-204.0709200878712
 30
0.0
  0
SEQEND
  5
278
330
275
100
AcDbEntity
  8
Capa 1
370
     9
  0
POLYLINE
  5
279
330
3C
100
AcDbEntity
  8
Capa 1
 62
     7
420
 16777215
370
     9
100
AcDb2dPolyline
 66
     1
 10
0.0
 20
0.0
 30
0.0
  0
VERTEX
  5
27A
330
279
100
AcDbEntity
  8
Capa 1
 62
     7
420
 16777215
370
     9
100
AcDbVertex
100
AcDb2dVertex
 10
73.52247176981383
 20
-199.000773062229
 30
0.0
  0
VERTEX
  5
27B
330
279
100
AcDbEntity
  8
Capa 1
 62
     7
420
 16777215
370
     9
100
AcDbVertex
100
AcDb2dVertex
 10
77.53841957696956
 20
-194.9848252550732
 30
0.0
  0
SEQEND
  5
27C
330
279
100
AcDbEntity
  8
Capa 1
370
     9
  0
POLYLINE
  5
27D
330
3C
100
AcDbEntity
  8
Capa 1
 62
     7
420
 16777215
370
     9
100
AcDb2dPolyline
 66
     1
 10
0.0
 20
0.0
 30
0.0
  0
VERTEX
  5
27E
330
27D
100
AcDbEntity
  8
Capa 1
 62
     7
420
 16777215
370
     9
100
AcDbVertex
100
AcDb2dVertex
 10
73.52247176981383
 20
-194.4532470216992
 30
0.0
  0
VERTEX
  5
27F
330
27D
100
AcDbEntity
  8
Capa 1
 62
     7
420
 16777215
370
     9
100
AcDbVertex
100
AcDb2dVertex
 10
77.53841957696956
 20
-190.437643724092
 30
0.0
  0
SEQEND
  5
280
330
27D
100
AcDbEntity
  8
Capa 1
370
     9
  0
POLYLINE
  5
281
330
3C
100
AcDbEntity
  8
Capa 1
 62
     7
420
 16777215
370
     9
100
AcDb2dPolyline
 66
     1
 10
0.0
 20
0.0
 30
0.0
  0
VERTEX
  5
282
330
281
100
AcDbEntity
  8
Capa 1
 62
     7
420
 16777215
370
     9
100
AcDbVertex
100
AcDb2dVertex
 10
73.52247176981383
 20
-189.9115776434943
 30
0.0
  0
VERTEX
  5
283
330
281
100
AcDbEntity
  8
Capa 1
 62
     7
420
 16777215
370
     9
100
AcDbVertex
100
AcDb2dVertex
 10
77.53841957696956
 20
-185.8956298363386
 30
0.0
  0
SEQEND
  5
284
330
281
100
AcDbEntity
  8
Capa 1
370
     9
  0
POLYLINE
  5
285
330
3C
100
AcDbEntity
  8
Capa 1
 62
     7
420
 16777215
370
     9
100
AcDb2dPolyline
 66
     1
 10
0.0
 20
0.0
 30
0.0
  0
VERTEX
  5
286
330
285
100
AcDbEntity
  8
Capa 1
 62
     7
420
 16777215
370
     9
100
AcDbVertex
100
AcDb2dVertex
 10
77.22147079232658
 20
-181.6695312045826
 30
0.0
  0
VERTEX
  5
287
330
285
100
AcDbEntity
  8
Capa 1
 62
     7
420
 16777215
370
     9
100
AcDbVertex
100
AcDb2dVertex
 10
77.53841957696956
 20
-181.3484483053574
 30
0.0
  0
SEQEND
  5
288
330
285
100
AcDbEntity
  8
Capa 1
370
     9
  0
POLYLINE
  5
289
330
3C
100
AcDbEntity
  8
Capa 1
 62
     7
420
 16777215
370
     9
100
AcDb2dPolyline
 66
     1
 10
0.0
 20
0.0
 30
0.0
  0
VERTEX
  5
28A
330
289
100
AcDbEntity
  8
Capa 1
 62
     7
420
 16777215
370
     9
100
AcDbVertex
100
AcDb2dVertex
 10
74.80955944310317
 20
-184.0800645156119
 30
0.0
  0
VERTEX
  5
28B
330
289
100
AcDbEntity
  8
Capa 1
 62
     7
420
 16777215
370
     9
100
AcDbVertex
100
AcDb2dVertex
 10
76.01413707952078
 20
-182.8735920766775
 30
0.0
  0
SEQEND
  5
28C
330
289
100
AcDbEntity
  8
Capa 1
370
     9
  0
POLYLINE
  5
28D
330
3C
100
AcDbEntity
  8
Capa 1
 62
     7
420
 16777215
370
     9
100
AcDb2dPolyline
 66
     1
 10
0.0
 20
0.0
 30
0.0
  0
VERTEX
  5
28E
330
28D
100
AcDbEntity
  8
Capa 1
 62
     7
420
 16777215
370
     9
100
AcDbVertex
100
AcDb2dVertex
 10
73.52247176981383
 20
-180.81997065792
 30
0.0
  0
VERTEX
  5
28F
330
28D
100
AcDbEntity
  8
Capa 1
 62
     7
420
 16777215
370
     9
100
AcDbVertex
100
AcDb2dVertex
 10
74.22406546538495
 20
-180.1195827457687
 30
0.0
  0
SEQEND
  5
290
330
28D
100
AcDbEntity
  8
Capa 1
370
     9
  0
POLYLINE
  5
291
330
3C
100
AcDbEntity
  8
Capa 1
 62
     7
420
 16777215
370
     9
100
AcDb2dPolyline
 66
     1
 10
0.0
 20
0.0
 30
0.0
  0
VERTEX
  5
292
330
291
100
AcDbEntity
  8
Capa 1
 62
     7
420
 16777215
370
     9
100
AcDbVertex
100
AcDb2dVertex
 10
75.16922741176325
 20
-174.628445051829
 30
0.0
  0
VERTEX
  5
293
330
291
100
AcDbEntity
  8
Capa 1
 62
     7
420
 16777215
370
     9
100
AcDbVertex
100
AcDb2dVertex
 10
77.53841957696956
 20
-172.2595973961712
 30
0.0
  0
SEQEND
  5
294
330
291
100
AcDbEntity
  8
Capa 1
370
     9
  0
POLYLINE
  5
295
330
3C
100
AcDbEntity
  8
Capa 1
 62
     7
420
 16777215
370
     9
100
AcDb2dPolyline
 66
     1
 10
0.0
 20
0.0
 30
0.0
  0
VERTEX
  5
296
330
295
100
AcDbEntity
  8
Capa 1
 62
     7
420
 16777215
370
     9
100
AcDbVertex
100
AcDb2dVertex
 10
73.52247176981383
 20
-171.7307752391854
 30
0.0
  0
VERTEX
  5
297
330
295
100
AcDbEntity
  8
Capa 1
 62
     7
420
 16777215
370
     9
100
AcDbVertex
100
AcDb2dVertex
 10
75.07173120953068
 20
-170.1863389331479
 30
0.0
  0
SEQEND
  5
298
330
295
100
AcDbEntity
  8
Capa 1
370
     9
  0
SPLINE
  5
299
330
3C
100
AcDbEntity
  8
Capa 1
 62
     7
420
 16777215
370
     9
100
AcDbSpline
210
0.0
220
0.0
230
1.0
 70
     8
 71
     3
 72
    11
 73
     7
 74
     0
 42
0.0000000001
 43
0.0000000001
 40
0.0
 40
0.0
 40
0.0
 40
0.0
 40
1.0
 40
1.0
 40
1.0
 40
2.0
 40
2.0
 40
2.0
 40
2.0
 10
74.52723386808694
 20
-165.1630452061051
 30
0.0
 10
74.52723386808694
 20
-164.8864040386395
 30
0.0
 10
74.37151555215365
 20
-164.6621283225498
 30
0.0
 10
74.17635089291424
 20
-164.6621283225498
 30
0.0
 10
73.9818752527719
 20
-164.6621283225498
 30
0.0
 10
73.82495115341877
 20
-164.8864040386395
 30
0.0
 10
73.82495115341877
 20
-165.1630452061051
 30
0.0
  0
POLYLINE
  5
29A
330
3C
100
AcDbEntity
  8
Capa 1
 62
     7
420
 16777215
370
     9
100
AcDb2dPolyline
 66
     1
 10
0.0
 20
0.0
 30
0.0
  0
VERTEX
  5
29B
330
29A
100
AcDbEntity
  8
Capa 1
 62
     7
420
 16777215
370
     9
100
AcDbVertex
100
AcDb2dVertex
 10
74.52723386808694
 20
-165.1630452061051
 30
0.0
  0
VERTEX
  5
29C
330
29A
100
AcDbEntity
  8
Capa 1
 62
     7
420
 16777215
370
     9
100
AcDbVertex
100
AcDb2dVertex
 10
74.52723386808694
 20
-167.6955348973122
 30
0.0
  0
SEQEND
  5
29D
330
29A
100
AcDbEntity
  8
Capa 1
370
     9
  0
POLYLINE
  5
29E
330
3C
100
AcDbEntity
  8
Capa 1
 62
     7
420
 16777215
370
     9
100
AcDb2dPolyline
 66
     1
 10
0.0
 20
0.0
 30
0.0
  0
VERTEX
  5
29F
330
29E
100
AcDbEntity
  8
Capa 1
 62
     7
420
 16777215
370
     9
100
AcDbVertex
100
AcDb2dVertex
 10
73.82495115341877
 20
-165.1630452061051
 30
0.0
  0
VERTEX
  5
2A0
330
29E
100
AcDbEntity
  8
Capa 1
 62
     7
420
 16777215
370
     9
100
AcDbVertex
100
AcDb2dVertex
 10
73.82495115341877
 20
-166.6909450538134
 30
0.0
  0
SEQEND
  5
2A1
330
29E
100
AcDbEntity
  8
Capa 1
370
     9
  0
SPLINE
  5
2A2
330
3C
100
AcDbEntity
  8
Capa 1
 62
     7
420
 16777215
370
     9
100
AcDbSpline
210
0.0
220
0.0
230
1.0
 70
     8
 71
     3
 72
     8
 73
     4
 74
     0
 42
0.0000000001
 43
0.0000000001
 40
0.0
 40
0.0
 40
0.0
 40
0.0
 40
1.0
 40
1.0
 40
1.0
 40
1.0
 10
73.17107203031834
 20
-163.9593288435588
 30
0.0
 10
73.09906953467663
 20
-164.1336506751124
 30
0.0
 10
73.10733776384123
 20
-164.3300211177717
 30
0.0
 10
73.1896755459387
 20
-164.4988307965489
 30
0.0
  0
POLYLINE
  5
2A3
330
3C
100
AcDbEntity
  8
Capa 1
 62
     7
420
 16777215
370
     9
100
AcDb2dPolyline
 66
     1
 10
0.0
 20
0.0
 30
0.0
  0
VERTEX
  5
2A4
330
2A3
100
AcDbEntity
  8
Capa 1
 62
     7
420
 16777215
370
     9
100
AcDbVertex
100
AcDb2dVertex
 10
73.52384980800792
 20
-165.1630452061051
 30
0.0
  0
VERTEX
  5
2A5
330
2A3
100
AcDbEntity
  8
Capa 1
 62
     7
420
 16777215
370
     9
100
AcDbVertex
100
AcDb2dVertex
 10
73.1896755459387
 20
-164.4988307965489
 30
0.0
  0
SEQEND
  5
2A6
330
2A3
100
AcDbEntity
  8
Capa 1
370
     9
  0
SPLINE
  5
2A7
330
3C
100
AcDbEntity
  8
Capa 1
 62
     7
420
 16777215
370
     9
100
AcDbSpline
210
0.0
220
0.0
230
1.0
 70
     8
 71
     3
 72
     8
 73
     4
 74
     0
 42
0.0000000001
 43
0.0000000001
 40
0.0
 40
0.0
 40
0.0
 40
0.0
 40
1.0
 40
1.0
 40
1.0
 40
1.0
 10
73.13713783978864
 20
-169.2124104394677
 30
0.0
 10
73.12749157242993
 20
-169.3174858517679
 30
0.0
 10
73.12197941965354
 20
-169.4253173404562
 30
0.0
 10
73.12197941965354
 20
-169.5307372623048
 30
0.0
  0
POLYLINE
  5
2A8
330
3C
100
AcDbEntity
  8
Capa 1
 62
     7
420
 16777215
370
     9
100
AcDb2dPolyline
 66
     1
 10
0.0
 20
0.0
 30
0.0
  0
VERTEX
  5
2A9
330
2A8
100
AcDbEntity
  8
Capa 1
 62
     7
420
 16777215
370
     9
100
AcDbVertex
100
AcDb2dVertex
 10
73.12197941965354
 20
-169.5307372623048
 30
0.0
  0
VERTEX
  5
2AA
330
2A8
100
AcDbEntity
  8
Capa 1
 62
     7
420
 16777215
370
     9
100
AcDbVertex
100
AcDb2dVertex
 10
73.12197941965354
 20
-170.1863389331479
 30
0.0
  0
SEQEND
  5
2AB
330
2A8
100
AcDbEntity
  8
Capa 1
370
     9
  0
SPLINE
  5
2AC
330
3C
100
AcDbEntity
  8
Capa 1
 62
     7
420
 16777215
370
     9
100
AcDbSpline
210
0.0
220
0.0
230
1.0
 70
     8
 71
     3
 72
    11
 73
     7
 74
     0
 42
0.0000000001
 43
0.0000000001
 40
0.0
 40
0.0
 40
0.0
 40
0.0
 40
1.0
 40
1.0
 40
1.0
 40
2.0
 40
2.0
 40
2.0
 40
2.0
 10
75.03021780893341
 20
-167.9752766507145
 30
0.0
 10
75.03021780893341
 20
-168.2519178181801
 30
0.0
 10
75.25569930844303
 20
-168.478949610658
 30
0.0
 10
75.5318237115858
 20
-168.478949610658
 30
0.0
 10
75.81001517201972
 20
-168.478949610658
 30
0.0
 10
76.03342961423817
 20
-168.2519178181801
 30
0.0
 10
76.03342961423817
 20
-167.9752766507145
 30
0.0
  0
SPLINE
  5
2AD
330
3C
100
AcDbEntity
  8
Capa 1
 62
     7
420
 16777215
370
     9
100
AcDbSpline
210
0.0
220
0.0
230
1.0
 70
     8
 71
     3
 72
    11
 73
     7
 74
     0
 42
0.0000000001
 43
0.0000000001
 40
0.0
 40
0.0
 40
0.0
 40
0.0
 40
1.0
 40
1.0
 40
1.0
 40
2.0
 40
2.0
 40
2.0
 40
2.0
 10
76.5365858098589
 20
-167.9752766507145
 30
0.0
 10
76.5365858098589
 20
-168.2519178181801
 30
0.0
 10
76.69419892830909
 20
-168.478949610658
 30
0.0
 10
76.8879855493544
 20
-168.478949610658
 30
0.0
 10
77.08246118949675
 20
-168.478949610658
 30
0.0
 10
77.23955754362414
 20
-168.2519178181801
 30
0.0
 10
77.23955754362414
 20
-167.9752766507145
 30
0.0
  0
SPLINE
  5
2AE
330
3C
100
AcDbEntity
  8
Capa 1
 62
     7
420
 16777215
370
     9
100
AcDbSpline
210
0.0
220
0.0
230
1.0
 70
     8
 71
     3
 72
    11
 73
     7
 74
     0
 42
0.0000000001
 43
0.0000000001
 40
0.0
 40
0.0
 40
0.0
 40
0.0
 40
1.0
 40
1.0
 40
1.0
 40
2.0
 40
2.0
 40
2.0
 40
2.0
 10
77.23955754362414
 20
-165.1630452061051
 30
0.0
 10
77.23955754362414
 20
-164.8864040386395
 30
0.0
 10
77.08246118949675
 20
-164.6621283225498
 30
0.0
 10
76.8879855493544
 20
-164.6621283225498
 30
0.0
 10
76.69419892830909
 20
-164.6621283225498
 30
0.0
 10
76.5365858098589
 20
-164.8864040386395
 30
0.0
 10
76.5365858098589
 20
-165.1630452061051
 30
0.0
  0
SPLINE
  5
2AF
330
3C
100
AcDbEntity
  8
Capa 1
 62
     7
420
 16777215
370
     9
100
AcDbSpline
210
0.0
220
0.0
230
1.0
 70
     8
 71
     3
 72
    11
 73
     7
 74
     0
 42
0.0000000001
 43
0.0000000001
 40
0.0
 40
0.0
 40
0.0
 40
0.0
 40
1.0
 40
1.0
 40
1.0
 40
2.0
 40
2.0
 40
2.0
 40
2.0
 10
76.03342961423817
 20
-165.1630452061051
 30
0.0
 10
76.03342961423817
 20
-164.8864040386395
 30
0.0
 10
75.81001517201972
 20
-164.6621283225498
 30
0.0
 10
75.5318237115858
 20
-164.6621283225498
 30
0.0
 10
75.25569930844303
 20
-164.6621283225498
 30
0.0
 10
75.03021780893341
 20
-164.8864040386395
 30
0.0
 10
75.03021780893341
 20
-165.1630452061051
 30
0.0
  0
POLYLINE
  5
2B0
330
3C
100
AcDbEntity
  8
Capa 1
 62
     7
420
 16777215
370
     9
100
AcDb2dPolyline
 66
     1
 10
0.0
 20
0.0
 30
0.0
  0
VERTEX
  5
2B1
330
2B0
100
AcDbEntity
  8
Capa 1
 62
     7
420
 16777215
370
     9
100
AcDbVertex
100
AcDb2dVertex
 10
76.5365858098589
 20
-165.1630452061051
 30
0.0
  0
VERTEX
  5
2B2
330
2B0
100
AcDbEntity
  8
Capa 1
 62
     7
420
 16777215
370
     9
100
AcDbVertex
100
AcDb2dVertex
 10
76.5365858098589
 20
-167.9752766507145
 30
0.0
  0
SEQEND
  5
2B3
330
2B0
100
AcDbEntity
  8
Capa 1
370
     9
  0
POLYLINE
  5
2B4
330
3C
100
AcDbEntity
  8
Capa 1
 62
     7
420
 16777215
370
     9
100
AcDb2dPolyline
 66
     1
 10
0.0
 20
0.0
 30
0.0
  0
VERTEX
  5
2B5
330
2B4
100
AcDbEntity
  8
Capa 1
 62
     7
420
 16777215
370
     9
100
AcDbVertex
100
AcDb2dVertex
 10
75.03021780893341
 20
-165.1630452061051
 30
0.0
  0
VERTEX
  5
2B6
330
2B4
100
AcDbEntity
  8
Capa 1
 62
     7
420
 16777215
370
     9
100
AcDbVertex
100
AcDb2dVertex
 10
75.03021780893341
 20
-167.9752766507145
 30
0.0
  0
SEQEND
  5
2B7
330
2B4
100
AcDbEntity
  8
Capa 1
370
     9
  0
POLYLINE
  5
2B8
330
3C
100
AcDbEntity
  8
Capa 1
 62
     7
420
 16777215
370
     9
100
AcDb2dPolyline
 66
     1
 10
0.0
 20
0.0
 30
0.0
  0
VERTEX
  5
2B9
330
2B8
100
AcDbEntity
  8
Capa 1
 62
     7
420
 16777215
370
     9
100
AcDbVertex
100
AcDb2dVertex
 10
76.03342961423817
 20
-165.1630452061051
 30
0.0
  0
VERTEX
  5
2BA
330
2B8
100
AcDbEntity
  8
Capa 1
 62
     7
420
 16777215
370
     9
100
AcDbVertex
100
AcDb2dVertex
 10
76.03342961423817
 20
-167.9752766507145
 30
0.0
  0
SEQEND
  5
2BB
330
2B8
100
AcDbEntity
  8
Capa 1
370
     9
  0
POLYLINE
  5
2BC
330
3C
100
AcDbEntity
  8
Capa 1
 62
     7
420
 16777215
370
     9
100
AcDb2dPolyline
 66
     1
 10
0.0
 20
0.0
 30
0.0
  0
VERTEX
  5
2BD
330
2BC
100
AcDbEntity
  8
Capa 1
 62
     7
420
 16777215
370
     9
100
AcDbVertex
100
AcDb2dVertex
 10
77.23955754362414
 20
-165.1630452061051
 30
0.0
  0
VERTEX
  5
2BE
330
2BC
100
AcDbEntity
  8
Capa 1
 62
     7
420
 16777215
370
     9
100
AcDbVertex
100
AcDb2dVertex
 10
77.23955754362414
 20
-167.9752766507145
 30
0.0
  0
SEQEND
  5
2BF
330
2BC
100
AcDbEntity
  8
Capa 1
370
     9
  0
SPLINE
  5
2C0
330
3C
100
AcDbEntity
  8
Capa 1
 62
     7
420
 16777215
370
     9
100
AcDbSpline
210
0.0
220
0.0
230
1.0
 70
     8
 71
     3
 72
     8
 73
     4
 74
     0
 42
0.0000000001
 43
0.0000000001
 40
0.0
 40
0.0
 40
0.0
 40
0.0
 40
1.0
 40
1.0
 40
1.0
 40
1.0
 10
77.87328285813585
 20
-164.4988307965489
 30
0.0
 10
77.95837671662152
 20
-164.3300211177717
 30
0.0
 10
77.96526690759202
 20
-164.1336506751124
 30
0.0
 10
77.89257539285325
 20
-163.9593288435588
 30
0.0
  0
POLYLINE
  5
2C1
330
3C
100
AcDbEntity
  8
Capa 1
 62
     7
420
 16777215
370
     9
100
AcDb2dPolyline
 66
     1
 10
0.0
 20
0.0
 30
0.0
  0
VERTEX
  5
2C2
330
2C1
100
AcDbEntity
  8
Capa 1
 62
     7
420
 16777215
370
     9
100
AcDbVertex
100
AcDb2dVertex
 10
77.53979761516366
 20
-165.1630452061051
 30
0.0
  0
VERTEX
  5
2C3
330
2C1
100
AcDbEntity
  8
Capa 1
 62
     7
420
 16777215
370
     9
100
AcDbVertex
100
AcDb2dVertex
 10
77.87328285813585
 20
-164.4988307965489
 30
0.0
  0
SEQEND
  5
2C4
330
2C1
100
AcDbEntity
  8
Capa 1
370
     9
  0
SPLINE
  5
2C5
330
3C
100
AcDbEntity
  8
Capa 1
 62
     7
420
 16777215
370
     9
100
AcDbSpline
210
0.0
220
0.0
230
1.0
 70
     8
 71
     3
 72
     8
 73
     4
 74
     0
 42
0.0000000001
 43
0.0000000001
 40
0.0
 40
0.0
 40
0.0
 40
0.0
 40
1.0
 40
1.0
 40
1.0
 40
1.0
 10
77.94252927738937
 20
-169.5307372623048
 30
0.0
 10
77.94252927738937
 20
-168.988134723378
 30
0.0
 10
77.80334741978528
 20
-168.4510443372275
 30
0.0
 10
77.53979761516366
 20
-167.9752766507145
 30
0.0
  0
POLYLINE
  5
2C6
330
3C
100
AcDbEntity
  8
Capa 1
 62
     7
420
 16777215
370
     9
100
AcDb2dPolyline
 66
     1
 10
0.0
 20
0.0
 30
0.0
  0
VERTEX
  5
2C7
330
2C6
100
AcDbEntity
  8
Capa 1
 62
     7
420
 16777215
370
     9
100
AcDbVertex
100
AcDb2dVertex
 10
77.94252927738937
 20
-169.5307372623048
 30
0.0
  0
VERTEX
  5
2C8
330
2C6
100
AcDbEntity
  8
Capa 1
 62
     7
420
 16777215
370
     9
100
AcDbVertex
100
AcDb2dVertex
 10
77.94252927738937
 20
-170.1863389331479
 30
0.0
  0
SEQEND
  5
2C9
330
2C6
100
AcDbEntity
  8
Capa 1
370
     9
  0
POLYLINE
  5
2CA
330
3C
100
AcDbEntity
  8
Capa 1
 62
     7
420
 16777215
370
     9
100
AcDb2dPolyline
 66
     1
 10
0.0
 20
0.0
 30
0.0
  0
VERTEX
  5
2CB
330
2CA
100
AcDbEntity
  8
Capa 1
 62
     7
420
 16777215
370
     9
100
AcDbVertex
100
AcDb2dVertex
 10
77.53979761516366
 20
-165.1630452061051
 30
0.0
  0
VERTEX
  5
2CC
330
2CA
100
AcDbEntity
  8
Capa 1
 62
     7
420
 16777215
370
     9
100
AcDbVertex
100
AcDb2dVertex
 10
77.53979761516366
 20
-167.9752766507145
 30
0.0
  0
SEQEND
  5
2CD
330
2CA
100
AcDbEntity
  8
Capa 1
370
     9
  0
SPLINE
  5
2CE
330
3C
100
AcDbEntity
  8
Capa 1
 62
     7
420
 16777215
370
     9
100
AcDbSpline
210
0.0
220
0.0
230
1.0
 70
     8
 71
     3
 72
     8
 73
     4
 74
     0
 42
0.0000000001
 43
0.0000000001
 40
0.0
 40
0.0
 40
0.0
 40
0.0
 40
1.0
 40
1.0
 40
1.0
 40
1.0
 10
79.96359454381118
 20
-146.9886162284438
 30
0.0
 10
79.52417261466758
 20
-146.9927503430261
 30
0.0
 10
79.17001679878389
 20
-147.3470784136841
 30
0.0
 10
79.16708846762143
 20
-147.7858113237306
 30
0.0
  0
SPLINE
  5
2CF
330
3C
100
AcDbEntity
  8
Capa 1
 62
     7
420
 16777215
370
     9
100
AcDbSpline
210
0.0
220
0.0
230
1.0
 70
     8
 71
     3
 72
     8
 73
     4
 74
     0
 42
0.0000000001
 43
0.0000000001
 40
0.0
 40
0.0
 40
0.0
 40
0.0
 40
1.0
 40
1.0
 40
1.0
 40
1.0
 10
79.16708846762143
 20
-128.517220019954
 30
0.0
 10
79.17001679878389
 20
-128.9559529300006
 30
0.0
 10
79.52555065286167
 20
-129.3102810006585
 30
0.0
 10
79.96497258200529
 20
-129.3130370770467
 30
0.0
  0
POLYLINE
  5
2D0
330
3C
100
AcDbEntity
  8
Capa 1
 62
     7
420
 16777215
370
     9
100
AcDb2dPolyline
 66
     1
 10
0.0
 20
0.0
 30
0.0
  0
VERTEX
  5
2D1
330
2D0
100
AcDbEntity
  8
Capa 1
 62
     7
420
 16777215
370
     9
100
AcDbVertex
100
AcDb2dVertex
 10
79.96359454381118
 20
-146.9886162284438
 30
0.0
  0
VERTEX
  5
2D2
330
2D0
100
AcDbEntity
  8
Capa 1
 62
     7
420
 16777215
370
     9
100
AcDbVertex
100
AcDb2dVertex
 10
69.1239461090211
 20
-138.1516017992295
 30
0.0
  0
SEQEND
  5
2D3
330
2D0
100
AcDbEntity
  8
Capa 1
370
     9
  0
POLYLINE
  5
2D4
330
3C
100
AcDbEntity
  8
Capa 1
 62
     7
420
 16777215
370
     9
100
AcDb2dPolyline
 66
     1
 10
0.0
 20
0.0
 30
0.0
  0
VERTEX
  5
2D5
330
2D4
100
AcDbEntity
  8
Capa 1
 62
     7
420
 16777215
370
     9
100
AcDbVertex
100
AcDb2dVertex
 10
69.1239461090211
 20
-138.1516017992295
 30
0.0
  0
VERTEX
  5
2D6
330
2D4
100
AcDbEntity
  8
Capa 1
 62
     7
420
 16777215
370
     9
100
AcDbVertex
100
AcDb2dVertex
 10
79.97048473478169
 20
-129.3130370770467
 30
0.0
  0
SEQEND
  5
2D7
330
2D4
100
AcDbEntity
  8
Capa 1
370
     9
  0
POLYLINE
  5
2D8
330
3C
100
AcDbEntity
  8
Capa 1
 62
     7
420
 16777215
370
     9
100
AcDb2dPolyline
 66
     1
 10
0.0
 20
0.0
 30
0.0
  0
VERTEX
  5
2D9
330
2D8
100
AcDbEntity
  8
Capa 1
 62
     7
420
 16777215
370
     9
100
AcDbVertex
100
AcDb2dVertex
 10
79.16708846762143
 20
-128.517220019954
 30
0.0
  0
VERTEX
  5
2DA
330
2D8
100
AcDbEntity
  8
Capa 1
 62
     7
420
 16777215
370
     9
100
AcDbVertex
100
AcDb2dVertex
 10
69.1239461090211
 20
-138.1516017992295
 30
0.0
  0
SEQEND
  5
2DB
330
2D8
100
AcDbEntity
  8
Capa 1
370
     9
  0
POLYLINE
  5
2DC
330
3C
100
AcDbEntity
  8
Capa 1
 62
     7
420
 16777215
370
     9
100
AcDb2dPolyline
 66
     1
 10
0.0
 20
0.0
 30
0.0
  0
VERTEX
  5
2DD
330
2DC
100
AcDbEntity
  8
Capa 1
 62
     7
420
 16777215
370
     9
100
AcDbVertex
100
AcDb2dVertex
 10
69.1239461090211
 20
-138.1516017992295
 30
0.0
  0
VERTEX
  5
2DE
330
2DC
100
AcDbEntity
  8
Capa 1
 62
     7
420
 16777215
370
     9
100
AcDbVertex
100
AcDb2dVertex
 10
79.16708846762143
 20
-147.7858113237306
 30
0.0
  0
SEQEND
  5
2DF
330
2DC
100
AcDbEntity
  8
Capa 1
370
     9
  0
POLYLINE
  5
2E0
330
3C
100
AcDbEntity
  8
Capa 1
 62
     7
420
 16777215
370
     9
100
AcDb2dPolyline
 66
     1
 10
0.0
 20
0.0
 30
0.0
  0
VERTEX
  5
2E1
330
2E0
100
AcDbEntity
  8
Capa 1
 62
     7
420
 16777215
370
     9
100
AcDbVertex
100
AcDb2dVertex
 10
79.97048473478169
 20
-129.3130370770467
 30
0.0
  0
VERTEX
  5
2E2
330
2E0
100
AcDbEntity
  8
Capa 1
 62
     7
420
 16777215
370
     9
100
AcDbVertex
100
AcDb2dVertex
 10
90.39689396611605
 20
-129.3130370770467
 30
0.0
  0
SEQEND
  5
2E3
330
2E0
100
AcDbEntity
  8
Capa 1
370
     9
  0
POLYLINE
  5
2E4
330
3C
100
AcDbEntity
  8
Capa 1
 62
     7
420
 16777215
370
     9
100
AcDb2dPolyline
 66
     1
 10
0.0
 20
0.0
 30
0.0
  0
VERTEX
  5
2E5
330
2E4
100
AcDbEntity
  8
Capa 1
 62
     7
420
 16777215
370
     9
100
AcDbVertex
100
AcDb2dVertex
 10
90.39689396611605
 20
-146.9886162284438
 30
0.0
  0
VERTEX
  5
2E6
330
2E4
100
AcDbEntity
  8
Capa 1
 62
     7
420
 16777215
370
     9
100
AcDbVertex
100
AcDb2dVertex
 10
79.97048473478169
 20
-146.9886162284438
 30
0.0
  0
SEQEND
  5
2E7
330
2E4
100
AcDbEntity
  8
Capa 1
370
     9
  0
POLYLINE
  5
2E8
330
3C
100
AcDbEntity
  8
Capa 1
 62
     7
420
 16777215
370
     9
100
AcDb2dPolyline
 66
     1
 10
0.0
 20
0.0
 30
0.0
  0
VERTEX
  5
2E9
330
2E8
100
AcDbEntity
  8
Capa 1
 62
     7
420
 16777215
370
     9
100
AcDbVertex
100
AcDb2dVertex
 10
61.49357637351549
 20
-160.7460882844663
 30
0.0
  0
VERTEX
  5
2EA
330
2E8
100
AcDbEntity
  8
Capa 1
 62
     7
420
 16777215
370
     9
100
AcDbVertex
100
AcDb2dVertex
 10
61.49357637351549
 20
-124.2924994263922
 30
0.0
  0
SEQEND
  5
2EB
330
2E8
100
AcDbEntity
  8
Capa 1
370
     9
  0
POLYLINE
  5
2EC
330
3C
100
AcDbEntity
  8
Capa 1
 62
     7
420
 16777215
370
     9
100
AcDb2dPolyline
 66
     1
 10
0.0
 20
0.0
 30
0.0
  0
VERTEX
  5
2ED
330
2EC
100
AcDbEntity
  8
Capa 1
 62
     7
420
 16777215
370
     9
100
AcDbVertex
100
AcDb2dVertex
 10
79.16708846762143
 20
-124.2924994263922
 30
0.0
  0
VERTEX
  5
2EE
330
2EC
100
AcDbEntity
  8
Capa 1
 62
     7
420
 16777215
370
     9
100
AcDbVertex
100
AcDb2dVertex
 10
79.16708846762143
 20
-128.517220019954
 30
0.0
  0
SEQEND
  5
2EF
330
2EC
100
AcDbEntity
  8
Capa 1
370
     9
  0
POLYLINE
  5
2F0
330
3C
100
AcDbEntity
  8
Capa 1
 62
     7
420
 16777215
370
     9
100
AcDb2dPolyline
 66
     1
 10
0.0
 20
0.0
 30
0.0
  0
VERTEX
  5
2F1
330
2F0
100
AcDbEntity
  8
Capa 1
 62
     7
420
 16777215
370
     9
100
AcDbVertex
100
AcDb2dVertex
 10
79.16708846762143
 20
-147.7858113237306
 30
0.0
  0
VERTEX
  5
2F2
330
2F0
100
AcDbEntity
  8
Capa 1
 62
     7
420
 16777215
370
     9
100
AcDbVertex
100
AcDb2dVertex
 10
79.16708846762143
 20
-160.7460882844663
 30
0.0
  0
SEQEND
  5
2F3
330
2F0
100
AcDbEntity
  8
Capa 1
370
     9
  0
POLYLINE
  5
2F4
330
3C
100
AcDbEntity
  8
Capa 1
 62
     7
420
 16777215
370
     9
100
AcDb2dPolyline
 66
     1
 10
0.0
 20
0.0
 30
0.0
  0
VERTEX
  5
2F5
330
2F4
100
AcDbEntity
  8
Capa 1
 62
     7
420
 16777215
370
     9
100
AcDbVertex
100
AcDb2dVertex
 10
79.16708846762143
 20
-124.2924994263922
 30
0.0
  0
VERTEX
  5
2F6
330
2F4
100
AcDbEntity
  8
Capa 1
 62
     7
420
 16777215
370
     9
100
AcDbVertex
100
AcDb2dVertex
 10
61.49357637351549
 20
-124.2924994263922
 30
0.0
  0
SEQEND
  5
2F7
330
2F4
100
AcDbEntity
  8
Capa 1
370
     9
  0
SPLINE
  5
2F8
330
3C
100
AcDbEntity
  8
Capa 1
 62
     7
420
 16777215
370
     9
100
AcDbSpline
210
0.0
220
0.0
230
1.0
 70
     8
 71
     3
 72
     8
 73
     4
 74
     0
 42
0.0000000001
 43
0.0000000001
 40
0.0
 40
0.0
 40
0.0
 40
0.0
 40
1.0
 40
1.0
 40
1.0
 40
1.0
 10
90.39689396611605
 20
-146.9886162284438
 30
0.0
 10
91.42301565639772
 20
-146.9610554645618
 30
0.0
 10
92.43880206022364
 20
-146.7769151108752
 30
0.0
 10
93.41100800616114
 20
-146.4406737915148
 30
0.0
  0
SPLINE
  5
2F9
330
3C
100
AcDbEntity
  8
Capa 1
 62
     7
420
 16777215
370
     9
100
AcDbSpline
210
0.0
220
0.0
230
1.0
 70
     8
 71
     3
 72
     8
 73
     4
 74
     0
 42
0.0000000001
 43
0.0000000001
 40
0.0
 40
0.0
 40
0.0
 40
0.0
 40
1.0
 40
1.0
 40
1.0
 40
1.0
 10
91.20029023327632
 20
-129.3669528213909
 30
0.0
 10
90.93243405929815
 20
-129.3392198027346
 30
0.0
 10
90.66475014009423
 20
-129.3199272680172
 30
0.0
 10
90.39689396611605
 20
-129.3130370770467
 30
0.0
  0
POLYLINE
  5
2FA
330
3C
100
AcDbEntity
  8
Capa 1
 62
     7
420
 16777215
370
     9
100
AcDb2dPolyline
 66
     1
 10
0.0
 20
0.0
 30
0.0
  0
VERTEX
  5
2FB
330
2FA
100
AcDbEntity
  8
Capa 1
 62
     7
420
 16777215
370
     9
100
AcDbVertex
100
AcDb2dVertex
 10
107.7009195694289
 20
-222.8108614894362
 30
0.0
  0
VERTEX
  5
2FC
330
2FA
100
AcDbEntity
  8
Capa 1
 62
     7
420
 16777215
370
     9
100
AcDbVertex
100
AcDb2dVertex
 10
109.2439778372723
 20
-225.0140000522535
 30
0.0
  0
SEQEND
  5
2FD
330
2FA
100
AcDbEntity
  8
Capa 1
370
     9
  0
POLYLINE
  5
2FE
330
3C
100
AcDbEntity
  8
Capa 1
 62
     7
420
 16777215
370
     9
100
AcDb2dPolyline
 66
     1
 10
0.0
 20
0.0
 30
0.0
  0
VERTEX
  5
2FF
330
2FE
100
AcDbEntity
  8
Capa 1
 62
     7
420
 16777215
370
     9
100
AcDbVertex
100
AcDb2dVertex
 10
109.3476752113784
 20
-221.6595105782657
 30
0.0
  0
VERTEX
  5
300
330
2FE
100
AcDbEntity
  8
Capa 1
 62
     7
420
 16777215
370
     9
100
AcDbVertex
100
AcDb2dVertex
 10
110.8893554410277
 20
-223.862649141083
 30
0.0
  0
SEQEND
  5
301
330
2FE
100
AcDbEntity
  8
Capa 1
370
     9
  0
POLYLINE
  5
302
330
3C
100
AcDbEntity
  8
Capa 1
 62
     7
420
 16777215
370
     9
100
AcDb2dPolyline
 66
     1
 10
0.0
 20
0.0
 30
0.0
  0
VERTEX
  5
303
330
302
100
AcDbEntity
  8
Capa 1
 62
     7
420
 16777215
370
     9
100
AcDbVertex
100
AcDb2dVertex
 10
109.2439778372723
 20
-225.0140000522535
 30
0.0
  0
VERTEX
  5
304
330
302
100
AcDbEntity
  8
Capa 1
 62
     7
420
 16777215
370
     9
100
AcDbVertex
100
AcDb2dVertex
 10
110.8893554410277
 20
-223.862649141083
 30
0.0
  0
SEQEND
  5
305
330
302
100
AcDbEntity
  8
Capa 1
370
     9
  0
POLYLINE
  5
306
330
3C
100
AcDbEntity
  8
Capa 1
 62
     7
420
 16777215
370
     9
100
AcDb2dPolyline
 66
     1
 10
0.0
 20
0.0
 30
0.0
  0
VERTEX
  5
307
330
306
100
AcDbEntity
  8
Capa 1
 62
     7
420
 16777215
370
     9
100
AcDbVertex
100
AcDb2dVertex
 10
106.8775417484542
 20
-223.3865369450214
 30
0.0
  0
VERTEX
  5
308
330
306
100
AcDbEntity
  8
Capa 1
 62
     7
420
 16777215
370
     9
100
AcDbVertex
100
AcDb2dVertex
 10
110.169674994159
 20
-221.0810790462922
 30
0.0
  0
SEQEND
  5
309
330
306
100
AcDbEntity
  8
Capa 1
370
     9
  0
POLYLINE
  5
30A
330
3C
100
AcDbEntity
  8
Capa 1
 62
     7
420
 16777215
370
     9
100
AcDb2dPolyline
 66
     1
 10
0.0
 20
0.0
 30
0.0
  0
VERTEX
  5
30B
330
30A
100
AcDbEntity
  8
Capa 1
 62
     7
420
 16777215
370
     9
100
AcDbVertex
100
AcDb2dVertex
 10
104.5736341426934
 20
-220.0957817375108
 30
0.0
  0
VERTEX
  5
30C
330
30A
100
AcDbEntity
  8
Capa 1
 62
     7
420
 16777215
370
     9
100
AcDbVertex
100
AcDb2dVertex
 10
107.8655951336239
 20
-217.7903238387816
 30
0.0
  0
SEQEND
  5
30D
330
30A
100
AcDbEntity
  8
Capa 1
370
     9
  0
POLYLINE
  5
30E
330
3C
100
AcDbEntity
  8
Capa 1
 62
     7
420
 16777215
370
     9
100
AcDb2dPolyline
 66
     1
 10
0.0
 20
0.0
 30
0.0
  0
VERTEX
  5
30F
330
30E
100
AcDbEntity
  8
Capa 1
 62
     7
420
 16777215
370
     9
100
AcDbVertex
100
AcDb2dVertex
 10
107.8655951336239
 20
-217.7903238387816
 30
0.0
  0
VERTEX
  5
310
330
30E
100
AcDbEntity
  8
Capa 1
 62
     7
420
 16777215
370
     9
100
AcDbVertex
100
AcDb2dVertex
 10
110.169674994159
 20
-221.0810790462922
 30
0.0
  0
SEQEND
  5
311
330
30E
100
AcDbEntity
  8
Capa 1
370
     9
  0
POLYLINE
  5
312
330
3C
100
AcDbEntity
  8
Capa 1
 62
     7
420
 16777215
370
     9
100
AcDb2dPolyline
 66
     1
 10
0.0
 20
0.0
 30
0.0
  0
VERTEX
  5
313
330
312
100
AcDbEntity
  8
Capa 1
 62
     7
420
 16777215
370
     9
100
AcDbVertex
100
AcDb2dVertex
 10
104.5736341426934
 20
-220.0957817375108
 30
0.0
  0
VERTEX
  5
314
330
312
100
AcDbEntity
  8
Capa 1
 62
     7
420
 16777215
370
     9
100
AcDbVertex
100
AcDb2dVertex
 10
106.8775417484542
 20
-223.3865369450214
 30
0.0
  0
SEQEND
  5
315
330
312
100
AcDbEntity
  8
Capa 1
370
     9
  0
SPLINE
  5
316
330
3C
100
AcDbEntity
  8
Capa 1
 62
     7
420
 16777215
370
     9
100
AcDbSpline
210
0.0
220
0.0
230
1.0
 70
    11
 71
     3
 72
    17
 73
    13
 74
     0
 42
0.0000000001
 43
0.0000000001
 40
0.0
 40
0.0
 40
0.0
 40
0.0
 40
1.0
 40
1.0
 40
1.0
 40
2.0
 40
2.0
 40
2.0
 40
3.0
 40
3.0
 40
3.0
 40
4.0
 40
4.0
 40
4.0
 40
4.0
 10
108.7788899467636
 20
-220.5884303919015
 30
0.0
 10
108.7788899467636
 20
-219.8105278313321
 30
0.0
 10
108.1487819825114
 20
-219.1824869243711
 30
0.0
 10
107.370879421942
 20
-219.1824869243711
 30
0.0
 10
106.5946994091152
 20
-219.1824869243711
 30
0.0
 10
105.9649359544115
 20
-219.8105278313321
 30
0.0
 10
105.9649359544115
 20
-220.5884303919015
 30
0.0
 10
105.9649359544115
 20
-221.3632323665342
 30
0.0
 10
106.5946994091152
 20
-221.994373859432
 30
0.0
 10
107.370879421942
 20
-221.994373859432
 30
0.0
 10
108.1487819825114
 20
-221.994373859432
 30
0.0
 10
108.7788899467636
 20
-221.3632323665342
 30
0.0
 10
108.7788899467636
 20
-220.5884303919015
 30
0.0
  0
POLYLINE
  5
317
330
3C
100
AcDbEntity
  8
Capa 1
 62
     7
420
 16777215
370
     9
100
AcDb2dPolyline
 66
     1
 10
0.0
 20
0.0
 30
0.0
  0
VERTEX
  5
318
330
317
100
AcDbEntity
  8
Capa 1
 62
     7
420
 16777215
370
     9
100
AcDbVertex
100
AcDb2dVertex
 10
89.15080292910119
 20
-192.8147596089144
 30
0.0
  0
VERTEX
  5
319
330
317
100
AcDbEntity
  8
Capa 1
 62
     7
420
 16777215
370
     9
100
AcDbVertex
100
AcDb2dVertex
 10
107.0422173126492
 20
-218.3659992943668
 30
0.0
  0
SEQEND
  5
31A
330
317
100
AcDbEntity
  8
Capa 1
370
     9
  0
POLYLINE
  5
31B
330
3C
100
AcDbEntity
  8
Capa 1
 62
     7
420
 16777215
370
     9
100
AcDb2dPolyline
 66
     1
 10
0.0
 20
0.0
 30
0.0
  0
VERTEX
  5
31C
330
31B
100
AcDbEntity
  8
Capa 1
 62
     7
420
 16777215
370
     9
100
AcDbVertex
100
AcDb2dVertex
 10
87.4079291231133
 20
-193.8279621911263
 30
0.0
  0
VERTEX
  5
31D
330
31B
100
AcDbEntity
  8
Capa 1
 62
     7
420
 16777215
370
     9
100
AcDbVertex
100
AcDb2dVertex
 10
105.3970119636681
 20
-219.5173502055373
 30
0.0
  0
SEQEND
  5
31E
330
31B
100
AcDbEntity
  8
Capa 1
370
     9
  0
POLYLINE
  5
31F
330
3C
100
AcDbEntity
  8
Capa 1
 62
     7
420
 16777215
370
     9
100
AcDb2dPolyline
 66
     1
 10
0.0
 20
0.0
 30
0.0
  0
VERTEX
  5
320
330
31F
100
AcDbEntity
  8
Capa 1
 62
     7
420
 16777215
370
     9
100
AcDbVertex
100
AcDb2dVertex
 10
107.7009195694289
 20
-222.8108614894362
 30
0.0
  0
VERTEX
  5
321
330
31F
100
AcDbEntity
  8
Capa 1
 62
     7
420
 16777215
370
     9
100
AcDbVertex
100
AcDb2dVertex
 10
109.2439778372723
 20
-225.0140000522535
 30
0.0
  0
SEQEND
  5
322
330
31F
100
AcDbEntity
  8
Capa 1
370
     9
  0
POLYLINE
  5
323
330
3C
100
AcDbEntity
  8
Capa 1
 62
     7
420
 16777215
370
     9
100
AcDb2dPolyline
 66
     1
 10
0.0
 20
0.0
 30
0.0
  0
VERTEX
  5
324
330
323
100
AcDbEntity
  8
Capa 1
 62
     7
420
 16777215
370
     9
100
AcDbVertex
100
AcDb2dVertex
 10
109.3476752113784
 20
-221.6595105782657
 30
0.0
  0
VERTEX
  5
325
330
323
100
AcDbEntity
  8
Capa 1
 62
     7
420
 16777215
370
     9
100
AcDbVertex
100
AcDb2dVertex
 10
110.8893554410277
 20
-223.862649141083
 30
0.0
  0
SEQEND
  5
326
330
323
100
AcDbEntity
  8
Capa 1
370
     9
  0
POLYLINE
  5
327
330
3C
100
AcDbEntity
  8
Capa 1
 62
     7
420
 16777215
370
     9
100
AcDb2dPolyline
 66
     1
 10
0.0
 20
0.0
 30
0.0
  0
VERTEX
  5
328
330
327
100
AcDbEntity
  8
Capa 1
 62
     7
420
 16777215
370
     9
100
AcDbVertex
100
AcDb2dVertex
 10
109.2439778372723
 20
-225.0140000522535
 30
0.0
  0
VERTEX
  5
329
330
327
100
AcDbEntity
  8
Capa 1
 62
     7
420
 16777215
370
     9
100
AcDbVertex
100
AcDb2dVertex
 10
110.8893554410277
 20
-223.862649141083
 30
0.0
  0
SEQEND
  5
32A
330
327
100
AcDbEntity
  8
Capa 1
370
     9
  0
POLYLINE
  5
32B
330
3C
100
AcDbEntity
  8
Capa 1
 62
     7
420
 16777215
370
     9
100
AcDb2dPolyline
 66
     1
 10
0.0
 20
0.0
 30
0.0
  0
VERTEX
  5
32C
330
32B
100
AcDbEntity
  8
Capa 1
 62
     7
420
 16777215
370
     9
100
AcDbVertex
100
AcDb2dVertex
 10
106.8775417484542
 20
-223.3865369450214
 30
0.0
  0
VERTEX
  5
32D
330
32B
100
AcDbEntity
  8
Capa 1
 62
     7
420
 16777215
370
     9
100
AcDbVertex
100
AcDb2dVertex
 10
110.169674994159
 20
-221.0810790462922
 30
0.0
  0
SEQEND
  5
32E
330
32B
100
AcDbEntity
  8
Capa 1
370
     9
  0
POLYLINE
  5
32F
330
3C
100
AcDbEntity
  8
Capa 1
 62
     7
420
 16777215
370
     9
100
AcDb2dPolyline
 66
     1
 10
0.0
 20
0.0
 30
0.0
  0
VERTEX
  5
330
330
32F
100
AcDbEntity
  8
Capa 1
 62
     7
420
 16777215
370
     9
100
AcDbVertex
100
AcDb2dVertex
 10
104.5736341426934
 20
-220.0957817375108
 30
0.0
  0
VERTEX
  5
331
330
32F
100
AcDbEntity
  8
Capa 1
 62
     7
420
 16777215
370
     9
100
AcDbVertex
100
AcDb2dVertex
 10
107.8655951336239
 20
-217.7903238387816
 30
0.0
  0
SEQEND
  5
332
330
32F
100
AcDbEntity
  8
Capa 1
370
     9
  0
POLYLINE
  5
333
330
3C
100
AcDbEntity
  8
Capa 1
 62
     7
420
 16777215
370
     9
100
AcDb2dPolyline
 66
     1
 10
0.0
 20
0.0
 30
0.0
  0
VERTEX
  5
334
330
333
100
AcDbEntity
  8
Capa 1
 62
     7
420
 16777215
370
     9
100
AcDbVertex
100
AcDb2dVertex
 10
107.8655951336239
 20
-217.7903238387816
 30
0.0
  0
VERTEX
  5
335
330
333
100
AcDbEntity
  8
Capa 1
 62
     7
420
 16777215
370
     9
100
AcDbVertex
100
AcDb2dVertex
 10
110.169674994159
 20
-221.0810790462922
 30
0.0
  0
SEQEND
  5
336
330
333
100
AcDbEntity
  8
Capa 1
370
     9
  0
POLYLINE
  5
337
330
3C
100
AcDbEntity
  8
Capa 1
 62
     7
420
 16777215
370
     9
100
AcDb2dPolyline
 66
     1
 10
0.0
 20
0.0
 30
0.0
  0
VERTEX
  5
338
330
337
100
AcDbEntity
  8
Capa 1
 62
     7
420
 16777215
370
     9
100
AcDbVertex
100
AcDb2dVertex
 10
104.5736341426934
 20
-220.0957817375108
 30
0.0
  0
VERTEX
  5
339
330
337
100
AcDbEntity
  8
Capa 1
 62
     7
420
 16777215
370
     9
100
AcDbVertex
100
AcDb2dVertex
 10
106.8775417484542
 20
-223.3865369450214
 30
0.0
  0
SEQEND
  5
33A
330
337
100
AcDbEntity
  8
Capa 1
370
     9
  0
SPLINE
  5
33B
330
3C
100
AcDbEntity
  8
Capa 1
 62
     7
420
 16777215
370
     9
100
AcDbSpline
210
0.0
220
0.0
230
1.0
 70
    11
 71
     3
 72
    17
 73
    13
 74
     0
 42
0.0000000001
 43
0.0000000001
 40
0.0
 40
0.0
 40
0.0
 40
0.0
 40
1.0
 40
1.0
 40
1.0
 40
2.0
 40
2.0
 40
2.0
 40
3.0
 40
3.0
 40
3.0
 40
4.0
 40
4.0
 40
4.0
 40
4.0
 10
108.7788899467636
 20
-220.5884303919015
 30
0.0
 10
108.7788899467636
 20
-219.8105278313321
 30
0.0
 10
108.1487819825114
 20
-219.1824869243711
 30
0.0
 10
107.370879421942
 20
-219.1824869243711
 30
0.0
 10
106.5946994091152
 20
-219.1824869243711
 30
0.0
 10
105.9649359544115
 20
-219.8105278313321
 30
0.0
 10
105.9649359544115
 20
-220.5884303919015
 30
0.0
 10
105.9649359544115
 20
-221.3632323665342
 30
0.0
 10
106.5946994091152
 20
-221.994373859432
 30
0.0
 10
107.370879421942
 20
-221.994373859432
 30
0.0
 10
108.1487819825114
 20
-221.994373859432
 30
0.0
 10
108.7788899467636
 20
-221.3632323665342
 30
0.0
 10
108.7788899467636
 20
-220.5884303919015
 30
0.0
  0
POLYLINE
  5
33C
330
3C
100
AcDbEntity
  8
Capa 1
 62
     7
420
 16777215
370
     9
100
AcDb2dPolyline
 66
     1
 10
0.0
 20
0.0
 30
0.0
  0
VERTEX
  5
33D
330
33C
100
AcDbEntity
  8
Capa 1
 62
     7
420
 16777215
370
     9
100
AcDbVertex
100
AcDb2dVertex
 10
57.89913599898008
 20
-151.6376003310142
 30
0.0
  0
VERTEX
  5
33E
330
33C
100
AcDbEntity
  8
Capa 1
 62
     7
420
 16777215
370
     9
100
AcDbVertex
100
AcDb2dVertex
 10
61.49288735441845
 20
-156.7690700562939
 30
0.0
  0
SEQEND
  5
33F
330
33C
100
AcDbEntity
  8
Capa 1
370
     9
  0
POLYLINE
  5
340
330
3C
100
AcDbEntity
  8
Capa 1
 62
     7
420
 16777215
370
     9
100
AcDb2dPolyline
 66
     1
 10
0.0
 20
0.0
 30
0.0
  0
VERTEX
  5
341
330
340
100
AcDbEntity
  8
Capa 1
 62
     7
420
 16777215
370
     9
100
AcDbVertex
100
AcDb2dVertex
 10
61.49288735441845
 20
-153.2678195146345
 30
0.0
  0
VERTEX
  5
342
330
340
100
AcDbEntity
  8
Capa 1
 62
     7
420
 16777215
370
     9
100
AcDbVertex
100
AcDb2dVertex
 10
59.5445136027354
 20
-150.4841823625526
 30
0.0
  0
SEQEND
  5
343
330
340
100
AcDbEntity
  8
Capa 1
370
     9
  0
POLYLINE
  5
344
330
3C
100
AcDbEntity
  8
Capa 1
 62
     7
420
 16777215
370
     9
100
AcDb2dPolyline
 66
     1
 10
0.0
 20
0.0
 30
0.0
  0
VERTEX
  5
345
330
344
100
AcDbEntity
  8
Capa 1
 62
     7
420
 16777215
370
     9
100
AcDbVertex
100
AcDb2dVertex
 10
57.72050779806987
 20
-151.7623127875803
 30
0.0
  0
VERTEX
  5
346
330
344
100
AcDbEntity
  8
Capa 1
 62
     7
420
 16777215
370
     9
100
AcDbVertex
100
AcDb2dVertex
 10
59.72296954887134
 20
-150.3598144155351
 30
0.0
  0
SEQEND
  5
347
330
344
100
AcDbEntity
  8
Capa 1
370
     9
  0
POLYLINE
  5
348
330
3C
100
AcDbEntity
  8
Capa 1
 62
     7
420
 16777215
370
     9
100
AcDb2dPolyline
 66
     1
 10
0.0
 20
0.0
 30
0.0
  0
VERTEX
  5
349
330
348
100
AcDbEntity
  8
Capa 1
 62
     7
420
 16777215
370
     9
100
AcDbVertex
100
AcDb2dVertex
 10
57.45282387886596
 20
-151.7261392849852
 30
0.0
  0
VERTEX
  5
34A
330
348
100
AcDbEntity
  8
Capa 1
 62
     7
420
 16777215
370
     9
100
AcDbVertex
100
AcDb2dVertex
 10
54.29418808321465
 20
-147.9615111934784
 30
0.0
  0
SEQEND
  5
34B
330
348
100
AcDbEntity
  8
Capa 1
370
     9
  0
POLYLINE
  5
34C
330
3C
100
AcDbEntity
  8
Capa 1
 62
     7
420
 16777215
370
     9
100
AcDb2dPolyline
 66
     1
 10
0.0
 20
0.0
 30
0.0
  0
VERTEX
  5
34D
330
34C
100
AcDbEntity
  8
Capa 1
 62
     7
420
 16777215
370
     9
100
AcDbVertex
100
AcDb2dVertex
 10
56.16435816738252
 20
-143.8294636684697
 30
0.0
  0
VERTEX
  5
34E
330
34C
100
AcDbEntity
  8
Capa 1
 62
     7
420
 16777215
370
     9
100
AcDbVertex
100
AcDb2dVertex
 10
59.78101940779781
 20
-150.0952310822679
 30
0.0
  0
SEQEND
  5
34F
330
34C
100
AcDbEntity
  8
Capa 1
370
     9
  0
SPLINE
  5
350
330
3C
100
AcDbEntity
  8
Capa 1
 62
     7
420
 16777215
370
     9
100
AcDbSpline
210
0.0
220
0.0
230
1.0
 70
     8
 71
     3
 72
     8
 73
     4
 74
     0
 42
0.0000000001
 43
0.0000000001
 40
0.0
 40
0.0
 40
0.0
 40
0.0
 40
1.0
 40
1.0
 40
1.0
 40
1.0
 10
54.24165037706459
 20
-147.6654052365212
 30
0.0
 10
54.20496011014668
 20
-147.766346534239
 30
0.0
 10
54.22494166396113
 20
-147.879862430478
 30
0.0
 10
54.29418808321465
 20
-147.9615111934784
 30
0.0
  0
SPLINE
  5
351
330
3C
100
AcDbEntity
  8
Capa 1
 62
     7
420
 16777215
370
     9
100
AcDbSpline
210
0.0
220
0.0
230
1.0
 70
     8
 71
     3
 72
     8
 73
     4
 74
     0
 42
0.0000000001
 43
0.0000000001
 40
0.0
 40
0.0
 40
0.0
 40
0.0
 40
1.0
 40
1.0
 40
1.0
 40
1.0
 10
56.16435816738252
 20
-143.8294636684697
 30
0.0
 10
56.15608993821792
 20
-143.8168890699486
 30
0.0
 10
56.14782170905332
 20
-143.8058647643957
 30
0.0
 10
56.13817544169463
 20
-143.794840458843
 30
0.0
  0
SPLINE
  5
352
330
3C
100
AcDbEntity
  8
Capa 1
 62
     7
420
 16777215
370
     9
100
AcDbSpline
210
0.0
220
0.0
230
1.0
 70
     8
 71
     3
 72
     8
 73
     4
 74
     0
 42
0.0000000001
 43
0.0000000001
 40
0.0
 40
0.0
 40
0.0
 40
0.0
 40
1.0
 40
1.0
 40
1.0
 40
1.0
 10
56.13817544169463
 20
-143.794840458843
 30
0.0
 10
56.13197426982118
 20
-143.7851941914843
 30
0.0
 10
56.12508407885068
 20
-143.7767537075454
 30
0.0
 10
56.11664359491181
 20
-143.7671074401867
 30
0.0
  0
SPLINE
  5
353
330
3C
100
AcDbEntity
  8
Capa 1
 62
     7
420
 16777215
370
     9
100
AcDbSpline
210
0.0
220
0.0
230
1.0
 70
     8
 71
     3
 72
     8
 73
     4
 74
     0
 42
0.0000000001
 43
0.0000000001
 40
0.0
 40
0.0
 40
0.0
 40
0.0
 40
1.0
 40
1.0
 40
1.0
 40
1.0
 10
56.11664359491181
 20
-143.7671074401867
 30
0.0
 10
56.11113144213542
 20
-143.7615952874103
 30
0.0
 10
56.10493027026197
 20
-143.7560831346339
 30
0.0
 10
56.09941811748556
 20
-143.7519490200516
 30
0.0
  0
SPLINE
  5
354
330
3C
100
AcDbEntity
  8
Capa 1
 62
     7
420
 16777215
370
     9
100
AcDbSpline
210
0.0
220
0.0
230
1.0
 70
     8
 71
     3
 72
     8
 73
     4
 74
     0
 42
0.0000000001
 43
0.0000000001
 40
0.0
 40
0.0
 40
0.0
 40
0.0
 40
1.0
 40
1.0
 40
1.0
 40
1.0
 10
56.09941811748556
 20
-143.7519490200516
 30
0.0
 10
56.09528400290326
 20
-143.7478149054693
 30
0.0
 10
56.08977185012687
 20
-143.7435085361127
 30
0.0
 10
56.08425969735047
 20
-143.7393744215304
 30
0.0
  0
SPLINE
  5
355
330
3C
100
AcDbEntity
  8
Capa 1
 62
     7
420
 16777215
370
     9
100
AcDbSpline
210
0.0
220
0.0
230
1.0
 70
     8
 71
     3
 72
     8
 73
     4
 74
     0
 42
0.0000000001
 43
0.0000000001
 40
0.0
 40
0.0
 40
0.0
 40
0.0
 40
1.0
 40
1.0
 40
1.0
 40
1.0
 10
56.08425969735047
 20
-143.7393744215304
 30
0.0
 10
56.07788627070276
 20
-143.7352403069481
 30
0.0
 10
56.07099607973225
 20
-143.7311061923658
 30
0.0
 10
56.06548392695586
 20
-143.7269720777835
 30
0.0
  0
SPLINE
  5
356
330
3C
100
AcDbEntity
  8
Capa 1
 62
     7
420
 16777215
370
     9
100
AcDbSpline
210
0.0
220
0.0
230
1.0
 70
     8
 71
     3
 72
     8
 73
     4
 74
     0
 42
0.0000000001
 43
0.0000000001
 40
0.0
 40
0.0
 40
0.0
 40
0.0
 40
1.0
 40
1.0
 40
1.0
 40
1.0
 10
56.06548392695586
 20
-143.7269720777835
 30
0.0
 10
56.05997177417945
 20
-143.7228379632012
 30
0.0
 10
56.05308158320896
 20
-143.7187038486189
 30
0.0
 10
56.0455023731414
 20
-143.7145697340366
 30
0.0
  0
SPLINE
  5
357
330
3C
100
AcDbEntity
  8
Capa 1
 62
     7
420
 16777215
370
     9
100
AcDbSpline
210
0.0
220
0.0
230
1.0
 70
     8
 71
     3
 72
     8
 73
     4
 74
     0
 42
0.0000000001
 43
0.0000000001
 40
0.0
 40
0.0
 40
0.0
 40
0.0
 40
1.0
 40
1.0
 40
1.0
 40
1.0
 10
56.0455023731414
 20
-143.7145697340366
 30
0.0
 10
56.03843992739665
 20
-143.7104356194543
 30
0.0
 10
56.03154973642614
 20
-143.7076795430661
 30
0.0
 10
56.02465954545564
 20
-143.7035454284838
 30
0.0
  0
SPLINE
  5
358
330
3C
100
AcDbEntity
  8
Capa 1
 62
     7
420
 16777215
370
     9
100
AcDbSpline
210
0.0
220
0.0
230
1.0
 70
     8
 71
     3
 72
     8
 73
     4
 74
     0
 42
0.0000000001
 43
0.0000000001
 40
0.0
 40
0.0
 40
0.0
 40
0.0
 40
1.0
 40
1.0
 40
1.0
 40
1.0
 10
56.02465954545564
 20
-143.7035454284838
 30
0.0
 10
56.015702297194
 20
-143.7006170973214
 30
0.0
 10
56.00881210622349
 20
-143.6978610209332
 30
0.0
 10
56.00192191525299
 20
-143.695104944545
 30
0.0
  0
SPLINE
  5
359
330
3C
100
AcDbEntity
  8
Capa 1
 62
     7
420
 16777215
370
     9
100
AcDbSpline
210
0.0
220
0.0
230
1.0
 70
     8
 71
     3
 72
     8
 73
     4
 74
     0
 42
0.0000000001
 43
0.0000000001
 40
0.0
 40
0.0
 40
0.0
 40
0.0
 40
1.0
 40
1.0
 40
1.0
 40
1.0
 10
56.00192191525299
 20
-143.695104944545
 30
0.0
 10
55.99348143131413
 20
-143.6923488681568
 30
0.0
 10
55.98590222124658
 20
-143.6909708299627
 30
0.0
 10
55.97763399208198
 20
-143.6882147535745
 30
0.0
  0
SPLINE
  5
35A
330
3C
100
AcDbEntity
  8
Capa 1
 62
     7
420
 16777215
370
     9
100
AcDbSpline
210
0.0
220
0.0
230
1.0
 70
     8
 71
     3
 72
     8
 73
     4
 74
     0
 42
0.0000000001
 43
0.0000000001
 40
0.0
 40
0.0
 40
0.0
 40
0.0
 40
1.0
 40
1.0
 40
1.0
 40
1.0
 10
55.97763399208198
 20
-143.6882147535745
 30
0.0
 10
55.96936576291738
 20
-143.6868367153804
 30
0.0
 10
55.96247557194688
 20
-143.6854586771863
 30
0.0
 10
55.95334606891097
 20
-143.6840806389922
 30
0.0
  0
SPLINE
  5
35B
330
3C
100
AcDbEntity
  8
Capa 1
 62
     7
420
 16777215
370
     9
100
AcDbSpline
210
0.0
220
0.0
230
1.0
 70
     8
 71
     3
 72
     8
 73
     4
 74
     0
 42
0.0000000001
 43
0.0000000001
 40
0.0
 40
0.0
 40
0.0
 40
0.0
 40
1.0
 40
1.0
 40
1.0
 40
1.0
 10
55.95334606891097
 20
-143.6840806389922
 30
0.0
 10
55.94507783974638
 20
-143.6827026007981
 30
0.0
 10
55.93680961058178
 20
-143.681324562604
 30
0.0
 10
55.92785236232012
 20
-143.6799465244099
 30
0.0
  0
SPLINE
  5
35C
330
3C
100
AcDbEntity
  8
Capa 1
 62
     7
420
 16777215
370
     9
100
AcDbSpline
210
0.0
220
0.0
230
1.0
 70
    24
 71
     3
 72
     8
 73
     4
 74
     0
 42
0.0000000001
 43
0.0000000001
 40
0.0
 40
0.0
 40
0.0
 40
0.0
 40
1.0
 40
1.0
 40
1.0
 40
1.0
 10
55.92785236232012
 20
-143.6799465244099
 30
0.0
 10
55.91958413315552
 20
-143.6799465244099
 30
0.0
 10
55.91114364921666
 20
-143.6799465244099
 30
0.0
 10
55.90287542005206
 20
-143.6799465244099
 30
0.0
  0
SPLINE
  5
35D
330
3C
100
AcDbEntity
  8
Capa 1
 62
     7
420
 16777215
370
     9
100
AcDbSpline
210
0.0
220
0.0
230
1.0
 70
    24
 71
     3
 72
     8
 73
     4
 74
     0
 42
0.0000000001
 43
0.0000000001
 40
0.0
 40
0.0
 40
0.0
 40
0.0
 40
1.0
 40
1.0
 40
1.0
 40
1.0
 10
55.90287542005206
 20
-143.6799465244099
 30
0.0
 10
55.89391817179041
 20
-143.6799465244099
 30
0.0
 10
55.88564994262581
 20
-143.6799465244099
 30
0.0
 10
55.87738171346121
 20
-143.6799465244099
 30
0.0
  0
SPLINE
  5
35E
330
3C
100
AcDbEntity
  8
Capa 1
 62
     7
420
 16777215
370
     9
100
AcDbSpline
210
0.0
220
0.0
230
1.0
 70
     8
 71
     3
 72
     8
 73
     4
 74
     0
 42
0.0000000001
 43
0.0000000001
 40
0.0
 40
0.0
 40
0.0
 40
0.0
 40
1.0
 40
1.0
 40
1.0
 40
1.0
 10
55.87738171346121
 20
-143.6799465244099
 30
0.0
 10
55.8682522104253
 20
-143.681324562604
 30
0.0
 10
55.8599839812607
 20
-143.6827026007981
 30
0.0
 10
55.8517157520961
 20
-143.6840806389922
 30
0.0
  0
SPLINE
  5
35F
330
3C
100
AcDbEntity
  8
Capa 1
 62
     7
420
 16777215
370
     9
100
AcDbSpline
210
0.0
220
0.0
230
1.0
 70
     8
 71
     3
 72
     8
 73
     4
 74
     0
 42
0.0000000001
 43
0.0000000001
 40
0.0
 40
0.0
 40
0.0
 40
0.0
 40
1.0
 40
1.0
 40
1.0
 40
1.0
 10
55.8517157520961
 20
-143.6840806389922
 30
0.0
 10
55.8434475229315
 20
-143.6854586771863
 30
0.0
 10
55.83569605808969
 20
-143.6868367153804
 30
0.0
 10
55.82742782892509
 20
-143.6895927917686
 30
0.0
  0
SPLINE
  5
360
330
3C
100
AcDbEntity
  8
Capa 1
 62
     7
420
 16777215
370
     9
100
AcDbSpline
210
0.0
220
0.0
230
1.0
 70
     8
 71
     3
 72
     8
 73
     4
 74
     0
 42
0.0000000001
 43
0.0000000001
 40
0.0
 40
0.0
 40
0.0
 40
0.0
 40
1.0
 40
1.0
 40
1.0
 40
1.0
 10
55.82742782892509
 20
-143.6895927917686
 30
0.0
 10
55.81915959976049
 20
-143.6909708299627
 30
0.0
 10
55.81020235149884
 20
-143.6937269063509
 30
0.0
 10
55.80193412233424
 20
-143.6964829827391
 30
0.0
  0
SPLINE
  5
361
330
3C
100
AcDbEntity
  8
Capa 1
 62
     7
420
 16777215
370
     9
100
AcDbSpline
210
0.0
220
0.0
230
1.0
 70
     8
 71
     3
 72
     8
 73
     4
 74
     0
 42
0.0000000001
 43
0.0000000001
 40
0.0
 40
0.0
 40
0.0
 40
0.0
 40
1.0
 40
1.0
 40
1.0
 40
1.0
 10
55.80193412233424
 20
-143.6964829827391
 30
0.0
 10
55.79504393136374
 20
-143.6992390591273
 30
0.0
 10
55.78798148561898
 20
-143.7021673902897
 30
0.0
 10
55.77902423735733
 20
-143.7049234666779
 30
0.0
  0
SPLINE
  5
362
330
3C
100
AcDbEntity
  8
Capa 1
 62
     7
420
 16777215
370
     9
100
AcDbSpline
210
0.0
220
0.0
230
1.0
 70
     8
 71
     3
 72
     8
 73
     4
 74
     0
 42
0.0000000001
 43
0.0000000001
 40
0.0
 40
0.0
 40
0.0
 40
0.0
 40
1.0
 40
1.0
 40
1.0
 40
1.0
 10
55.77902423735733
 20
-143.7049234666779
 30
0.0
 10
55.77213404638683
 20
-143.7090575812603
 30
0.0
 10
55.76524385541633
 20
-143.7118136576484
 30
0.0
 10
55.75835366444583
 20
-143.7173258104249
 30
0.0
  0
SPLINE
  5
363
330
3C
100
AcDbEntity
  8
Capa 1
 62
     7
420
 16777215
370
     9
100
AcDbSpline
210
0.0
220
0.0
230
1.0
 70
     8
 71
     3
 72
     8
 73
     4
 74
     0
 42
0.0000000001
 43
0.0000000001
 40
0.0
 40
0.0
 40
0.0
 40
0.0
 40
1.0
 40
1.0
 40
1.0
 40
1.0
 10
55.75835366444583
 20
-143.7173258104249
 30
0.0
 10
55.74922416140992
 20
-143.7214599250071
 30
0.0
 10
55.74371200863352
 20
-143.7255940395895
 30
0.0
 10
55.73682181766302
 20
-143.7297281541717
 30
0.0
  0
SPLINE
  5
364
330
3C
100
AcDbEntity
  8
Capa 1
 62
     7
420
 16777215
370
     9
100
AcDbSpline
210
0.0
220
0.0
230
1.0
 70
     8
 71
     3
 72
     8
 73
     4
 74
     0
 42
0.0000000001
 43
0.0000000001
 40
0.0
 40
0.0
 40
0.0
 40
0.0
 40
1.0
 40
1.0
 40
1.0
 40
1.0
 10
55.73682181766302
 20
-143.7297281541717
 30
0.0
 10
55.72993162669252
 20
-143.7338622687541
 30
0.0
 10
55.72373045481907
 20
-143.7379963833363
 30
0.0
 10
55.71684026384857
 20
-143.7435085361127
 30
0.0
  0
SPLINE
  5
365
330
3C
100
AcDbEntity
  8
Capa 1
 62
     7
420
 16777215
370
     9
100
AcDbSpline
210
0.0
220
0.0
230
1.0
 70
     8
 71
     3
 72
     8
 73
     4
 74
     0
 42
0.0000000001
 43
0.0000000001
 40
0.0
 40
0.0
 40
0.0
 40
0.0
 40
1.0
 40
1.0
 40
1.0
 40
1.0
 10
55.71684026384857
 20
-143.7435085361127
 30
0.0
 10
55.71115585629791
 20
-143.7478149054693
 30
0.0
 10
55.70564370352151
 20
-143.7533270582457
 30
0.0
 10
55.70013155074511
 20
-143.757461172828
 30
0.0
  0
SPLINE
  5
366
330
3C
100
AcDbEntity
  8
Capa 1
 62
     7
420
 16777215
370
     9
100
AcDbSpline
210
0.0
220
0.0
230
1.0
 70
     8
 71
     3
 72
     8
 73
     4
 74
     0
 42
0.0000000001
 43
0.0000000001
 40
0.0
 40
0.0
 40
0.0
 40
0.0
 40
1.0
 40
1.0
 40
1.0
 40
1.0
 10
55.70013155074511
 20
-143.757461172828
 30
0.0
 10
55.69393037887166
 20
-143.7629733256044
 30
0.0
 10
55.68979626428936
 20
-143.7684854783808
 30
0.0
 10
55.68428411151296
 20
-143.7739976311572
 30
0.0
  0
SPLINE
  5
367
330
3C
100
AcDbEntity
  8
Capa 1
 62
     7
420
 16777215
370
     9
100
AcDbSpline
210
0.0
220
0.0
230
1.0
 70
     8
 71
     3
 72
     8
 73
     4
 74
     0
 42
0.0000000001
 43
0.0000000001
 40
0.0
 40
0.0
 40
0.0
 40
0.0
 40
1.0
 40
1.0
 40
1.0
 40
1.0
 10
55.68428411151296
 20
-143.7739976311572
 30
0.0
 10
55.67877195873656
 20
-143.7808878221277
 30
0.0
 10
55.67463784415426
 20
-143.7865722296784
 30
0.0
 10
55.66895343660359
 20
-143.7907063442607
 30
0.0
  0
SPLINE
  5
368
330
3C
100
AcDbEntity
  8
Capa 1
 62
     7
420
 16777215
370
     9
100
AcDbSpline
210
0.0
220
0.0
230
1.0
 70
     8
 71
     3
 72
     8
 73
     4
 74
     0
 42
0.0000000001
 43
0.0000000001
 40
0.0
 40
0.0
 40
0.0
 40
0.0
 40
1.0
 40
1.0
 40
1.0
 40
1.0
 10
55.66895343660359
 20
-143.7907063442607
 30
0.0
 10
55.66413030292425
 20
-143.7962184970371
 30
0.0
 10
55.65999618834195
 20
-143.8017306498135
 30
0.0
 10
55.65586207375965
 20
-143.808620840784
 30
0.0
  0
SPLINE
  5
369
330
3C
100
AcDbEntity
  8
Capa 1
 62
     7
420
 16777215
370
     9
100
AcDbSpline
210
0.0
220
0.0
230
1.0
 70
     8
 71
     3
 72
     8
 73
     4
 74
     0
 42
0.0000000001
 43
0.0000000001
 40
0.0
 40
0.0
 40
0.0
 40
0.0
 40
1.0
 40
1.0
 40
1.0
 40
1.0
 10
55.65586207375965
 20
-143.808620840784
 30
0.0
 10
55.65310599737145
 20
-143.8141329935603
 30
0.0
 10
55.64897188278915
 20
-143.8182671081427
 30
0.0
 10
55.64483776820685
 20
-143.8251572991132
 30
0.0
  0
SPLINE
  5
36A
330
3C
100
AcDbEntity
  8
Capa 1
 62
     7
420
 16777215
370
     9
100
AcDbSpline
210
0.0
220
0.0
230
1.0
 70
     8
 71
     3
 72
     8
 73
     4
 74
     0
 42
0.0000000001
 43
0.0000000001
 40
0.0
 40
0.0
 40
0.0
 40
0.0
 40
1.0
 40
1.0
 40
1.0
 40
1.0
 10
55.64483776820685
 20
-143.8251572991132
 30
0.0
 10
55.64208169181865
 20
-143.8308417066638
 30
0.0
 10
55.63932561543045
 20
-143.8377318976343
 30
0.0
 10
55.6345024817511
 20
-143.8432440504107
 30
0.0
  0
SPLINE
  5
36B
330
3C
100
AcDbEntity
  8
Capa 1
 62
     7
420
 16777215
370
     9
100
AcDbSpline
210
0.0
220
0.0
230
1.0
 70
     8
 71
     3
 72
     8
 73
     4
 74
     0
 42
0.0000000001
 43
0.0000000001
 40
0.0
 40
0.0
 40
0.0
 40
0.0
 40
1.0
 40
1.0
 40
1.0
 40
1.0
 10
55.6345024817511
 20
-143.8432440504107
 30
0.0
 10
55.6317464053629
 20
-143.8487562031871
 30
0.0
 10
55.62881807420044
 20
-143.8542683559635
 30
0.0
 10
55.62606199781224
 20
-143.8597805087399
 30
0.0
  0
POLYLINE
  5
36C
330
3C
100
AcDbEntity
  8
Capa 1
 62
     7
420
 16777215
370
     9
100
AcDb2dPolyline
 66
     1
 10
0.0
 20
0.0
 30
0.0
  0
VERTEX
  5
36D
330
36C
100
AcDbEntity
  8
Capa 1
 62
     7
420
 16777215
370
     9
100
AcDbVertex
100
AcDb2dVertex
 10
55.62054984503584
 20
-143.8764892218434
 30
0.0
  0
VERTEX
  5
36E
330
36C
100
AcDbEntity
  8
Capa 1
 62
     7
420
 16777215
370
     9
100
AcDbVertex
100
AcDb2dVertex
 10
55.62606199781224
 20
-143.8597805087399
 30
0.0
  0
SEQEND
  5
36F
330
36C
100
AcDbEntity
  8
Capa 1
370
     9
  0
SPLINE
  5
370
330
3C
100
AcDbEntity
  8
Capa 1
 62
     7
420
 16777215
370
     9
100
AcDbSpline
210
0.0
220
0.0
230
1.0
 70
     8
 71
     3
 72
     8
 73
     4
 74
     0
 42
0.0000000001
 43
0.0000000001
 40
0.0
 40
0.0
 40
0.0
 40
0.0
 40
1.0
 40
1.0
 40
1.0
 40
1.0
 10
57.45282387886596
 20
-151.7261392849852
 30
0.0
 10
57.51776392876292
 20
-151.8064100097914
 30
0.0
 10
57.6354139395842
 20
-151.8201903917325
 30
0.0
 10
57.72050779806987
 20
-151.7623127875803
 30
0.0
  0
SPLINE
  5
371
330
3C
100
AcDbEntity
  8
Capa 1
 62
     7
420
 16777215
370
     9
100
AcDbSpline
210
0.0
220
0.0
230
1.0
 70
     8
 71
     3
 72
     8
 73
     4
 74
     0
 42
0.0000000001
 43
0.0000000001
 40
0.0
 40
0.0
 40
0.0
 40
0.0
 40
1.0
 40
1.0
 40
1.0
 40
1.0
 10
59.72296954887134
 20
-150.3598144155351
 30
0.0
 10
59.80806340735702
 20
-150.3002142636402
 30
0.0
 10
59.83372936872212
 20
-150.1854925839814
 30
0.0
 10
59.78101940779781
 20
-150.0952310822679
 30
0.0
  0
POLYLINE
  5
372
330
3C
100
AcDbEntity
  8
Capa 1
 62
     7
420
 16777215
370
     9
100
AcDb2dPolyline
 66
     1
 10
0.0
 20
0.0
 30
0.0
  0
VERTEX
  5
373
330
372
100
AcDbEntity
  8
Capa 1
 62
     7
420
 16777215
370
     9
100
AcDbVertex
100
AcDb2dVertex
 10
54.24165037706459
 20
-147.6654052365212
 30
0.0
  0
VERTEX
  5
374
330
372
100
AcDbEntity
  8
Capa 1
 62
     7
420
 16777215
370
     9
100
AcDbVertex
100
AcDb2dVertex
 10
55.62054984503584
 20
-143.8764892218434
 30
0.0
  0
SEQEND
  5
375
330
372
100
AcDbEntity
  8
Capa 1
370
     9
  0
POLYLINE
  5
376
330
3C
100
AcDbEntity
  8
Capa 1
 62
     7
420
 16777215
370
     9
100
AcDb2dPolyline
 66
     1
 10
0.0
 20
0.0
 30
0.0
  0
VERTEX
  5
377
330
376
100
AcDbEntity
  8
Capa 1
 62
     7
420
 16777215
370
     9
100
AcDbVertex
100
AcDb2dVertex
 10
132.6306640293423
 20
-64.0419135039548
 30
0.0
  0
VERTEX
  5
378
330
376
100
AcDbEntity
  8
Capa 1
 62
     7
420
 16777215
370
     9
100
AcDbVertex
100
AcDb2dVertex
 10
142.0574788056315
 20
-63.54788681136998
 30
0.0
  0
SEQEND
  5
379
330
376
100
AcDbEntity
  8
Capa 1
370
     9
  0
POLYLINE
  5
37A
330
3C
100
AcDbEntity
  8
Capa 1
 62
     7
420
 16777215
370
     9
100
AcDb2dPolyline
 66
     1
 10
0.0
 20
0.0
 30
0.0
  0
VERTEX
  5
37B
330
37A
100
AcDbEntity
  8
Capa 1
 62
     7
420
 16777215
370
     9
100
AcDbVertex
100
AcDb2dVertex
 10
93.69522838369426
 20
-147.3899698524754
 30
0.0
  0
VERTEX
  5
37C
330
37A
100
AcDbEntity
  8
Capa 1
 62
     7
420
 16777215
370
     9
100
AcDbVertex
100
AcDb2dVertex
 10
95.21675480475484
 20
-147.3899698524754
 30
0.0
  0
SEQEND
  5
37D
330
37A
100
AcDbEntity
  8
Capa 1
370
     9
  0
SPLINE
  5
37E
330
3C
100
AcDbEntity
  8
Capa 1
 62
     7
420
 16777215
370
     9
100
AcDbSpline
210
0.0
220
0.0
230
1.0
 70
     8
 71
     3
 72
    11
 73
     7
 74
     0
 42
0.0000000001
 43
0.0000000001
 40
0.0
 40
0.0
 40
0.0
 40
0.0
 40
1.0
 40
1.0
 40
1.0
 40
2.0
 40
2.0
 40
2.0
 40
2.0
 10
107.7377820911211
 20
-100.7507839374859
 30
0.0
 10
107.7929036188851
 20
-100.534948705335
 30
0.0
 10
107.6630235190912
 20
-100.3161851420217
 30
0.0
 10
107.4477050512631
 20
-100.2622693976775
 30
0.0
 10
107.4146321346047
 20
-100.2540011685129
 30
0.0
 10
107.3822482370433
 20
-100.2498670539306
 30
0.0
 10
107.3495198299335
 20
-100.2498670539306
 30
0.0
  0
SPLINE
  5
37F
330
3C
100
AcDbEntity
  8
Capa 1
 62
     7
420
 16777215
370
     9
100
AcDbSpline
210
0.0
220
0.0
230
1.0
 70
     8
 71
     3
 72
     8
 73
     4
 74
     0
 42
0.0000000001
 43
0.0000000001
 40
0.0
 40
0.0
 40
0.0
 40
0.0
 40
1.0
 40
1.0
 40
1.0
 40
1.0
 10
107.7377820911211
 20
-100.7507839374859
 30
0.0
 10
107.1128417700968
 20
-103.2112711330514
 30
0.0
 10
106.8072618005551
 20
-105.7435885694842
 30
0.0
 10
106.8272433543696
 20
-108.2829684516619
 30
0.0
  0
POLYLINE
  5
380
330
3C
100
AcDbEntity
  8
Capa 1
 62
     7
420
 16777215
370
     9
100
AcDb2dPolyline
 66
     1
 10
0.0
 20
0.0
 30
0.0
  0
VERTEX
  5
381
330
380
100
AcDbEntity
  8
Capa 1
 62
     7
420
 16777215
370
     9
100
AcDbVertex
100
AcDb2dVertex
 10
106.5788519698831
 20
-100.2498670539306
 30
0.0
  0
VERTEX
  5
382
330
380
100
AcDbEntity
  8
Capa 1
 62
     7
420
 16777215
370
     9
100
AcDbVertex
100
AcDb2dVertex
 10
107.3495198299335
 20
-100.2498670539306
 30
0.0
  0
SEQEND
  5
383
330
380
100
AcDbEntity
  8
Capa 1
370
     9
  0
SPLINE
  5
384
330
3C
100
AcDbEntity
  8
Capa 1
 62
     7
420
 16777215
370
     9
100
AcDbSpline
210
0.0
220
0.0
230
1.0
 70
     8
 71
     3
 72
     8
 73
     4
 74
     0
 42
0.0000000001
 43
0.0000000001
 40
0.0
 40
0.0
 40
0.0
 40
0.0
 40
1.0
 40
1.0
 40
1.0
 40
1.0
 10
106.5788519698831
 20
-100.2498670539306
 30
0.0
 10
106.3935058327766
 20
-100.2498670539306
 30
0.0
 10
106.2302083067758
 20
-100.3757852939165
 30
0.0
 10
106.1878336323072
 20
-100.5569973164406
 30
0.0
  0
SPLINE
  5
385
330
3C
100
AcDbEntity
  8
Capa 1
 62
     7
420
 16777215
370
     9
100
AcDbSpline
210
0.0
220
0.0
230
1.0
 70
     8
 71
     3
 72
     8
 73
     4
 74
     0
 42
0.0000000001
 43
0.0000000001
 40
0.0
 40
0.0
 40
0.0
 40
0.0
 40
1.0
 40
1.0
 40
1.0
 40
1.0
 10
106.1878336323072
 20
-100.5569973164406
 30
0.0
 10
105.571506049996
 20
-103.0908650458419
 30
0.0
 10
105.191512017973
 20
-105.6772704813932
 30
0.0
 10
105.0587035870166
 20
-108.2829684516619
 30
0.0
  0
SPLINE
  5
386
330
3C
100
AcDbEntity
  8
Capa 1
 62
     7
420
 16777215
370
     9
100
AcDbSpline
210
0.0
220
0.0
230
1.0
 70
     8
 71
     3
 72
    29
 73
    25
 74
     0
 42
0.0000000001
 43
0.0000000001
 40
0.0
 40
0.0
 40
0.0
 40
0.0
 40
1.0
 40
1.0
 40
1.0
 40
2.0
 40
2.0
 40
2.0
 40
3.0
 40
3.0
 40
3.0
 40
4.0
 40
4.0
 40
4.0
 40
5.0
 40
5.0
 40
5.0
 40
6.0
 40
6.0
 40
6.0
 40
7.0
 40
7.0
 40
7.0
 40
8.0
 40
8.0
 40
8.0
 40
8.0
 10
102.2113321684576
 20
-147.3899698524754
 30
0.0
 10
102.2140882448458
 20
-147.3885918142813
 30
0.0
 10
102.4597235529441
 20
-147.194805193236
 30
0.0
 10
102.8064724135345
 20
-146.864076026652
 30
0.0
 10
103.1551160766418
 20
-146.531968821874
 30
0.0
 10
103.5972940821736
 20
-146.0560288805867
 30
0.0
 10
104.0241414127961
 20
-145.4677788264803
 30
0.0
 10
104.4490939409016
 20
-144.8797010271481
 30
0.0
 10
104.8738742142329
 20
-144.1629489114419
 30
0.0
 10
105.2268242466968
 20
-143.3395710904672
 30
0.0
 10
105.5797742791606
 20
-142.5161932694925
 30
0.0
 10
105.8619275994026
 20
-141.5668972085319
 30
0.0
 10
106.0204019917241
 20
-140.564891186647
 30
0.0
 10
106.0999836974333
 20
-140.0653523412857
 30
0.0
 10
106.1513156201636
 20
-139.5506550757894
 30
0.0
 10
106.1678520784928
 20
-139.0220051735778
 30
0.0
 10
106.1864555941131
 20
-138.4933552713663
 30
0.0
 10
106.1609618875223
 20
-137.9591932163783
 30
0.0
 10
106.1526936583577
 20
-137.4332993905549
 30
0.0
 10
106.136501709577
 20
-136.3803059554883
 30
0.0
 10
106.1499375819695
 20
-135.3395426093943
 30
0.0
 10
106.1892116705013
 20
-134.3847343956573
 30
0.0
 10
106.2729274907929
 20
-132.4778740445715
 30
0.0
 10
106.488245958621
 20
-130.8891682615485
 30
0.0
 10
106.6501654464277
 20
-129.9896538303498
 30
0.0
  0
SPLINE
  5
387
330
3C
100
AcDbEntity
  8
Capa 1
 62
     7
420
 16777215
370
     9
100
AcDbSpline
210
0.0
220
0.0
230
1.0
 70
     8
 71
     3
 72
    11
 73
     7
 74
     0
 42
0.0000000001
 43
0.0000000001
 40
0.0
 40
0.0
 40
0.0
 40
0.0
 40
1.0
 40
1.0
 40
1.0
 40
2.0
 40
2.0
 40
2.0
 40
2.0
 10
106.6501654464277
 20
-129.9896538303498
 30
0.0
 10
106.709421088774
 20
-129.6658148547363
 30
0.0
 10
106.743527534078
 20
-129.1483615128518
 30
0.0
 10
106.7628200687954
 20
-128.5117078671776
 30
0.0
 10
106.784179660804
 20
-127.8752264762777
 30
0.0
 10
106.7910698517745
 20
-127.1210950745565
 30
0.0
 10
106.7896918135804
 20
-126.3599012270906
 30
0.0
  0
SPLINE
  5
388
330
3C
100
AcDbEntity
  8
Capa 1
 62
     7
420
 16777215
370
     9
100
AcDbSpline
210
0.0
220
0.0
230
1.0
 70
     8
 71
     3
 72
    17
 73
    13
 74
     0
 42
0.0000000001
 43
0.0000000001
 40
0.0
 40
0.0
 40
0.0
 40
0.0
 40
1.0
 40
1.0
 40
1.0
 40
2.0
 40
2.0
 40
2.0
 40
3.0
 40
3.0
 40
3.0
 40
4.0
 40
4.0
 40
4.0
 40
4.0
 10
99.23408065010467
 20
-147.3899698524754
 30
0.0
 10
99.23408065010467
 20
-147.3899698524754
 30
0.0
 10
99.01480032246853
 20
-147.3374321463254
 30
0.0
 10
98.64462481257843
 20
-147.2792100326247
 30
0.0
 10
98.27651635997948
 20
-147.2211601736982
 30
0.0
 10
97.7520005723502
 20
-147.1658663911599
 30
0.0
 10
97.22610674652681
 20
-147.1658663911599
 30
0.0
 10
96.70107419457473
 20
-147.1658663911599
 30
0.0
 10
96.17931448333364
 20
-147.2197821355041
 30
0.0
 10
95.80638289705536
 20
-147.2792100326247
 30
0.0
 10
95.43276229168
 20
-147.3374321463254
 30
0.0
 10
95.21675480475484
 20
-147.3899698524754
 30
0.0
 10
95.21675480475484
 20
-147.3899698524754
 30
0.0
  0
SPLINE
  5
389
330
3C
100
AcDbEntity
  8
Capa 1
 62
     7
420
 16777215
370
     9
100
AcDbSpline
210
0.0
220
0.0
230
1.0
 70
     8
 71
     3
 72
    11
 73
     7
 74
     0
 42
0.0000000001
 43
0.0000000001
 40
0.0
 40
0.0
 40
0.0
 40
0.0
 40
1.0
 40
1.0
 40
1.0
 40
2.0
 40
2.0
 40
2.0
 40
2.0
 10
103.4257283270082
 20
-130.9446342988611
 30
0.0
 10
103.9259561914664
 20
-130.6940036023092
 30
0.0
 10
104.4988755706635
 20
-130.0561441732151
 30
0.0
 10
104.7112657073291
 20
-129.5274942710035
 30
0.0
 10
104.9250338821889
 20
-129.0016004451802
 30
0.0
 10
105.0587035870166
 20
-127.9360324115924
 30
0.0
 10
105.0587035870166
 20
-127.2358167542154
 30
0.0
  0
SPLINE
  5
38A
330
3C
100
AcDbEntity
  8
Capa 1
 62
     7
420
 16777215
370
     9
100
AcDbSpline
210
0.0
220
0.0
230
1.0
 70
     8
 71
     3
 72
    80
 73
    76
 74
     0
 42
0.0000000001
 43
0.0000000001
 40
0.0
 40
0.0
 40
0.0
 40
0.0
 40
1.0
 40
1.0
 40
1.0
 40
2.0
 40
2.0
 40
2.0
 40
3.0
 40
3.0
 40
3.0
 40
4.0
 40
4.0
 40
4.0
 40
5.0
 40
5.0
 40
5.0
 40
6.0
 40
6.0
 40
6.0
 40
7.0
 40
7.0
 40
7.0
 40
8.0
 40
8.0
 40
8.0
 40
9.0
 40
9.0
 40
9.0
 40
10.0
 40
10.0
 40
10.0
 40
11.0
 40
11.0
 40
11.0
 40
12.0
 40
12.0
 40
12.0
 40
13.0
 40
13.0
 40
13.0
 40
14.0
 40
14.0
 40
14.0
 40
15.0
 40
15.0
 40
15.0
 40
16.0
 40
16.0
 40
16.0
 40
17.0
 40
17.0
 40
17.0
 40
18.0
 40
18.0
 40
18.0
 40
19.0
 40
19.0
 40
19.0
 40
20.0
 40
20.0
 40
20.0
 40
21.0
 40
21.0
 40
21.0
 40
22.0
 40
22.0
 40
22.0
 40
23.0
 40
23.0
 40
23.0
 40
24.0
 40
24.0
 40
24.0
 40
25.0
 40
25.0
 40
25.0
 40
25.0
 10
106.8272433543696
 20
-107.8041001792122
 30
0.0
 10
106.8272433543696
 20
-107.8041001792122
 30
0.0
 10
106.8272433543696
 20
-109.2820461423844
 30
0.0
 10
106.8272433543696
 20
-109.2820461423844
 30
0.0
 10
106.8272433543696
 20
-110.2535630692248
 30
0.0
 10
106.8251762970784
 20
-111.224907741291
 30
0.0
 10
106.8251762970784
 20
-112.1964246681315
 30
0.0
 10
106.8251762970784
 20
-112.1964246681315
 30
0.0
 10
106.8251762970784
 20
-114.8312336952505
 30
0.0
 10
106.8251762970784
 20
-114.8312336952505
 30
0.0
 10
106.8251762970784
 20
-114.8312336952505
 30
0.0
 10
106.8251762970784
 20
-117.191985376518
 30
0.0
 10
106.8251762970784
 20
-117.191985376518
 30
0.0
 10
106.8251762970784
 20
-117.191985376518
 30
0.0
 10
106.8251762970784
 20
-118.8540716933768
 30
0.0
 10
106.8251762970784
 20
-118.8540716933768
 30
0.0
 10
106.8251762970784
 20
-118.8540716933768
 30
0.0
 10
106.8251762970784
 20
-120.3444200002958
 30
0.0
 10
106.8251762970784
 20
-120.3444200002958
 30
0.0
 10
106.8251762970784
 20
-120.3444200002958
 30
0.0
 10
106.8251762970784
 20
-121.6756048957964
 30
0.0
 10
106.8251762970784
 20
-121.6756048957964
 30
0.0
 10
106.8251762970784
 20
-121.6756048957964
 30
0.0
 10
106.8251762970784
 20
-122.9861192183854
 30
0.0
 10
106.8251762970784
 20
-122.9861192183854
 30
0.0
 10
106.8251762970784
 20
-122.9861192183854
 30
0.0
 10
106.8251762970784
 20
-124.317304113886
 30
0.0
 10
106.8251762970784
 20
-124.317304113886
 30
0.0
 10
106.8251762970784
 20
-124.317304113886
 30
0.0
 10
106.8251762970784
 20
-125.6679537988782
 30
0.0
 10
106.8251762970784
 20
-125.6679537988782
 30
0.0
 10
106.8251762970784
 20
-125.6679537988782
 30
0.0
 10
106.8251762970784
 20
-127.5444973096937
 30
0.0
 10
106.8251762970784
 20
-127.5444973096937
 30
0.0
 10
106.8251762970784
 20
-127.5444973096937
 30
0.0
 10
106.8251762970784
 20
-129.4568698135559
 30
0.0
 10
106.8251762970784
 20
-129.4568698135559
 30
0.0
 10
106.8251762970784
 20
-129.4568698135559
 30
0.0
 10
106.8251762970784
 20
-131.4067938582073
 30
0.0
 10
106.8251762970784
 20
-131.4067938582073
 30
0.0
 10
106.8251762970784
 20
-131.4067938582073
 30
0.0
 10
106.8251762970784
 20
-133.3966810104876
 30
0.0
 10
106.8251762970784
 20
-133.3966810104876
 30
0.0
 10
106.8251762970784
 20
-134.0886284387001
 30
0.0
 10
106.8272433543696
 20
-134.7819539051066
 30
0.0
 10
106.8251762970784
 20
-135.4752793715131
 30
0.0
 10
106.8237982588843
 20
-135.9429510836358
 30
0.0
 10
106.8224202206902
 20
-136.4106227957585
 30
0.0
 10
106.8251762970784
 20
-136.8784667626554
 30
0.0
 10
106.8286213925637
 20
-137.3711154170461
 30
0.0
 10
106.8368896217283
 20
-137.8637640714368
 30
0.0
 10
106.8237982588843
 20
-138.3564127258276
 30
0.0
 10
106.8141519915256
 20
-138.8490613802183
 30
0.0
 10
106.7814235844158
 20
-139.3403319964149
 30
0.0
 10
106.7149332415504
 20
-139.8286742814491
 30
0.0
 10
106.6425862363602
 20
-140.3642143746312
 30
0.0
 10
106.5261420089587
 20
-140.8942423150368
 30
0.0
 10
106.3759358458018
 20
-141.4118679116957
 30
0.0
 10
106.2687933762106
 20
-141.7841104788769
 30
0.0
 10
106.1420138623534
 20
-142.1494628550876
 30
0.0
 10
105.9976643615214
 20
-142.5077527855536
 30
0.0
 10
105.8460801601704
 20
-142.8829236838973
 30
0.0
 10
105.6731363668109
 20
-143.2524101746904
 30
0.0
 10
105.4805555291854
 20
-143.6093220669622
 30
0.0
 10
105.2807399910409
 20
-143.9843207105317
 30
0.0
 10
105.0587035870166
 20
-144.3469170103542
 30
0.0
 10
104.8172023935006
 20
-144.6957329282358
 30
0.0
 10
104.568121989917
 20
-145.0581569732841
 30
0.0
 10
104.2961317013565
 20
-145.4083509293597
 30
0.0
 10
104.0069159353698
 20
-145.7404581341378
 30
0.0
 10
103.7080539020244
 20
-146.0822116062746
 30
0.0
 10
103.3904160982843
 20
-146.4074286200822
 30
0.0
 10
103.0507296834387
 20
-146.7062906534276
 30
0.0
 10
102.8791639282733
 20
-146.8599419120698
 30
0.0
 10
102.7005357273631
 20
-147.0053249415473
 30
0.0
 10
102.5179456666448
 20
-147.1464016016683
 30
0.0
  0
SPLINE
  5
38B
330
3C
100
AcDbEntity
  8
Capa 1
 62
     7
420
 16777215
370
     9
100
AcDbSpline
210
0.0
220
0.0
230
1.0
 70
     8
 71
     3
 72
     8
 73
     4
 74
     0
 42
0.0000000001
 43
0.0000000001
 40
0.0
 40
0.0
 40
0.0
 40
0.0
 40
1.0
 40
1.0
 40
1.0
 40
1.0
 10
103.3973062892548
 20
-129.113738303225
 30
0.0
 10
104.3598659678337
 20
-128.924085796762
 30
0.0
 10
105.053708198563
 20
-128.0841715174581
 30
0.0
 10
105.0587035870166
 20
-127.1043863614531
 30
0.0
  0
SPLINE
  5
38C
330
3C
100
AcDbEntity
  8
Capa 1
 62
     7
420
 16777215
370
     9
100
AcDbSpline
210
0.0
220
0.0
230
1.0
 70
     8
 71
     3
 72
     8
 73
     4
 74
     0
 42
0.0000000001
 43
0.0000000001
 40
0.0
 40
0.0
 40
0.0
 40
0.0
 40
1.0
 40
1.0
 40
1.0
 40
1.0
 10
95.21675480475484
 20
-147.3899698524754
 30
0.0
 10
96.47266436390267
 20
-148.0583183766139
 30
0.0
 10
97.9788601100539
 20
-148.0583183766139
 30
0.0
 10
99.23408065010467
 20
-147.3899698524754
 30
0.0
  0
POLYLINE
  5
38D
330
3C
100
AcDbEntity
  8
Capa 1
 62
     7
420
 16777215
370
     9
100
AcDb2dPolyline
 66
     1
 10
0.0
 20
0.0
 30
0.0
  0
VERTEX
  5
38E
330
38D
100
AcDbEntity
  8
Capa 1
 62
     7
420
 16777215
370
     9
100
AcDbVertex
100
AcDb2dVertex
 10
105.0587035870166
 20
-126.3599012270906
 30
0.0
  0
VERTEX
  5
38F
330
38D
100
AcDbEntity
  8
Capa 1
 62
     7
420
 16777215
370
     9
100
AcDbVertex
100
AcDb2dVertex
 10
105.0587035870166
 20
-127.2358167542154
 30
0.0
  0
SEQEND
  5
390
330
38D
100
AcDbEntity
  8
Capa 1
370
     9
  0
POLYLINE
  5
391
330
3C
100
AcDbEntity
  8
Capa 1
 62
     7
420
 16777215
370
     9
100
AcDb2dPolyline
 66
     1
 10
0.0
 20
0.0
 30
0.0
  0
VERTEX
  5
392
330
391
100
AcDbEntity
  8
Capa 1
 62
     7
420
 16777215
370
     9
100
AcDbVertex
100
AcDb2dVertex
 10
105.0587035870166
 20
-108.2829684516619
 30
0.0
  0
VERTEX
  5
393
330
391
100
AcDbEntity
  8
Capa 1
 62
     7
420
 16777215
370
     9
100
AcDbVertex
100
AcDb2dVertex
 10
105.0587035870166
 20
-126.3599012270906
 30
0.0
  0
SEQEND
  5
394
330
391
100
AcDbEntity
  8
Capa 1
370
     9
  0
POLYLINE
  5
395
330
3C
100
AcDbEntity
  8
Capa 1
 62
     7
420
 16777215
370
     9
100
AcDb2dPolyline
 66
     1
 10
0.0
 20
0.0
 30
0.0
  0
VERTEX
  5
396
330
395
100
AcDbEntity
  8
Capa 1
 62
     7
420
 16777215
370
     9
100
AcDbVertex
100
AcDb2dVertex
 10
91.20097925237337
 20
-129.113738303225
 30
0.0
  0
VERTEX
  5
397
330
395
100
AcDbEntity
  8
Capa 1
 62
     7
420
 16777215
370
     9
100
AcDbVertex
100
AcDb2dVertex
 10
103.3973062892548
 20
-129.113738303225
 30
0.0
  0
SEQEND
  5
398
330
395
100
AcDbEntity
  8
Capa 1
370
     9
  0
POLYLINE
  5
399
330
3C
100
AcDbEntity
  8
Capa 1
 62
     7
420
 16777215
370
     9
100
AcDb2dPolyline
 66
     1
 10
0.0
 20
0.0
 30
0.0
  0
VERTEX
  5
39A
330
399
100
AcDbEntity
  8
Capa 1
 62
     7
420
 16777215
370
     9
100
AcDbVertex
100
AcDb2dVertex
 10
102.2113321684576
 20
-147.3899698524754
 30
0.0
  0
VERTEX
  5
39B
330
399
100
AcDbEntity
  8
Capa 1
 62
     7
420
 16777215
370
     9
100
AcDbVertex
100
AcDb2dVertex
 10
99.23408065010467
 20
-147.3899698524754
 30
0.0
  0
SEQEND
  5
39C
330
399
100
AcDbEntity
  8
Capa 1
370
     9
  0
SPLINE
  5
39D
330
3C
100
AcDbEntity
  8
Capa 1
 62
     7
420
 16777215
370
     9
100
AcDbSpline
210
0.0
220
0.0
230
1.0
 70
     8
 71
     3
 72
     8
 73
     4
 74
     0
 42
0.0000000001
 43
0.0000000001
 40
0.0
 40
0.0
 40
0.0
 40
0.0
 40
1.0
 40
1.0
 40
1.0
 40
1.0
 10
91.20097925237337
 20
-138.0020846551696
 30
0.0
 10
91.91979842537074
 20
-141.1600314317239
 30
0.0
 10
92.75161673028433
 20
-144.2902451896219
 30
0.0
 10
93.69522838369426
 20
-147.3899698524754
 30
0.0
  0
POLYLINE
  5
39E
330
3C
100
AcDbEntity
  8
Capa 1
 62
     7
420
 16777215
370
     9
100
AcDb2dPolyline
 66
     1
 10
0.0
 20
0.0
 30
0.0
  0
VERTEX
  5
39F
330
39E
100
AcDbEntity
  8
Capa 1
 62
     7
420
 16777215
370
     9
100
AcDbVertex
100
AcDb2dVertex
 10
91.20097925237337
 20
-129.113738303225
 30
0.0
  0
VERTEX
  5
3A0
330
39E
100
AcDbEntity
  8
Capa 1
 62
     7
420
 16777215
370
     9
100
AcDbVertex
100
AcDb2dVertex
 10
91.20097925237337
 20
-138.0020846551696
 30
0.0
  0
SEQEND
  5
3A1
330
39E
100
AcDbEntity
  8
Capa 1
370
     9
  0
POLYLINE
  5
3A2
330
3C
100
AcDbEntity
  8
Capa 1
 62
     7
420
 16777215
370
     9
100
AcDb2dPolyline
 66
     1
 10
0.0
 20
0.0
 30
0.0
  0
VERTEX
  5
3A3
330
3A2
100
AcDbEntity
  8
Capa 1
 62
     7
420
 16777215
370
     9
100
AcDbVertex
100
AcDb2dVertex
 10
137.9336995097874
 20
-72.77109644448085
 30
0.0
  0
VERTEX
  5
3A4
330
3A2
100
AcDbEntity
  8
Capa 1
 62
     7
420
 16777215
370
     9
100
AcDbVertex
100
AcDb2dVertex
 10
137.7786702129512
 20
-71.81904430713205
 30
0.0
  0
SEQEND
  5
3A5
330
3A2
100
AcDbEntity
  8
Capa 1
370
     9
  0
POLYLINE
  5
3A6
330
3C
100
AcDbEntity
  8
Capa 1
 62
     7
420
 16777215
370
     9
100
AcDb2dPolyline
 66
     1
 10
0.0
 20
0.0
 30
0.0
  0
VERTEX
  5
3A7
330
3A6
100
AcDbEntity
  8
Capa 1
 62
     7
420
 16777215
370
     9
100
AcDbVertex
100
AcDb2dVertex
 10
137.7786702129512
 20
-71.81904430713205
 30
0.0
  0
VERTEX
  5
3A8
330
3A6
100
AcDbEntity
  8
Capa 1
 62
     7
420
 16777215
370
     9
100
AcDbVertex
100
AcDb2dVertex
 10
137.7814262893394
 20
-72.74474146401867
 30
0.0
  0
SEQEND
  5
3A9
330
3A6
100
AcDbEntity
  8
Capa 1
370
     9
  0
SPLINE
  5
3AA
330
3C
100
AcDbEntity
  8
Capa 1
 62
     7
420
 16777215
370
     9
100
AcDbSpline
210
0.0
220
0.0
230
1.0
 70
     8
 71
     3
 72
     8
 73
     4
 74
     0
 42
0.0000000001
 43
0.0000000001
 40
0.0
 40
0.0
 40
0.0
 40
0.0
 40
1.0
 40
1.0
 40
1.0
 40
1.0
 10
119.8593505559727
 20
-52.46191404938453
 30
0.0
 10
126.6858072599952
 20
-52.46191404938453
 30
0.0
 10
132.3178493592817
 20
-57.8049126374585
 30
0.0
 10
132.6751057611021
 20
-64.62310111231645
 30
0.0
  0
SPLINE
  5
3AB
330
3C
100
AcDbEntity
  8
Capa 1
 62
     7
420
 16777215
370
     9
100
AcDbSpline
210
0.0
220
0.0
230
1.0
 70
     8
 71
     3
 72
     8
 73
     4
 74
     0
 42
0.0000000001
 43
0.0000000001
 40
0.0
 40
0.0
 40
0.0
 40
0.0
 40
1.0
 40
1.0
 40
1.0
 40
1.0
 10
119.4097655951476
 20
-52.46897649512928
 30
0.0
 10
119.560316267853
 20
-52.46329208757862
 30
0.0
 10
119.7084553737187
 20
-52.46191404938453
 30
0.0
 10
119.8593505559727
 20
-52.46191404938453
 30
0.0
  0
SPLINE
  5
3AC
330
3C
100
AcDbEntity
  8
Capa 1
 62
     7
420
 16777215
370
     9
100
AcDbSpline
210
0.0
220
0.0
230
1.0
 70
     8
 71
     3
 72
     8
 73
     4
 74
     0
 42
0.0000000001
 43
0.0000000001
 40
0.0
 40
0.0
 40
0.0
 40
0.0
 40
1.0
 40
1.0
 40
1.0
 40
1.0
 10
87.88111298801236
 20
-44.12443846553139
 30
0.0
 10
75.45775415865293
 20
-44.5588650062214
 30
0.0
 10
65.60908744019495
 20
-54.75634764256092
 30
0.0
 10
65.60908744019495
 20
-67.1872856819879
 30
0.0
  0
SPLINE
  5
3AD
330
3C
100
AcDbEntity
  8
Capa 1
 62
     7
420
 16777215
370
     9
100
AcDbSpline
210
0.0
220
0.0
230
1.0
 70
     8
 71
     3
 72
     8
 73
     4
 74
     0
 42
0.0000000001
 43
0.0000000001
 40
0.0
 40
0.0
 40
0.0
 40
0.0
 40
1.0
 40
1.0
 40
1.0
 40
1.0
 10
142.1015760278427
 20
-64.13045245792573
 30
0.0
 10
141.465266891717
 20
-51.99699841365006
 30
0.0
 10
131.2219644854237
 20
-42.61186929273245
 30
0.0
 10
119.0817925049518
 20
-43.03527152786965
 30
0.0
  0
SPLINE
  5
3AE
330
3C
100
AcDbEntity
  8
Capa 1
 62
     7
420
 16777215
370
     9
100
AcDbSpline
210
0.0
220
0.0
230
1.0
 70
     8
 71
     3
 72
     8
 73
     4
 74
     0
 42
0.0000000001
 43
0.0000000001
 40
0.0
 40
0.0
 40
0.0
 40
0.0
 40
1.0
 40
1.0
 40
1.0
 40
1.0
 10
75.04951034365082
 20
-67.1872856819879
 30
0.0
 10
75.04951034365082
 20
-59.84061955969263
 30
0.0
 10
80.86793210868927
 20
-53.81531981076493
 30
0.0
 10
88.2111531354993
 20
-53.55934921621086
 30
0.0
  0
POLYLINE
  5
3AF
330
3C
100
AcDbEntity
  8
Capa 1
 62
     7
420
 16777215
370
     9
100
AcDb2dPolyline
 66
     1
 10
0.0
 20
0.0
 30
0.0
  0
VERTEX
  5
3B0
330
3AF
100
AcDbEntity
  8
Capa 1
 62
     7
420
 16777215
370
     9
100
AcDbVertex
100
AcDb2dVertex
 10
133.0654350795809
 20
-72.06536863432741
 30
0.0
  0
VERTEX
  5
3B1
330
3AF
100
AcDbEntity
  8
Capa 1
 62
     7
420
 16777215
370
     9
100
AcDbVertex
100
AcDb2dVertex
 10
142.4919053463215
 20
-71.57271997993668
 30
0.0
  0
SEQEND
  5
3B2
330
3AF
100
AcDbEntity
  8
Capa 1
370
     9
  0
POLYLINE
  5
3B3
330
3C
100
AcDbEntity
  8
Capa 1
 62
     7
420
 16777215
370
     9
100
AcDb2dPolyline
 66
     1
 10
0.0
 20
0.0
 30
0.0
  0
VERTEX
  5
3B4
330
3B3
100
AcDbEntity
  8
Capa 1
 62
     7
420
 16777215
370
     9
100
AcDbVertex
100
AcDb2dVertex
 10
75.04951034365082
 20
-124.2938774645863
 30
0.0
  0
VERTEX
  5
3B5
330
3B3
100
AcDbEntity
  8
Capa 1
 62
     7
420
 16777215
370
     9
100
AcDbVertex
100
AcDb2dVertex
 10
65.60908744019495
 20
-124.2938774645863
 30
0.0
  0
SEQEND
  5
3B6
330
3B3
100
AcDbEntity
  8
Capa 1
370
     9
  0
POLYLINE
  5
3B7
330
3C
100
AcDbEntity
  8
Capa 1
 62
     7
420
 16777215
370
     9
100
AcDb2dPolyline
 66
     1
 10
0.0
 20
0.0
 30
0.0
  0
VERTEX
  5
3B8
330
3B7
100
AcDbEntity
  8
Capa 1
 62
     7
420
 16777215
370
     9
100
AcDbVertex
100
AcDb2dVertex
 10
119.0817925049518
 20
-43.03527152786965
 30
0.0
  0
VERTEX
  5
3B9
330
3B7
100
AcDbEntity
  8
Capa 1
 62
     7
420
 16777215
370
     9
100
AcDbVertex
100
AcDb2dVertex
 10
87.88111298801236
 20
-44.12443846553139
 30
0.0
  0
SEQEND
  5
3BA
330
3B7
100
AcDbEntity
  8
Capa 1
370
     9
  0
POLYLINE
  5
3BB
330
3C
100
AcDbEntity
  8
Capa 1
 62
     7
420
 16777215
370
     9
100
AcDb2dPolyline
 66
     1
 10
0.0
 20
0.0
 30
0.0
  0
VERTEX
  5
3BC
330
3BB
100
AcDbEntity
  8
Capa 1
 62
     7
420
 16777215
370
     9
100
AcDbVertex
100
AcDb2dVertex
 10
88.2111531354993
 20
-53.55934921621086
 30
0.0
  0
VERTEX
  5
3BD
330
3BB
100
AcDbEntity
  8
Capa 1
 62
     7
420
 16777215
370
     9
100
AcDbVertex
100
AcDb2dVertex
 10
119.4097655951476
 20
-52.46897649512928
 30
0.0
  0
SEQEND
  5
3BE
330
3BB
100
AcDbEntity
  8
Capa 1
370
     9
  0
POLYLINE
  5
3BF
330
3C
100
AcDbEntity
  8
Capa 1
 62
     7
420
 16777215
370
     9
100
AcDb2dPolyline
 66
     1
 10
0.0
 20
0.0
 30
0.0
  0
VERTEX
  5
3C0
330
3BF
100
AcDbEntity
  8
Capa 1
 62
     7
420
 16777215
370
     9
100
AcDbVertex
100
AcDb2dVertex
 10
132.6751057611021
 20
-64.62310111231645
 30
0.0
  0
VERTEX
  5
3C1
330
3BF
100
AcDbEntity
  8
Capa 1
 62
     7
420
 16777215
370
     9
100
AcDbVertex
100
AcDb2dVertex
 10
133.0654350795809
 20
-72.06536863432741
 30
0.0
  0
SEQEND
  5
3C2
330
3BF
100
AcDbEntity
  8
Capa 1
370
     9
  0
POLYLINE
  5
3C3
330
3C
100
AcDbEntity
  8
Capa 1
 62
     7
420
 16777215
370
     9
100
AcDb2dPolyline
 66
     1
 10
0.0
 20
0.0
 30
0.0
  0
VERTEX
  5
3C4
330
3C3
100
AcDbEntity
  8
Capa 1
 62
     7
420
 16777215
370
     9
100
AcDbVertex
100
AcDb2dVertex
 10
142.4919053463215
 20
-71.57271997993668
 30
0.0
  0
VERTEX
  5
3C5
330
3C3
100
AcDbEntity
  8
Capa 1
 62
     7
420
 16777215
370
     9
100
AcDbVertex
100
AcDb2dVertex
 10
142.1015760278427
 20
-64.13045245792573
 30
0.0
  0
SEQEND
  5
3C6
330
3C3
100
AcDbEntity
  8
Capa 1
370
     9
  0
POLYLINE
  5
3C7
330
3C
100
AcDbEntity
  8
Capa 1
 62
     7
420
 16777215
370
     9
100
AcDb2dPolyline
 66
     1
 10
0.0
 20
0.0
 30
0.0
  0
VERTEX
  5
3C8
330
3C7
100
AcDbEntity
  8
Capa 1
 62
     7
420
 16777215
370
     9
100
AcDbVertex
100
AcDb2dVertex
 10
65.60908744019495
 20
-67.1872856819879
 30
0.0
  0
VERTEX
  5
3C9
330
3C7
100
AcDbEntity
  8
Capa 1
 62
     7
420
 16777215
370
     9
100
AcDbVertex
100
AcDb2dVertex
 10
65.60908744019495
 20
-124.2938774645863
 30
0.0
  0
SEQEND
  5
3CA
330
3C7
100
AcDbEntity
  8
Capa 1
370
     9
  0
POLYLINE
  5
3CB
330
3C
100
AcDbEntity
  8
Capa 1
 62
     7
420
 16777215
370
     9
100
AcDb2dPolyline
 66
     1
 10
0.0
 20
0.0
 30
0.0
  0
VERTEX
  5
3CC
330
3CB
100
AcDbEntity
  8
Capa 1
 62
     7
420
 16777215
370
     9
100
AcDbVertex
100
AcDb2dVertex
 10
75.04951034365082
 20
-124.2938774645863
 30
0.0
  0
VERTEX
  5
3CD
330
3CB
100
AcDbEntity
  8
Capa 1
 62
     7
420
 16777215
370
     9
100
AcDbVertex
100
AcDb2dVertex
 10
75.04951034365082
 20
-67.1872856819879
 30
0.0
  0
SEQEND
  5
3CE
330
3CB
100
AcDbEntity
  8
Capa 1
370
     9
  0
POLYLINE
  5
3CF
330
3C
100
AcDbEntity
  8
Capa 1
 62
     7
420
 16777215
370
     9
100
AcDb2dPolyline
 66
     1
 10
0.0
 20
0.0
 30
0.0
  0
VERTEX
  5
3D0
330
3CF
100
AcDbEntity
  8
Capa 1
 62
     7
420
 16777215
370
     9
100
AcDbVertex
100
AcDb2dVertex
 10
85.02426755686894
 20
-195.2087564616145
 30
0.0
  0
VERTEX
  5
3D1
330
3CF
100
AcDbEntity
  8
Capa 1
 62
     7
420
 16777215
370
     9
100
AcDbVertex
100
AcDb2dVertex
 10
91.73514130736136
 20
-191.3175211110248
 30
0.0
  0
SEQEND
  5
3D2
330
3CF
100
AcDbEntity
  8
Capa 1
370
     9
  0
POLYLINE
  5
3D3
330
3C
100
AcDbEntity
  8
Capa 1
 62
     7
420
 16777215
370
     9
100
AcDb2dPolyline
 66
     1
 10
0.0
 20
0.0
 30
0.0
  0
VERTEX
  5
3D4
330
3D3
100
AcDbEntity
  8
Capa 1
 62
     7
420
 16777215
370
     9
100
AcDbVertex
100
AcDb2dVertex
 10
126.641710037784
 20
-222.5338758124221
 30
0.0
  0
VERTEX
  5
3D5
330
3D3
100
AcDbEntity
  8
Capa 1
 62
     7
420
 16777215
370
     9
100
AcDbVertex
100
AcDb2dVertex
 10
126.641710037784
 20
-223.7406927609051
 30
0.0
  0
SEQEND
  5
3D6
330
3D3
100
AcDbEntity
  8
Capa 1
370
     9
  0
POLYLINE
  5
3D7
330
3C
100
AcDbEntity
  8
Capa 1
 62
     7
420
 16777215
370
     9
100
AcDb2dPolyline
 66
     1
 10
0.0
 20
0.0
 30
0.0
  0
VERTEX
  5
3D8
330
3D7
100
AcDbEntity
  8
Capa 1
 62
     7
420
 16777215
370
     9
100
AcDbVertex
100
AcDb2dVertex
 10
126.641710037784
 20
-217.7155652667517
 30
0.0
  0
VERTEX
  5
3D9
330
3D7
100
AcDbEntity
  8
Capa 1
 62
     7
420
 16777215
370
     9
100
AcDbVertex
100
AcDb2dVertex
 10
126.641710037784
 20
-218.9196261388465
 30
0.0
  0
SEQEND
  5
3DA
330
3D7
100
AcDbEntity
  8
Capa 1
370
     9
  0
POLYLINE
  5
3DB
330
3C
100
AcDbEntity
  8
Capa 1
 62
     7
420
 16777215
370
     9
100
AcDb2dPolyline
 66
     1
 10
0.0
 20
0.0
 30
0.0
  0
VERTEX
  5
3DC
330
3DB
100
AcDbEntity
  8
Capa 1
 62
     7
420
 16777215
370
     9
100
AcDbVertex
100
AcDb2dVertex
 10
122.4235351256441
 20
-218.9196261388465
 30
0.0
  0
VERTEX
  5
3DD
330
3DB
100
AcDbEntity
  8
Capa 1
 62
     7
420
 16777215
370
     9
100
AcDbVertex
100
AcDb2dVertex
 10
122.4235351256441
 20
-217.7155652667517
 30
0.0
  0
SEQEND
  5
3DE
330
3DB
100
AcDbEntity
  8
Capa 1
370
     9
  0
POLYLINE
  5
3DF
330
3C
100
AcDbEntity
  8
Capa 1
 62
     7
420
 16777215
370
     9
100
AcDb2dPolyline
 66
     1
 10
0.0
 20
0.0
 30
0.0
  0
VERTEX
  5
3E0
330
3DF
100
AcDbEntity
  8
Capa 1
 62
     7
420
 16777215
370
     9
100
AcDbVertex
100
AcDb2dVertex
 10
122.4235351256441
 20
-223.7406927609051
 30
0.0
  0
VERTEX
  5
3E1
330
3DF
100
AcDbEntity
  8
Capa 1
 62
     7
420
 16777215
370
     9
100
AcDbVertex
100
AcDb2dVertex
 10
122.4235351256441
 20
-222.5338758124221
 30
0.0
  0
SEQEND
  5
3E2
330
3DF
100
AcDbEntity
  8
Capa 1
370
     9
  0
POLYLINE
  5
3E3
330
3C
100
AcDbEntity
  8
Capa 1
 62
     7
420
 16777215
370
     9
100
AcDb2dPolyline
 66
     1
 10
0.0
 20
0.0
 30
0.0
  0
VERTEX
  5
3E4
330
3E3
100
AcDbEntity
  8
Capa 1
 62
     7
420
 16777215
370
     9
100
AcDbVertex
100
AcDb2dVertex
 10
122.4235351256441
 20
-223.7406927609051
 30
0.0
  0
VERTEX
  5
3E5
330
3E3
100
AcDbEntity
  8
Capa 1
 62
     7
420
 16777215
370
     9
100
AcDbVertex
100
AcDb2dVertex
 10
126.641710037784
 20
-223.7406927609051
 30
0.0
  0
SEQEND
  5
3E6
330
3E3
100
AcDbEntity
  8
Capa 1
370
     9
  0
POLYLINE
  5
3E7
330
3C
100
AcDbEntity
  8
Capa 1
 62
     7
420
 16777215
370
     9
100
AcDb2dPolyline
 66
     1
 10
0.0
 20
0.0
 30
0.0
  0
VERTEX
  5
3E8
330
3E7
100
AcDbEntity
  8
Capa 1
 62
     7
420
 16777215
370
     9
100
AcDbVertex
100
AcDb2dVertex
 10
122.4235351256441
 20
-222.5338758124221
 30
0.0
  0
VERTEX
  5
3E9
330
3E7
100
AcDbEntity
  8
Capa 1
 62
     7
420
 16777215
370
     9
100
AcDbVertex
100
AcDb2dVertex
 10
126.641710037784
 20
-222.5338758124221
 30
0.0
  0
SEQEND
  5
3EA
330
3E7
100
AcDbEntity
  8
Capa 1
370
     9
  0
POLYLINE
  5
3EB
330
3C
100
AcDbEntity
  8
Capa 1
 62
     7
420
 16777215
370
     9
100
AcDb2dPolyline
 66
     1
 10
0.0
 20
0.0
 30
0.0
  0
VERTEX
  5
3EC
330
3EB
100
AcDbEntity
  8
Capa 1
 62
     7
420
 16777215
370
     9
100
AcDbVertex
100
AcDb2dVertex
 10
122.4235351256441
 20
-218.9196261388465
 30
0.0
  0
VERTEX
  5
3ED
330
3EB
100
AcDbEntity
  8
Capa 1
 62
     7
420
 16777215
370
     9
100
AcDbVertex
100
AcDb2dVertex
 10
126.641710037784
 20
-218.9196261388465
 30
0.0
  0
SEQEND
  5
3EE
330
3EB
100
AcDbEntity
  8
Capa 1
370
     9
  0
POLYLINE
  5
3EF
330
3C
100
AcDbEntity
  8
Capa 1
 62
     7
420
 16777215
370
     9
100
AcDb2dPolyline
 66
     1
 10
0.0
 20
0.0
 30
0.0
  0
VERTEX
  5
3F0
330
3EF
100
AcDbEntity
  8
Capa 1
 62
     7
420
 16777215
370
     9
100
AcDbVertex
100
AcDb2dVertex
 10
122.4235351256441
 20
-217.7155652667517
 30
0.0
  0
VERTEX
  5
3F1
330
3EF
100
AcDbEntity
  8
Capa 1
 62
     7
420
 16777215
370
     9
100
AcDbVertex
100
AcDb2dVertex
 10
126.641710037784
 20
-217.7155652667517
 30
0.0
  0
SEQEND
  5
3F2
330
3EF
100
AcDbEntity
  8
Capa 1
370
     9
  0
POLYLINE
  5
3F3
330
3C
100
AcDbEntity
  8
Capa 1
 62
     7
420
 16777215
370
     9
100
AcDb2dPolyline
 66
     1
 10
0.0
 20
0.0
 30
0.0
  0
VERTEX
  5
3F4
330
3F3
100
AcDbEntity
  8
Capa 1
 62
     7
420
 16777215
370
     9
100
AcDbVertex
100
AcDb2dVertex
 10
121.6194498393868
 20
-225.6754583854214
 30
0.0
  0
VERTEX
  5
3F5
330
3F3
100
AcDbEntity
  8
Capa 1
 62
     7
420
 16777215
370
     9
100
AcDbVertex
100
AcDb2dVertex
 10
126.641710037784
 20
-225.6754583854214
 30
0.0
  0
SEQEND
  5
3F6
330
3F3
100
AcDbEntity
  8
Capa 1
370
     9
  0
POLYLINE
  5
3F7
330
3C
100
AcDbEntity
  8
Capa 1
 62
     7
420
 16777215
370
     9
100
AcDb2dPolyline
 66
     1
 10
0.0
 20
0.0
 30
0.0
  0
VERTEX
  5
3F8
330
3F7
100
AcDbEntity
  8
Capa 1
 62
     7
420
 16777215
370
     9
100
AcDbVertex
100
AcDb2dVertex
 10
121.6194498393868
 20
-215.631627007724
 30
0.0
  0
VERTEX
  5
3F9
330
3F7
100
AcDbEntity
  8
Capa 1
 62
     7
420
 16777215
370
     9
100
AcDbVertex
100
AcDb2dVertex
 10
126.641710037784
 20
-215.631627007724
 30
0.0
  0
SEQEND
  5
3FA
330
3F7
100
AcDbEntity
  8
Capa 1
370
     9
  0
POLYLINE
  5
3FB
330
3C
100
AcDbEntity
  8
Capa 1
 62
     7
420
 16777215
370
     9
100
AcDb2dPolyline
 66
     1
 10
0.0
 20
0.0
 30
0.0
  0
VERTEX
  5
3FC
330
3FB
100
AcDbEntity
  8
Capa 1
 62
     7
420
 16777215
370
     9
100
AcDbVertex
100
AcDb2dVertex
 10
121.6194498393868
 20
-215.631627007724
 30
0.0
  0
VERTEX
  5
3FD
330
3FB
100
AcDbEntity
  8
Capa 1
 62
     7
420
 16777215
370
     9
100
AcDbVertex
100
AcDb2dVertex
 10
121.6194498393868
 20
-225.6754583854214
 30
0.0
  0
SEQEND
  5
3FE
330
3FB
100
AcDbEntity
  8
Capa 1
370
     9
  0
POLYLINE
  5
3FF
330
3C
100
AcDbEntity
  8
Capa 1
 62
     7
420
 16777215
370
     9
100
AcDb2dPolyline
 66
     1
 10
0.0
 20
0.0
 30
0.0
  0
VERTEX
  5
400
330
3FF
100
AcDbEntity
  8
Capa 1
 62
     7
420
 16777215
370
     9
100
AcDbVertex
100
AcDb2dVertex
 10
126.641710037784
 20
-215.2302733836924
 30
0.0
  0
VERTEX
  5
401
330
3FF
100
AcDbEntity
  8
Capa 1
 62
     7
420
 16777215
370
     9
100
AcDbVertex
100
AcDb2dVertex
 10
126.641710037784
 20
-215.631627007724
 30
0.0
  0
SEQEND
  5
402
330
3FF
100
AcDbEntity
  8
Capa 1
370
     9
  0
POLYLINE
  5
403
330
3C
100
AcDbEntity
  8
Capa 1
 62
     7
420
 16777215
370
     9
100
AcDb2dPolyline
 66
     1
 10
0.0
 20
0.0
 30
0.0
  0
VERTEX
  5
404
330
403
100
AcDbEntity
  8
Capa 1
 62
     7
420
 16777215
370
     9
100
AcDbVertex
100
AcDb2dVertex
 10
126.641710037784
 20
-226.076812009453
 30
0.0
  0
VERTEX
  5
405
330
403
100
AcDbEntity
  8
Capa 1
 62
     7
420
 16777215
370
     9
100
AcDbVertex
100
AcDb2dVertex
 10
127.2449462572513
 20
-226.076812009453
 30
0.0
  0
SEQEND
  5
406
330
403
100
AcDbEntity
  8
Capa 1
370
     9
  0
POLYLINE
  5
407
330
3C
100
AcDbEntity
  8
Capa 1
 62
     7
420
 16777215
370
     9
100
AcDb2dPolyline
 66
     1
 10
0.0
 20
0.0
 30
0.0
  0
VERTEX
  5
408
330
407
100
AcDbEntity
  8
Capa 1
 62
     7
420
 16777215
370
     9
100
AcDbVertex
100
AcDb2dVertex
 10
126.641710037784
 20
-215.2302733836924
 30
0.0
  0
VERTEX
  5
409
330
407
100
AcDbEntity
  8
Capa 1
 62
     7
420
 16777215
370
     9
100
AcDbVertex
100
AcDb2dVertex
 10
127.2449462572513
 20
-215.2302733836924
 30
0.0
  0
SEQEND
  5
40A
330
407
100
AcDbEntity
  8
Capa 1
370
     9
  0
POLYLINE
  5
40B
330
3C
100
AcDbEntity
  8
Capa 1
 62
     7
420
 16777215
370
     9
100
AcDb2dPolyline
 66
     1
 10
0.0
 20
0.0
 30
0.0
  0
VERTEX
  5
40C
330
40B
100
AcDbEntity
  8
Capa 1
 62
     7
420
 16777215
370
     9
100
AcDbVertex
100
AcDb2dVertex
 10
127.2449462572513
 20
-215.2302733836924
 30
0.0
  0
VERTEX
  5
40D
330
40B
100
AcDbEntity
  8
Capa 1
 62
     7
420
 16777215
370
     9
100
AcDbVertex
100
AcDb2dVertex
 10
127.2449462572513
 20
-226.076812009453
 30
0.0
  0
SEQEND
  5
40E
330
40B
100
AcDbEntity
  8
Capa 1
370
     9
  0
POLYLINE
  5
40F
330
3C
100
AcDbEntity
  8
Capa 1
 62
     7
420
 16777215
370
     9
100
AcDb2dPolyline
 66
     1
 10
0.0
 20
0.0
 30
0.0
  0
VERTEX
  5
410
330
40F
100
AcDbEntity
  8
Capa 1
 62
     7
420
 16777215
370
     9
100
AcDbVertex
100
AcDb2dVertex
 10
122.4235351256441
 20
-218.9196261388465
 30
0.0
  0
VERTEX
  5
411
330
40F
100
AcDbEntity
  8
Capa 1
 62
     7
420
 16777215
370
     9
100
AcDbVertex
100
AcDb2dVertex
 10
122.4235351256441
 20
-217.7155652667517
 30
0.0
  0
SEQEND
  5
412
330
40F
100
AcDbEntity
  8
Capa 1
370
     9
  0
POLYLINE
  5
413
330
3C
100
AcDbEntity
  8
Capa 1
 62
     7
420
 16777215
370
     9
100
AcDb2dPolyline
 66
     1
 10
0.0
 20
0.0
 30
0.0
  0
VERTEX
  5
414
330
413
100
AcDbEntity
  8
Capa 1
 62
     7
420
 16777215
370
     9
100
AcDbVertex
100
AcDb2dVertex
 10
122.4235351256441
 20
-223.7406927609051
 30
0.0
  0
VERTEX
  5
415
330
413
100
AcDbEntity
  8
Capa 1
 62
     7
420
 16777215
370
     9
100
AcDbVertex
100
AcDb2dVertex
 10
122.4235351256441
 20
-222.5338758124221
 30
0.0
  0
SEQEND
  5
416
330
413
100
AcDbEntity
  8
Capa 1
370
     9
  0
POLYLINE
  5
417
330
3C
100
AcDbEntity
  8
Capa 1
 62
     7
420
 16777215
370
     9
100
AcDb2dPolyline
 66
     1
 10
0.0
 20
0.0
 30
0.0
  0
VERTEX
  5
418
330
417
100
AcDbEntity
  8
Capa 1
 62
     7
420
 16777215
370
     9
100
AcDbVertex
100
AcDb2dVertex
 10
122.4235351256441
 20
-223.7406927609051
 30
0.0
  0
VERTEX
  5
419
330
417
100
AcDbEntity
  8
Capa 1
 62
     7
420
 16777215
370
     9
100
AcDbVertex
100
AcDb2dVertex
 10
126.641710037784
 20
-223.7406927609051
 30
0.0
  0
SEQEND
  5
41A
330
417
100
AcDbEntity
  8
Capa 1
370
     9
  0
POLYLINE
  5
41B
330
3C
100
AcDbEntity
  8
Capa 1
 62
     7
420
 16777215
370
     9
100
AcDb2dPolyline
 66
     1
 10
0.0
 20
0.0
 30
0.0
  0
VERTEX
  5
41C
330
41B
100
AcDbEntity
  8
Capa 1
 62
     7
420
 16777215
370
     9
100
AcDbVertex
100
AcDb2dVertex
 10
122.4235351256441
 20
-222.5338758124221
 30
0.0
  0
VERTEX
  5
41D
330
41B
100
AcDbEntity
  8
Capa 1
 62
     7
420
 16777215
370
     9
100
AcDbVertex
100
AcDb2dVertex
 10
126.641710037784
 20
-222.5338758124221
 30
0.0
  0
SEQEND
  5
41E
330
41B
100
AcDbEntity
  8
Capa 1
370
     9
  0
POLYLINE
  5
41F
330
3C
100
AcDbEntity
  8
Capa 1
 62
     7
420
 16777215
370
     9
100
AcDb2dPolyline
 66
     1
 10
0.0
 20
0.0
 30
0.0
  0
VERTEX
  5
420
330
41F
100
AcDbEntity
  8
Capa 1
 62
     7
420
 16777215
370
     9
100
AcDbVertex
100
AcDb2dVertex
 10
122.4235351256441
 20
-218.9196261388465
 30
0.0
  0
VERTEX
  5
421
330
41F
100
AcDbEntity
  8
Capa 1
 62
     7
420
 16777215
370
     9
100
AcDbVertex
100
AcDb2dVertex
 10
126.641710037784
 20
-218.9196261388465
 30
0.0
  0
SEQEND
  5
422
330
41F
100
AcDbEntity
  8
Capa 1
370
     9
  0
POLYLINE
  5
423
330
3C
100
AcDbEntity
  8
Capa 1
 62
     7
420
 16777215
370
     9
100
AcDb2dPolyline
 66
     1
 10
0.0
 20
0.0
 30
0.0
  0
VERTEX
  5
424
330
423
100
AcDbEntity
  8
Capa 1
 62
     7
420
 16777215
370
     9
100
AcDbVertex
100
AcDb2dVertex
 10
122.4235351256441
 20
-217.7155652667517
 30
0.0
  0
VERTEX
  5
425
330
423
100
AcDbEntity
  8
Capa 1
 62
     7
420
 16777215
370
     9
100
AcDbVertex
100
AcDb2dVertex
 10
126.641710037784
 20
-217.7155652667517
 30
0.0
  0
SEQEND
  5
426
330
423
100
AcDbEntity
  8
Capa 1
370
     9
  0
POLYLINE
  5
427
330
3C
100
AcDbEntity
  8
Capa 1
 62
     7
420
 16777215
370
     9
100
AcDb2dPolyline
 66
     1
 10
0.0
 20
0.0
 30
0.0
  0
VERTEX
  5
428
330
427
100
AcDbEntity
  8
Capa 1
 62
     7
420
 16777215
370
     9
100
AcDbVertex
100
AcDb2dVertex
 10
121.6194498393868
 20
-225.6754583854214
 30
0.0
  0
VERTEX
  5
429
330
427
100
AcDbEntity
  8
Capa 1
 62
     7
420
 16777215
370
     9
100
AcDbVertex
100
AcDb2dVertex
 10
126.641710037784
 20
-225.6754583854214
 30
0.0
  0
SEQEND
  5
42A
330
427
100
AcDbEntity
  8
Capa 1
370
     9
  0
POLYLINE
  5
42B
330
3C
100
AcDbEntity
  8
Capa 1
 62
     7
420
 16777215
370
     9
100
AcDb2dPolyline
 66
     1
 10
0.0
 20
0.0
 30
0.0
  0
VERTEX
  5
42C
330
42B
100
AcDbEntity
  8
Capa 1
 62
     7
420
 16777215
370
     9
100
AcDbVertex
100
AcDb2dVertex
 10
121.6194498393868
 20
-215.631627007724
 30
0.0
  0
VERTEX
  5
42D
330
42B
100
AcDbEntity
  8
Capa 1
 62
     7
420
 16777215
370
     9
100
AcDbVertex
100
AcDb2dVertex
 10
126.641710037784
 20
-215.631627007724
 30
0.0
  0
SEQEND
  5
42E
330
42B
100
AcDbEntity
  8
Capa 1
370
     9
  0
POLYLINE
  5
42F
330
3C
100
AcDbEntity
  8
Capa 1
 62
     7
420
 16777215
370
     9
100
AcDb2dPolyline
 66
     1
 10
0.0
 20
0.0
 30
0.0
  0
VERTEX
  5
430
330
42F
100
AcDbEntity
  8
Capa 1
 62
     7
420
 16777215
370
     9
100
AcDbVertex
100
AcDb2dVertex
 10
121.6194498393868
 20
-215.631627007724
 30
0.0
  0
VERTEX
  5
431
330
42F
100
AcDbEntity
  8
Capa 1
 62
     7
420
 16777215
370
     9
100
AcDbVertex
100
AcDb2dVertex
 10
121.6194498393868
 20
-225.6754583854214
 30
0.0
  0
SEQEND
  5
432
330
42F
100
AcDbEntity
  8
Capa 1
370
     9
  0
POLYLINE
  5
433
330
3C
100
AcDbEntity
  8
Capa 1
 62
     7
420
 16777215
370
     9
100
AcDb2dPolyline
 66
     1
 10
0.0
 20
0.0
 30
0.0
  0
VERTEX
  5
434
330
433
100
AcDbEntity
  8
Capa 1
 62
     7
420
 16777215
370
     9
100
AcDbVertex
100
AcDb2dVertex
 10
126.641710037784
 20
-225.6754583854214
 30
0.0
  0
VERTEX
  5
435
330
433
100
AcDbEntity
  8
Capa 1
 62
     7
420
 16777215
370
     9
100
AcDbVertex
100
AcDb2dVertex
 10
126.641710037784
 20
-226.076812009453
 30
0.0
  0
SEQEND
  5
436
330
433
100
AcDbEntity
  8
Capa 1
370
     9
  0
POLYLINE
  5
437
330
3C
100
AcDbEntity
  8
Capa 1
 62
     7
420
 16777215
370
     9
100
AcDb2dPolyline
 66
     1
 10
0.0
 20
0.0
 30
0.0
  0
VERTEX
  5
438
330
437
100
AcDbEntity
  8
Capa 1
 62
     7
420
 16777215
370
     9
100
AcDbVertex
100
AcDb2dVertex
 10
126.641710037784
 20
-226.076812009453
 30
0.0
  0
VERTEX
  5
439
330
437
100
AcDbEntity
  8
Capa 1
 62
     7
420
 16777215
370
     9
100
AcDbVertex
100
AcDb2dVertex
 10
127.2449462572513
 20
-226.076812009453
 30
0.0
  0
SEQEND
  5
43A
330
437
100
AcDbEntity
  8
Capa 1
370
     9
  0
POLYLINE
  5
43B
330
3C
100
AcDbEntity
  8
Capa 1
 62
     7
420
 16777215
370
     9
100
AcDb2dPolyline
 66
     1
 10
0.0
 20
0.0
 30
0.0
  0
VERTEX
  5
43C
330
43B
100
AcDbEntity
  8
Capa 1
 62
     7
420
 16777215
370
     9
100
AcDbVertex
100
AcDb2dVertex
 10
126.641710037784
 20
-215.2302733836924
 30
0.0
  0
VERTEX
  5
43D
330
43B
100
AcDbEntity
  8
Capa 1
 62
     7
420
 16777215
370
     9
100
AcDbVertex
100
AcDb2dVertex
 10
127.2449462572513
 20
-215.2302733836924
 30
0.0
  0
SEQEND
  5
43E
330
43B
100
AcDbEntity
  8
Capa 1
370
     9
  0
POLYLINE
  5
43F
330
3C
100
AcDbEntity
  8
Capa 1
 62
     7
420
 16777215
370
     9
100
AcDb2dPolyline
 66
     1
 10
0.0
 20
0.0
 30
0.0
  0
VERTEX
  5
440
330
43F
100
AcDbEntity
  8
Capa 1
 62
     7
420
 16777215
370
     9
100
AcDbVertex
100
AcDb2dVertex
 10
127.2449462572513
 20
-215.2302733836924
 30
0.0
  0
VERTEX
  5
441
330
43F
100
AcDbEntity
  8
Capa 1
 62
     7
420
 16777215
370
     9
100
AcDbVertex
100
AcDb2dVertex
 10
127.2449462572513
 20
-226.076812009453
 30
0.0
  0
SEQEND
  5
442
330
43F
100
AcDbEntity
  8
Capa 1
370
     9
  0
POLYLINE
  5
443
330
3C
100
AcDbEntity
  8
Capa 1
 62
     7
420
 16777215
370
     9
100
AcDb2dPolyline
 66
     1
 10
0.0
 20
0.0
 30
0.0
  0
VERTEX
  5
444
330
443
100
AcDbEntity
  8
Capa 1
 62
     7
420
 16777215
370
     9
100
AcDbVertex
100
AcDb2dVertex
 10
101.7214395904551
 20
-221.6595105782657
 30
0.0
  0
VERTEX
  5
445
330
443
100
AcDbEntity
  8
Capa 1
 62
     7
420
 16777215
370
     9
100
AcDbVertex
100
AcDb2dVertex
 10
105.6676242140345
 20
-221.6595105782657
 30
0.0
  0
SEQEND
  5
446
330
443
100
AcDbEntity
  8
Capa 1
370
     9
  0
POLYLINE
  5
447
330
3C
100
AcDbEntity
  8
Capa 1
 62
     7
420
 16777215
370
     9
100
AcDb2dPolyline
 66
     1
 10
0.0
 20
0.0
 30
0.0
  0
VERTEX
  5
448
330
447
100
AcDbEntity
  8
Capa 1
 62
     7
420
 16777215
370
     9
100
AcDbVertex
100
AcDb2dVertex
 10
101.7214395904551
 20
-219.6499863817195
 30
0.0
  0
VERTEX
  5
449
330
447
100
AcDbEntity
  8
Capa 1
 62
     7
420
 16777215
370
     9
100
AcDbVertex
100
AcDb2dVertex
 10
105.2114935717874
 20
-219.6499863817195
 30
0.0
  0
SEQEND
  5
44A
330
447
100
AcDbEntity
  8
Capa 1
370
     9
  0
SPLINE
  5
44B
330
3C
100
AcDbEntity
  8
Capa 1
 62
     7
420
 16777215
370
     9
100
AcDbSpline
210
0.0
220
0.0
230
1.0
 70
     8
 71
     3
 72
     8
 73
     4
 74
     0
 42
0.0000000001
 43
0.0000000001
 40
0.0
 40
0.0
 40
0.0
 40
0.0
 40
1.0
 40
1.0
 40
1.0
 40
1.0
 10
135.0925292631019
 20
-221.540310274476
 30
0.0
 10
135.3750270928924
 20
-219.9049234476279
 30
0.0
 10
134.8613633560416
 20
-218.2357746850244
 30
0.0
 10
133.7127685212593
 20
-217.0375704752545
 30
0.0
  0
SPLINE
  5
44C
330
3C
100
AcDbEntity
  8
Capa 1
 62
     7
420
 16777215
370
     9
100
AcDbSpline
210
0.0
220
0.0
230
1.0
 70
     8
 71
     3
 72
     8
 73
     4
 74
     0
 42
0.0000000001
 43
0.0000000001
 40
0.0
 40
0.0
 40
0.0
 40
0.0
 40
1.0
 40
1.0
 40
1.0
 40
1.0
 10
133.7127685212593
 20
-224.269514917891
 30
0.0
 10
134.177856411768
 20
-223.7851344926648
 30
0.0
 10
134.5461371191413
 20
-223.214971189856
 30
0.0
 10
134.7952175227248
 20
-222.5920979261228
 30
0.0
  0
POLYLINE
  5
44D
330
3C
100
AcDbEntity
  8
Capa 1
 62
     7
420
 16777215
370
     9
100
AcDb2dPolyline
 66
     1
 10
0.0
 20
0.0
 30
0.0
  0
VERTEX
  5
44E
330
44D
100
AcDbEntity
  8
Capa 1
 62
     7
420
 16777215
370
     9
100
AcDbVertex
100
AcDb2dVertex
 10
133.7127685212593
 20
-224.269514917891
 30
0.0
  0
VERTEX
  5
44F
330
44D
100
AcDbEntity
  8
Capa 1
 62
     7
420
 16777215
370
     9
100
AcDbVertex
100
AcDb2dVertex
 10
133.7127685212593
 20
-225.8745849044689
 30
0.0
  0
SEQEND
  5
450
330
44D
100
AcDbEntity
  8
Capa 1
370
     9
  0
POLYLINE
  5
451
330
3C
100
AcDbEntity
  8
Capa 1
 62
     7
420
 16777215
370
     9
100
AcDb2dPolyline
 66
     1
 10
0.0
 20
0.0
 30
0.0
  0
VERTEX
  5
452
330
451
100
AcDbEntity
  8
Capa 1
 62
     7
420
 16777215
370
     9
100
AcDbVertex
100
AcDb2dVertex
 10
127.2835313266861
 20
-217.0375704752545
 30
0.0
  0
VERTEX
  5
453
330
451
100
AcDbEntity
  8
Capa 1
 62
     7
420
 16777215
370
     9
100
AcDbVertex
100
AcDb2dVertex
 10
133.7127685212593
 20
-217.0375704752545
 30
0.0
  0
SEQEND
  5
454
330
451
100
AcDbEntity
  8
Capa 1
370
     9
  0
POLYLINE
  5
455
330
3C
100
AcDbEntity
  8
Capa 1
 62
     7
420
 16777215
370
     9
100
AcDb2dPolyline
 66
     1
 10
0.0
 20
0.0
 30
0.0
  0
VERTEX
  5
456
330
455
100
AcDbEntity
  8
Capa 1
 62
     7
420
 16777215
370
     9
100
AcDbVertex
100
AcDb2dVertex
 10
127.2835313266861
 20
-224.269514917891
 30
0.0
  0
VERTEX
  5
457
330
455
100
AcDbEntity
  8
Capa 1
 62
     7
420
 16777215
370
     9
100
AcDbVertex
100
AcDb2dVertex
 10
133.7127685212593
 20
-224.269514917891
 30
0.0
  0
SEQEND
  5
458
330
455
100
AcDbEntity
  8
Capa 1
370
     9
  0
POLYLINE
  5
459
330
3C
100
AcDbEntity
  8
Capa 1
 62
     7
420
 16777215
370
     9
100
AcDb2dPolyline
 66
     1
 10
0.0
 20
0.0
 30
0.0
  0
VERTEX
  5
45A
330
459
100
AcDbEntity
  8
Capa 1
 62
     7
420
 16777215
370
     9
100
AcDbVertex
100
AcDb2dVertex
 10
135.1187119887898
 20
-225.8745849044689
 30
0.0
  0
VERTEX
  5
45B
330
459
100
AcDbEntity
  8
Capa 1
 62
     7
420
 16777215
370
     9
100
AcDbVertex
100
AcDb2dVertex
 10
135.1187119887898
 20
-231.9024684750105
 30
0.0
  0
SEQEND
  5
45C
330
459
100
AcDbEntity
  8
Capa 1
370
     9
  0
POLYLINE
  5
45D
330
3C
100
AcDbEntity
  8
Capa 1
 62
     7
420
 16777215
370
     9
100
AcDb2dPolyline
 66
     1
 10
0.0
 20
0.0
 30
0.0
  0
VERTEX
  5
45E
330
45D
100
AcDbEntity
  8
Capa 1
 62
     7
420
 16777215
370
     9
100
AcDbVertex
100
AcDb2dVertex
 10
151.1880153701891
 20
-225.8745849044689
 30
0.0
  0
VERTEX
  5
45F
330
45D
100
AcDbEntity
  8
Capa 1
 62
     7
420
 16777215
370
     9
100
AcDbVertex
100
AcDb2dVertex
 10
151.1880153701891
 20
-231.9024684750105
 30
0.0
  0
SEQEND
  5
460
330
45D
100
AcDbEntity
  8
Capa 1
370
     9
  0
POLYLINE
  5
461
330
3C
100
AcDbEntity
  8
Capa 1
 62
     7
420
 16777215
370
     9
100
AcDb2dPolyline
 66
     1
 10
0.0
 20
0.0
 30
0.0
  0
VERTEX
  5
462
330
461
100
AcDbEntity
  8
Capa 1
 62
     7
420
 16777215
370
     9
100
AcDbVertex
100
AcDb2dVertex
 10
135.1187119887898
 20
-231.9024684750105
 30
0.0
  0
VERTEX
  5
463
330
461
100
AcDbEntity
  8
Capa 1
 62
     7
420
 16777215
370
     9
100
AcDbVertex
100
AcDb2dVertex
 10
151.1880153701891
 20
-231.9024684750105
 30
0.0
  0
SEQEND
  5
464
330
461
100
AcDbEntity
  8
Capa 1
370
     9
  0
POLYLINE
  5
465
330
3C
100
AcDbEntity
  8
Capa 1
 62
     7
420
 16777215
370
     9
100
AcDb2dPolyline
 66
     1
 10
0.0
 20
0.0
 30
0.0
  0
VERTEX
  5
466
330
465
100
AcDbEntity
  8
Capa 1
 62
     7
420
 16777215
370
     9
100
AcDbVertex
100
AcDb2dVertex
 10
133.7127685212593
 20
-225.8745849044689
 30
0.0
  0
VERTEX
  5
467
330
465
100
AcDbEntity
  8
Capa 1
 62
     7
420
 16777215
370
     9
100
AcDbVertex
100
AcDb2dVertex
 10
152.5939588377196
 20
-225.8745849044689
 30
0.0
  0
SEQEND
  5
468
330
465
100
AcDbEntity
  8
Capa 1
370
     9
  0
POLYLINE
  5
469
330
3C
100
AcDbEntity
  8
Capa 1
 62
     7
420
 16777215
370
     9
100
AcDb2dPolyline
 66
     1
 10
0.0
 20
0.0
 30
0.0
  0
VERTEX
  5
46A
330
469
100
AcDbEntity
  8
Capa 1
 62
     7
420
 16777215
370
     9
100
AcDbVertex
100
AcDb2dVertex
 10
133.7127685212593
 20
-210.6083332806813
 30
0.0
  0
VERTEX
  5
46B
330
469
100
AcDbEntity
  8
Capa 1
 62
     7
420
 16777215
370
     9
100
AcDbVertex
100
AcDb2dVertex
 10
133.7127685212593
 20
-217.0375704752545
 30
0.0
  0
SEQEND
  5
46C
330
469
100
AcDbEntity
  8
Capa 1
370
     9
  0
POLYLINE
  5
46D
330
3C
100
AcDbEntity
  8
Capa 1
 62
     7
420
 16777215
370
     9
100
AcDb2dPolyline
 66
     1
 10
0.0
 20
0.0
 30
0.0
  0
VERTEX
  5
46E
330
46D
100
AcDbEntity
  8
Capa 1
 62
     7
420
 16777215
370
     9
100
AcDbVertex
100
AcDb2dVertex
 10
152.5939588377196
 20
-210.6083332806813
 30
0.0
  0
VERTEX
  5
46F
330
46D
100
AcDbEntity
  8
Capa 1
 62
     7
420
 16777215
370
     9
100
AcDbVertex
100
AcDb2dVertex
 10
152.5939588377196
 20
-225.8745849044689
 30
0.0
  0
SEQEND
  5
470
330
46D
100
AcDbEntity
  8
Capa 1
370
     9
  0
SPLINE
  5
471
330
3C
100
AcDbEntity
  8
Capa 1
 62
     7
420
 16777215
370
     9
100
AcDbSpline
210
0.0
220
0.0
230
1.0
 70
     8
 71
     3
 72
    11
 73
     7
 74
     0
 42
0.0000000001
 43
0.0000000001
 40
0.0
 40
0.0
 40
0.0
 40
0.0
 40
1.0
 40
1.0
 40
1.0
 40
2.0
 40
2.0
 40
2.0
 40
2.0
 10
132.1049424582932
 20
-207.7961018360718
 30
0.0
 10
131.3270398977238
 20
-207.7961018360718
 30
0.0
 10
130.6989989907628
 20
-208.4272433289696
 30
0.0
 10
130.6989989907628
 20
-209.205145889539
 30
0.0
 10
130.6989989907628
 20
-209.9799478641717
 30
0.0
 10
131.3270398977238
 20
-210.6083332806813
 30
0.0
 10
132.1049424582932
 20
-210.6083332806813
 30
0.0
  0
SPLINE
  5
472
330
3C
100
AcDbEntity
  8
Capa 1
 62
     7
420
 16777215
370
     9
100
AcDbSpline
210
0.0
220
0.0
230
1.0
 70
     8
 71
     3
 72
    11
 73
     7
 74
     0
 42
0.0000000001
 43
0.0000000001
 40
0.0
 40
0.0
 40
0.0
 40
0.0
 40
1.0
 40
1.0
 40
1.0
 40
2.0
 40
2.0
 40
2.0
 40
2.0
 10
154.2017849006857
 20
-210.6083332806813
 30
0.0
 10
154.978309423061
 20
-210.6083332806813
 30
0.0
 10
155.6077283682161
 20
-209.9799478641717
 30
0.0
 10
155.6077283682161
 20
-209.205145889539
 30
0.0
 10
155.6077283682161
 20
-208.4272433289696
 30
0.0
 10
154.978309423061
 20
-207.7961018360718
 30
0.0
 10
154.2017849006857
 20
-207.7961018360718
 30
0.0
  0
POLYLINE
  5
473
330
3C
100
AcDbEntity
  8
Capa 1
 62
     7
420
 16777215
370
     9
100
AcDb2dPolyline
 66
     1
 10
0.0
 20
0.0
 30
0.0
  0
VERTEX
  5
474
330
473
100
AcDbEntity
  8
Capa 1
 62
     7
420
 16777215
370
     9
100
AcDbVertex
100
AcDb2dVertex
 10
132.1049424582932
 20
-210.6083332806813
 30
0.0
  0
VERTEX
  5
475
330
473
100
AcDbEntity
  8
Capa 1
 62
     7
420
 16777215
370
     9
100
AcDbVertex
100
AcDb2dVertex
 10
154.2017849006857
 20
-210.6083332806813
 30
0.0
  0
SEQEND
  5
476
330
473
100
AcDbEntity
  8
Capa 1
370
     9
  0
POLYLINE
  5
477
330
3C
100
AcDbEntity
  8
Capa 1
 62
     7
420
 16777215
370
     9
100
AcDb2dPolyline
 66
     1
 10
0.0
 20
0.0
 30
0.0
  0
VERTEX
  5
478
330
477
100
AcDbEntity
  8
Capa 1
 62
     7
420
 16777215
370
     9
100
AcDbVertex
100
AcDb2dVertex
 10
135.1187119887898
 20
-198.9590874068575
 30
0.0
  0
VERTEX
  5
479
330
477
100
AcDbEntity
  8
Capa 1
 62
     7
420
 16777215
370
     9
100
AcDbVertex
100
AcDb2dVertex
 10
135.1187119887898
 20
-207.7961018360718
 30
0.0
  0
SEQEND
  5
47A
330
477
100
AcDbEntity
  8
Capa 1
370
     9
  0
POLYLINE
  5
47B
330
3C
100
AcDbEntity
  8
Capa 1
 62
     7
420
 16777215
370
     9
100
AcDb2dPolyline
 66
     1
 10
0.0
 20
0.0
 30
0.0
  0
VERTEX
  5
47C
330
47B
100
AcDbEntity
  8
Capa 1
 62
     7
420
 16777215
370
     9
100
AcDbVertex
100
AcDb2dVertex
 10
151.1880153701891
 20
-198.9590874068575
 30
0.0
  0
VERTEX
  5
47D
330
47B
100
AcDbEntity
  8
Capa 1
 62
     7
420
 16777215
370
     9
100
AcDbVertex
100
AcDb2dVertex
 10
151.1880153701891
 20
-207.7961018360718
 30
0.0
  0
SEQEND
  5
47E
330
47B
100
AcDbEntity
  8
Capa 1
370
     9
  0
POLYLINE
  5
47F
330
3C
100
AcDbEntity
  8
Capa 1
 62
     7
420
 16777215
370
     9
100
AcDb2dPolyline
 66
     1
 10
0.0
 20
0.0
 30
0.0
  0
VERTEX
  5
480
330
47F
100
AcDbEntity
  8
Capa 1
 62
     7
420
 16777215
370
     9
100
AcDbVertex
100
AcDb2dVertex
 10
132.1049424582932
 20
-207.7961018360718
 30
0.0
  0
VERTEX
  5
481
330
47F
100
AcDbEntity
  8
Capa 1
 62
     7
420
 16777215
370
     9
100
AcDbVertex
100
AcDb2dVertex
 10
154.2017849006857
 20
-207.7961018360718
 30
0.0
  0
SEQEND
  5
482
330
47F
100
AcDbEntity
  8
Capa 1
370
     9
  0
POLYLINE
  5
483
330
3C
100
AcDbEntity
  8
Capa 1
 62
     7
420
 16777215
370
     9
100
AcDb2dPolyline
 66
     1
 10
0.0
 20
0.0
 30
0.0
  0
VERTEX
  5
484
330
483
100
AcDbEntity
  8
Capa 1
 62
     7
420
 16777215
370
     9
100
AcDbVertex
100
AcDb2dVertex
 10
134.314971212081
 20
-198.9590874068575
 30
0.0
  0
VERTEX
  5
485
330
483
100
AcDbEntity
  8
Capa 1
 62
     7
420
 16777215
370
     9
100
AcDbVertex
100
AcDb2dVertex
 10
130.4967718857786
 20
-193.3325574603474
 30
0.0
  0
SEQEND
  5
486
330
483
100
AcDbEntity
  8
Capa 1
370
     9
  0
POLYLINE
  5
487
330
3C
100
AcDbEntity
  8
Capa 1
 62
     7
420
 16777215
370
     9
100
AcDb2dPolyline
 66
     1
 10
0.0
 20
0.0
 30
0.0
  0
VERTEX
  5
488
330
487
100
AcDbEntity
  8
Capa 1
 62
     7
420
 16777215
370
     9
100
AcDbVertex
100
AcDb2dVertex
 10
151.9903781087038
 20
-198.9590874068575
 30
0.0
  0
VERTEX
  5
489
330
487
100
AcDbEntity
  8
Capa 1
 62
     7
420
 16777215
370
     9
100
AcDbVertex
100
AcDb2dVertex
 10
155.8099554732003
 20
-193.3325574603474
 30
0.0
  0
SEQEND
  5
48A
330
487
100
AcDbEntity
  8
Capa 1
370
     9
  0
POLYLINE
  5
48B
330
3C
100
AcDbEntity
  8
Capa 1
 62
     7
420
 16777215
370
     9
100
AcDb2dPolyline
 66
     1
 10
0.0
 20
0.0
 30
0.0
  0
VERTEX
  5
48C
330
48B
100
AcDbEntity
  8
Capa 1
 62
     7
420
 16777215
370
     9
100
AcDbVertex
100
AcDb2dVertex
 10
134.314971212081
 20
-198.9590874068575
 30
0.0
  0
VERTEX
  5
48D
330
48B
100
AcDbEntity
  8
Capa 1
 62
     7
420
 16777215
370
     9
100
AcDbVertex
100
AcDb2dVertex
 10
151.9903781087038
 20
-198.9590874068575
 30
0.0
  0
SEQEND
  5
48E
330
48B
100
AcDbEntity
  8
Capa 1
370
     9
  0
POLYLINE
  5
48F
330
3C
100
AcDbEntity
  8
Capa 1
 62
     7
420
 16777215
370
     9
100
AcDb2dPolyline
 66
     1
 10
0.0
 20
0.0
 30
0.0
  0
VERTEX
  5
490
330
48F
100
AcDbEntity
  8
Capa 1
 62
     7
420
 16777215
370
     9
100
AcDbVertex
100
AcDb2dVertex
 10
130.4967718857786
 20
-193.3325574603474
 30
0.0
  0
VERTEX
  5
491
330
48F
100
AcDbEntity
  8
Capa 1
 62
     7
420
 16777215
370
     9
100
AcDbVertex
100
AcDb2dVertex
 10
155.8099554732003
 20
-193.3325574603474
 30
0.0
  0
SEQEND
  5
492
330
48F
100
AcDbEntity
  8
Capa 1
370
     9
  0
SPLINE
  5
493
330
3C
100
AcDbEntity
  8
Capa 1
 62
     7
420
 16777215
370
     9
100
AcDbSpline
210
0.0
220
0.0
230
1.0
 70
     8
 71
     3
 72
     8
 73
     4
 74
     0
 42
0.0000000001
 43
0.0000000001
 40
0.0
 40
0.0
 40
0.0
 40
0.0
 40
1.0
 40
1.0
 40
1.0
 40
1.0
 10
136.3241508990787
 20
-206.5923854735255
 30
0.0
 10
136.3241508990787
 20
-206.8139051132271
 30
0.0
 10
136.5039848834087
 20
-206.9937390975571
 30
0.0
 10
136.7241264849162
 20
-206.9937390975571
 30
0.0
  0
SPLINE
  5
494
330
3C
100
AcDbEntity
  8
Capa 1
 62
     7
420
 16777215
370
     9
100
AcDbSpline
210
0.0
220
0.0
230
1.0
 70
     8
 71
     3
 72
     8
 73
     4
 74
     0
 42
0.0000000001
 43
0.0000000001
 40
0.0
 40
0.0
 40
0.0
 40
0.0
 40
1.0
 40
1.0
 40
1.0
 40
1.0
 10
139.5387694963653
 20
-206.9937390975571
 30
0.0
 10
139.7602891360669
 20
-206.9937390975571
 30
0.0
 10
139.9387450822028
 20
-206.8139051132271
 30
0.0
 10
139.9387450822028
 20
-206.5923854735255
 30
0.0
  0
SPLINE
  5
495
330
3C
100
AcDbEntity
  8
Capa 1
 62
     7
420
 16777215
370
     9
100
AcDbSpline
210
0.0
220
0.0
230
1.0
 70
     8
 71
     3
 72
     8
 73
     4
 74
     0
 42
0.0000000001
 43
0.0000000001
 40
0.0
 40
0.0
 40
0.0
 40
0.0
 40
1.0
 40
1.0
 40
1.0
 40
1.0
 10
139.9387450822028
 20
-202.5736815899816
 30
0.0
 10
139.9387450822028
 20
-202.35216195028
 30
0.0
 10
139.7602891360669
 20
-202.17232796595
 30
0.0
 10
139.5387694963653
 20
-202.17232796595
 30
0.0
  0
SPLINE
  5
496
330
3C
100
AcDbEntity
  8
Capa 1
 62
     7
420
 16777215
370
     9
100
AcDbSpline
210
0.0
220
0.0
230
1.0
 70
     8
 71
     3
 72
     8
 73
     4
 74
     0
 42
0.0000000001
 43
0.0000000001
 40
0.0
 40
0.0
 40
0.0
 40
0.0
 40
1.0
 40
1.0
 40
1.0
 40
1.0
 10
136.7241264849162
 20
-202.17232796595
 30
0.0
 10
136.5039848834087
 20
-202.17232796595
 30
0.0
 10
136.3241508990787
 20
-202.35216195028
 30
0.0
 10
136.3241508990787
 20
-202.5736815899816
 30
0.0
  0
POLYLINE
  5
497
330
3C
100
AcDbEntity
  8
Capa 1
 62
     7
420
 16777215
370
     9
100
AcDb2dPolyline
 66
     1
 10
0.0
 20
0.0
 30
0.0
  0
VERTEX
  5
498
330
497
100
AcDbEntity
  8
Capa 1
 62
     7
420
 16777215
370
     9
100
AcDbVertex
100
AcDb2dVertex
 10
136.7241264849162
 20
-202.17232796595
 30
0.0
  0
VERTEX
  5
499
330
497
100
AcDbEntity
  8
Capa 1
 62
     7
420
 16777215
370
     9
100
AcDbVertex
100
AcDb2dVertex
 10
139.5387694963653
 20
-202.17232796595
 30
0.0
  0
SEQEND
  5
49A
330
497
100
AcDbEntity
  8
Capa 1
370
     9
  0
POLYLINE
  5
49B
330
3C
100
AcDbEntity
  8
Capa 1
 62
     7
420
 16777215
370
     9
100
AcDb2dPolyline
 66
     1
 10
0.0
 20
0.0
 30
0.0
  0
VERTEX
  5
49C
330
49B
100
AcDbEntity
  8
Capa 1
 62
     7
420
 16777215
370
     9
100
AcDbVertex
100
AcDb2dVertex
 10
136.7241264849162
 20
-206.9937390975571
 30
0.0
  0
VERTEX
  5
49D
330
49B
100
AcDbEntity
  8
Capa 1
 62
     7
420
 16777215
370
     9
100
AcDbVertex
100
AcDb2dVertex
 10
139.5387694963653
 20
-206.9937390975571
 30
0.0
  0
SEQEND
  5
49E
330
49B
100
AcDbEntity
  8
Capa 1
370
     9
  0
SPLINE
  5
49F
330
3C
100
AcDbEntity
  8
Capa 1
 62
     7
420
 16777215
370
     9
100
AcDbSpline
210
0.0
220
0.0
230
1.0
 70
     8
 71
     3
 72
     8
 73
     4
 74
     0
 42
0.0000000001
 43
0.0000000001
 40
0.0
 40
0.0
 40
0.0
 40
0.0
 40
1.0
 40
1.0
 40
1.0
 40
1.0
 10
149.5826008740627
 20
-206.9937390975571
 30
0.0
 10
149.8027424755701
 20
-206.9937390975571
 30
0.0
 10
149.9825764599002
 20
-206.8139051132271
 30
0.0
 10
149.9825764599002
 20
-206.5923854735255
 30
0.0
  0
SPLINE
  5
4A0
330
3C
100
AcDbEntity
  8
Capa 1
 62
     7
420
 16777215
370
     9
100
AcDbSpline
210
0.0
220
0.0
230
1.0
 70
     8
 71
     3
 72
     8
 73
     4
 74
     0
 42
0.0000000001
 43
0.0000000001
 40
0.0
 40
0.0
 40
0.0
 40
0.0
 40
1.0
 40
1.0
 40
1.0
 40
1.0
 10
146.3679822767761
 20
-206.5923854735255
 30
0.0
 10
146.3679822767761
 20
-206.8139051132271
 30
0.0
 10
146.5478162611061
 20
-206.9937390975571
 30
0.0
 10
146.7679578626136
 20
-206.9937390975571
 30
0.0
  0
SPLINE
  5
4A1
330
3C
100
AcDbEntity
  8
Capa 1
 62
     7
420
 16777215
370
     9
100
AcDbSpline
210
0.0
220
0.0
230
1.0
 70
     8
 71
     3
 72
     8
 73
     4
 74
     0
 42
0.0000000001
 43
0.0000000001
 40
0.0
 40
0.0
 40
0.0
 40
0.0
 40
1.0
 40
1.0
 40
1.0
 40
1.0
 10
146.7679578626136
 20
-202.17232796595
 30
0.0
 10
146.5478162611061
 20
-202.17232796595
 30
0.0
 10
146.3679822767761
 20
-202.35216195028
 30
0.0
 10
146.3679822767761
 20
-202.5736815899816
 30
0.0
  0
SPLINE
  5
4A2
330
3C
100
AcDbEntity
  8
Capa 1
 62
     7
420
 16777215
370
     9
100
AcDbSpline
210
0.0
220
0.0
230
1.0
 70
     8
 71
     3
 72
     8
 73
     4
 74
     0
 42
0.0000000001
 43
0.0000000001
 40
0.0
 40
0.0
 40
0.0
 40
0.0
 40
1.0
 40
1.0
 40
1.0
 40
1.0
 10
149.9825764599002
 20
-202.5736815899816
 30
0.0
 10
149.9825764599002
 20
-202.35216195028
 30
0.0
 10
149.8027424755701
 20
-202.17232796595
 30
0.0
 10
149.5826008740627
 20
-202.17232796595
 30
0.0
  0
POLYLINE
  5
4A3
330
3C
100
AcDbEntity
  8
Capa 1
 62
     7
420
 16777215
370
     9
100
AcDb2dPolyline
 66
     1
 10
0.0
 20
0.0
 30
0.0
  0
VERTEX
  5
4A4
330
4A3
100
AcDbEntity
  8
Capa 1
 62
     7
420
 16777215
370
     9
100
AcDbVertex
100
AcDb2dVertex
 10
146.7679578626136
 20
-202.17232796595
 30
0.0
  0
VERTEX
  5
4A5
330
4A3
100
AcDbEntity
  8
Capa 1
 62
     7
420
 16777215
370
     9
100
AcDbVertex
100
AcDb2dVertex
 10
149.5826008740627
 20
-202.17232796595
 30
0.0
  0
SEQEND
  5
4A6
330
4A3
100
AcDbEntity
  8
Capa 1
370
     9
  0
POLYLINE
  5
4A7
330
3C
100
AcDbEntity
  8
Capa 1
 62
     7
420
 16777215
370
     9
100
AcDb2dPolyline
 66
     1
 10
0.0
 20
0.0
 30
0.0
  0
VERTEX
  5
4A8
330
4A7
100
AcDbEntity
  8
Capa 1
 62
     7
420
 16777215
370
     9
100
AcDbVertex
100
AcDb2dVertex
 10
146.7679578626136
 20
-206.9937390975571
 30
0.0
  0
VERTEX
  5
4A9
330
4A7
100
AcDbEntity
  8
Capa 1
 62
     7
420
 16777215
370
     9
100
AcDbVertex
100
AcDb2dVertex
 10
149.5826008740627
 20
-206.9937390975571
 30
0.0
  0
SEQEND
  5
4AA
330
4A7
100
AcDbEntity
  8
Capa 1
370
     9
  0
POLYLINE
  5
4AB
330
3C
100
AcDbEntity
  8
Capa 1
 62
     7
420
 16777215
370
     9
100
AcDb2dPolyline
 66
     1
 10
0.0
 20
0.0
 30
0.0
  0
VERTEX
  5
4AC
330
4AB
100
AcDbEntity
  8
Capa 1
 62
     7
420
 16777215
370
     9
100
AcDbVertex
100
AcDb2dVertex
 10
139.9387450822028
 20
-202.5736815899816
 30
0.0
  0
VERTEX
  5
4AD
330
4AB
100
AcDbEntity
  8
Capa 1
 62
     7
420
 16777215
370
     9
100
AcDbVertex
100
AcDb2dVertex
 10
139.9387450822028
 20
-206.5923854735255
 30
0.0
  0
SEQEND
  5
4AE
330
4AB
100
AcDbEntity
  8
Capa 1
370
     9
  0
POLYLINE
  5
4AF
330
3C
100
AcDbEntity
  8
Capa 1
 62
     7
420
 16777215
370
     9
100
AcDb2dPolyline
 66
     1
 10
0.0
 20
0.0
 30
0.0
  0
VERTEX
  5
4B0
330
4AF
100
AcDbEntity
  8
Capa 1
 62
     7
420
 16777215
370
     9
100
AcDbVertex
100
AcDb2dVertex
 10
146.3679822767761
 20
-202.5736815899816
 30
0.0
  0
VERTEX
  5
4B1
330
4AF
100
AcDbEntity
  8
Capa 1
 62
     7
420
 16777215
370
     9
100
AcDbVertex
100
AcDb2dVertex
 10
146.3679822767761
 20
-206.5923854735255
 30
0.0
  0
SEQEND
  5
4B2
330
4AF
100
AcDbEntity
  8
Capa 1
370
     9
  0
POLYLINE
  5
4B3
330
3C
100
AcDbEntity
  8
Capa 1
 62
     7
420
 16777215
370
     9
100
AcDb2dPolyline
 66
     1
 10
0.0
 20
0.0
 30
0.0
  0
VERTEX
  5
4B4
330
4B3
100
AcDbEntity
  8
Capa 1
 62
     7
420
 16777215
370
     9
100
AcDbVertex
100
AcDb2dVertex
 10
136.3241508990787
 20
-202.5736815899816
 30
0.0
  0
VERTEX
  5
4B5
330
4B3
100
AcDbEntity
  8
Capa 1
 62
     7
420
 16777215
370
     9
100
AcDbVertex
100
AcDb2dVertex
 10
136.3241508990787
 20
-206.5923854735255
 30
0.0
  0
SEQEND
  5
4B6
330
4B3
100
AcDbEntity
  8
Capa 1
370
     9
  0
POLYLINE
  5
4B7
330
3C
100
AcDbEntity
  8
Capa 1
 62
     7
420
 16777215
370
     9
100
AcDb2dPolyline
 66
     1
 10
0.0
 20
0.0
 30
0.0
  0
VERTEX
  5
4B8
330
4B7
100
AcDbEntity
  8
Capa 1
 62
     7
420
 16777215
370
     9
100
AcDbVertex
100
AcDb2dVertex
 10
149.9825764599002
 20
-202.5736815899816
 30
0.0
  0
VERTEX
  5
4B9
330
4B7
100
AcDbEntity
  8
Capa 1
 62
     7
420
 16777215
370
     9
100
AcDbVertex
100
AcDb2dVertex
 10
149.9825764599002
 20
-206.5923854735255
 30
0.0
  0
SEQEND
  5
4BA
330
4B7
100
AcDbEntity
  8
Capa 1
370
     9
  0
POLYLINE
  5
4BB
330
3C
100
AcDbEntity
  8
Capa 1
 62
     7
420
 16777215
370
     9
100
AcDb2dPolyline
 66
     1
 10
0.0
 20
0.0
 30
0.0
  0
VERTEX
  5
4BC
330
4BB
100
AcDbEntity
  8
Capa 1
 62
     7
420
 16777215
370
     9
100
AcDbVertex
100
AcDb2dVertex
 10
111.9177164433747
 20
-216.2265949980267
 30
0.0
  0
VERTEX
  5
4BD
330
4BB
100
AcDbEntity
  8
Capa 1
 62
     7
420
 16777215
370
     9
100
AcDbVertex
100
AcDb2dVertex
 10
113.8052842597431
 20
-225.2796169141662
 30
0.0
  0
SEQEND
  5
4BE
330
4BB
100
AcDbEntity
  8
Capa 1
370
     9
  0
POLYLINE
  5
4BF
330
3C
100
AcDbEntity
  8
Capa 1
 62
     7
420
 16777215
370
     9
100
AcDb2dPolyline
 66
     1
 10
0.0
 20
0.0
 30
0.0
  0
VERTEX
  5
4C0
330
4BF
100
AcDbEntity
  8
Capa 1
 62
     7
420
 16777215
370
     9
100
AcDbVertex
100
AcDb2dVertex
 10
109.3476752113784
 20
-221.6595105782657
 30
0.0
  0
VERTEX
  5
4C1
330
4BF
100
AcDbEntity
  8
Capa 1
 62
     7
420
 16777215
370
     9
100
AcDbVertex
100
AcDb2dVertex
 10
113.0494303102793
 20
-221.6595105782657
 30
0.0
  0
SEQEND
  5
4C2
330
4BF
100
AcDbEntity
  8
Capa 1
370
     9
  0
POLYLINE
  5
4C3
330
3C
100
AcDbEntity
  8
Capa 1
 62
     7
420
 16777215
370
     9
100
AcDb2dPolyline
 66
     1
 10
0.0
 20
0.0
 30
0.0
  0
VERTEX
  5
4C4
330
4C3
100
AcDbEntity
  8
Capa 1
 62
     7
420
 16777215
370
     9
100
AcDbVertex
100
AcDb2dVertex
 10
109.1664631888542
 20
-219.6499863817195
 30
0.0
  0
VERTEX
  5
4C5
330
4C3
100
AcDbEntity
  8
Capa 1
 62
     7
420
 16777215
370
     9
100
AcDbVertex
100
AcDb2dVertex
 10
112.6315402279185
 20
-219.6499863817195
 30
0.0
  0
SEQEND
  5
4C6
330
4C3
100
AcDbEntity
  8
Capa 1
370
     9
  0
POLYLINE
  5
4C7
330
3C
100
AcDbEntity
  8
Capa 1
 62
     7
420
 16777215
370
     9
100
AcDb2dPolyline
 66
     1
 10
0.0
 20
0.0
 30
0.0
  0
VERTEX
  5
4C8
330
4C7
100
AcDbEntity
  8
Capa 1
 62
     7
420
 16777215
370
     9
100
AcDbVertex
100
AcDb2dVertex
 10
115.8420247106228
 20
-221.6595105782657
 30
0.0
  0
VERTEX
  5
4C9
330
4C7
100
AcDbEntity
  8
Capa 1
 62
     7
420
 16777215
370
     9
100
AcDbVertex
100
AcDb2dVertex
 10
121.6597574565642
 20
-221.6595105782657
 30
0.0
  0
SEQEND
  5
4CA
330
4C7
100
AcDbEntity
  8
Capa 1
370
     9
  0
POLYLINE
  5
4CB
330
3C
100
AcDbEntity
  8
Capa 1
 62
     7
420
 16777215
370
     9
100
AcDb2dPolyline
 66
     1
 10
0.0
 20
0.0
 30
0.0
  0
VERTEX
  5
4CC
330
4CB
100
AcDbEntity
  8
Capa 1
 62
     7
420
 16777215
370
     9
100
AcDbVertex
100
AcDb2dVertex
 10
115.4227565900679
 20
-219.6499863817195
 30
0.0
  0
VERTEX
  5
4CD
330
4CB
100
AcDbEntity
  8
Capa 1
 62
     7
420
 16777215
370
     9
100
AcDbVertex
100
AcDb2dVertex
 10
121.6597574565642
 20
-219.6499863817195
 30
0.0
  0
SEQEND
  5
4CE
330
4CB
100
AcDbEntity
  8
Capa 1
370
     9
  0
POLYLINE
  5
4CF
330
3C
100
AcDbEntity
  8
Capa 1
 62
     7
420
 16777215
370
     9
100
AcDb2dPolyline
 66
     1
 10
0.0
 20
0.0
 30
0.0
  0
VERTEX
  5
4D0
330
4CF
100
AcDbEntity
  8
Capa 1
 62
     7
420
 16777215
370
     9
100
AcDbVertex
100
AcDb2dVertex
 10
101.7214395904551
 20
-219.6499863817195
 30
0.0
  0
VERTEX
  5
4D1
330
4CF
100
AcDbEntity
  8
Capa 1
 62
     7
420
 16777215
370
     9
100
AcDbVertex
100
AcDb2dVertex
 10
101.7214395904551
 20
-221.6595105782657
 30
0.0
  0
SEQEND
  5
4D2
330
4CF
100
AcDbEntity
  8
Capa 1
370
     9
  0
POLYLINE
  5
4D3
330
3C
100
AcDbEntity
  8
Capa 1
 62
     7
420
 16777215
370
     9
100
AcDb2dPolyline
 66
     1
 10
0.0
 20
0.0
 30
0.0
  0
VERTEX
  5
4D4
330
4D3
100
AcDbEntity
  8
Capa 1
 62
     7
420
 16777215
370
     9
100
AcDbVertex
100
AcDb2dVertex
 10
101.7214395904551
 20
-221.6595105782657
 30
0.0
  0
VERTEX
  5
4D5
330
4D3
100
AcDbEntity
  8
Capa 1
 62
     7
420
 16777215
370
     9
100
AcDbVertex
100
AcDb2dVertex
 10
105.6676242140345
 20
-221.6595105782657
 30
0.0
  0
SEQEND
  5
4D6
330
4D3
100
AcDbEntity
  8
Capa 1
370
     9
  0
POLYLINE
  5
4D7
330
3C
100
AcDbEntity
  8
Capa 1
 62
     7
420
 16777215
370
     9
100
AcDb2dPolyline
 66
     1
 10
0.0
 20
0.0
 30
0.0
  0
VERTEX
  5
4D8
330
4D7
100
AcDbEntity
  8
Capa 1
 62
     7
420
 16777215
370
     9
100
AcDbVertex
100
AcDb2dVertex
 10
101.7214395904551
 20
-219.6499863817195
 30
0.0
  0
VERTEX
  5
4D9
330
4D7
100
AcDbEntity
  8
Capa 1
 62
     7
420
 16777215
370
     9
100
AcDbVertex
100
AcDb2dVertex
 10
104.9720594355625
 20
-219.6499863817195
 30
0.0
  0
SEQEND
  5
4DA
330
4D7
100
AcDbEntity
  8
Capa 1
370
     9
  0
SPLINE
  5
4DB
330
3C
100
AcDbEntity
  8
Capa 1
 62
     7
420
 16777215
370
     9
100
AcDbSpline
210
0.0
220
0.0
230
1.0
 70
     8
 71
     3
 72
     8
 73
     4
 74
     0
 42
0.0000000001
 43
0.0000000001
 40
0.0
 40
0.0
 40
0.0
 40
0.0
 40
1.0
 40
1.0
 40
1.0
 40
1.0
 10
135.0925292631019
 20
-221.540310274476
 30
0.0
 10
135.3750270928924
 20
-219.9049234476279
 30
0.0
 10
134.8613633560416
 20
-218.2357746850244
 30
0.0
 10
133.7127685212593
 20
-217.0375704752545
 30
0.0
  0
SPLINE
  5
4DC
330
3C
100
AcDbEntity
  8
Capa 1
 62
     7
420
 16777215
370
     9
100
AcDbSpline
210
0.0
220
0.0
230
1.0
 70
     8
 71
     3
 72
     8
 73
     4
 74
     0
 42
0.0000000001
 43
0.0000000001
 40
0.0
 40
0.0
 40
0.0
 40
0.0
 40
1.0
 40
1.0
 40
1.0
 40
1.0
 10
133.7127685212593
 20
-224.269514917891
 30
0.0
 10
134.177856411768
 20
-223.7851344926648
 30
0.0
 10
134.5461371191413
 20
-223.214971189856
 30
0.0
 10
134.7952175227248
 20
-222.5920979261228
 30
0.0
  0
POLYLINE
  5
4DD
330
3C
100
AcDbEntity
  8
Capa 1
 62
     7
420
 16777215
370
     9
100
AcDb2dPolyline
 66
     1
 10
0.0
 20
0.0
 30
0.0
  0
VERTEX
  5
4DE
330
4DD
100
AcDbEntity
  8
Capa 1
 62
     7
420
 16777215
370
     9
100
AcDbVertex
100
AcDb2dVertex
 10
133.7127685212593
 20
-224.269514917891
 30
0.0
  0
VERTEX
  5
4DF
330
4DD
100
AcDbEntity
  8
Capa 1
 62
     7
420
 16777215
370
     9
100
AcDbVertex
100
AcDb2dVertex
 10
133.7127685212593
 20
-225.8745849044689
 30
0.0
  0
SEQEND
  5
4E0
330
4DD
100
AcDbEntity
  8
Capa 1
370
     9
  0
POLYLINE
  5
4E1
330
3C
100
AcDbEntity
  8
Capa 1
 62
     7
420
 16777215
370
     9
100
AcDb2dPolyline
 66
     1
 10
0.0
 20
0.0
 30
0.0
  0
VERTEX
  5
4E2
330
4E1
100
AcDbEntity
  8
Capa 1
 62
     7
420
 16777215
370
     9
100
AcDbVertex
100
AcDb2dVertex
 10
127.2835313266861
 20
-217.0375704752545
 30
0.0
  0
VERTEX
  5
4E3
330
4E1
100
AcDbEntity
  8
Capa 1
 62
     7
420
 16777215
370
     9
100
AcDbVertex
100
AcDb2dVertex
 10
133.7127685212593
 20
-217.0375704752545
 30
0.0
  0
SEQEND
  5
4E4
330
4E1
100
AcDbEntity
  8
Capa 1
370
     9
  0
POLYLINE
  5
4E5
330
3C
100
AcDbEntity
  8
Capa 1
 62
     7
420
 16777215
370
     9
100
AcDb2dPolyline
 66
     1
 10
0.0
 20
0.0
 30
0.0
  0
VERTEX
  5
4E6
330
4E5
100
AcDbEntity
  8
Capa 1
 62
     7
420
 16777215
370
     9
100
AcDbVertex
100
AcDb2dVertex
 10
127.2835313266861
 20
-224.269514917891
 30
0.0
  0
VERTEX
  5
4E7
330
4E5
100
AcDbEntity
  8
Capa 1
 62
     7
420
 16777215
370
     9
100
AcDbVertex
100
AcDb2dVertex
 10
133.7127685212593
 20
-224.269514917891
 30
0.0
  0
SEQEND
  5
4E8
330
4E5
100
AcDbEntity
  8
Capa 1
370
     9
  0
POLYLINE
  5
4E9
330
3C
100
AcDbEntity
  8
Capa 1
 62
     7
420
 16777215
370
     9
100
AcDb2dPolyline
 66
     1
 10
0.0
 20
0.0
 30
0.0
  0
VERTEX
  5
4EA
330
4E9
100
AcDbEntity
  8
Capa 1
 62
     7
420
 16777215
370
     9
100
AcDbVertex
100
AcDb2dVertex
 10
135.1187119887898
 20
-225.8745849044689
 30
0.0
  0
VERTEX
  5
4EB
330
4E9
100
AcDbEntity
  8
Capa 1
 62
     7
420
 16777215
370
     9
100
AcDbVertex
100
AcDb2dVertex
 10
135.1187119887898
 20
-231.9024684750105
 30
0.0
  0
SEQEND
  5
4EC
330
4E9
100
AcDbEntity
  8
Capa 1
370
     9
  0
POLYLINE
  5
4ED
330
3C
100
AcDbEntity
  8
Capa 1
 62
     7
420
 16777215
370
     9
100
AcDb2dPolyline
 66
     1
 10
0.0
 20
0.0
 30
0.0
  0
VERTEX
  5
4EE
330
4ED
100
AcDbEntity
  8
Capa 1
 62
     7
420
 16777215
370
     9
100
AcDbVertex
100
AcDb2dVertex
 10
151.1880153701891
 20
-225.8745849044689
 30
0.0
  0
VERTEX
  5
4EF
330
4ED
100
AcDbEntity
  8
Capa 1
 62
     7
420
 16777215
370
     9
100
AcDbVertex
100
AcDb2dVertex
 10
151.1880153701891
 20
-231.9024684750105
 30
0.0
  0
SEQEND
  5
4F0
330
4ED
100
AcDbEntity
  8
Capa 1
370
     9
  0
POLYLINE
  5
4F1
330
3C
100
AcDbEntity
  8
Capa 1
 62
     7
420
 16777215
370
     9
100
AcDb2dPolyline
 66
     1
 10
0.0
 20
0.0
 30
0.0
  0
VERTEX
  5
4F2
330
4F1
100
AcDbEntity
  8
Capa 1
 62
     7
420
 16777215
370
     9
100
AcDbVertex
100
AcDb2dVertex
 10
135.1187119887898
 20
-231.9024684750105
 30
0.0
  0
VERTEX
  5
4F3
330
4F1
100
AcDbEntity
  8
Capa 1
 62
     7
420
 16777215
370
     9
100
AcDbVertex
100
AcDb2dVertex
 10
151.1880153701891
 20
-231.9024684750105
 30
0.0
  0
SEQEND
  5
4F4
330
4F1
100
AcDbEntity
  8
Capa 1
370
     9
  0
POLYLINE
  5
4F5
330
3C
100
AcDbEntity
  8
Capa 1
 62
     7
420
 16777215
370
     9
100
AcDb2dPolyline
 66
     1
 10
0.0
 20
0.0
 30
0.0
  0
VERTEX
  5
4F6
330
4F5
100
AcDbEntity
  8
Capa 1
 62
     7
420
 16777215
370
     9
100
AcDbVertex
100
AcDb2dVertex
 10
133.7127685212593
 20
-225.8745849044689
 30
0.0
  0
VERTEX
  5
4F7
330
4F5
100
AcDbEntity
  8
Capa 1
 62
     7
420
 16777215
370
     9
100
AcDbVertex
100
AcDb2dVertex
 10
152.5939588377196
 20
-225.8745849044689
 30
0.0
  0
SEQEND
  5
4F8
330
4F5
100
AcDbEntity
  8
Capa 1
370
     9
  0
POLYLINE
  5
4F9
330
3C
100
AcDbEntity
  8
Capa 1
 62
     7
420
 16777215
370
     9
100
AcDb2dPolyline
 66
     1
 10
0.0
 20
0.0
 30
0.0
  0
VERTEX
  5
4FA
330
4F9
100
AcDbEntity
  8
Capa 1
 62
     7
420
 16777215
370
     9
100
AcDbVertex
100
AcDb2dVertex
 10
133.7127685212593
 20
-210.6083332806813
 30
0.0
  0
VERTEX
  5
4FB
330
4F9
100
AcDbEntity
  8
Capa 1
 62
     7
420
 16777215
370
     9
100
AcDbVertex
100
AcDb2dVertex
 10
133.7127685212593
 20
-217.0375704752545
 30
0.0
  0
SEQEND
  5
4FC
330
4F9
100
AcDbEntity
  8
Capa 1
370
     9
  0
POLYLINE
  5
4FD
330
3C
100
AcDbEntity
  8
Capa 1
 62
     7
420
 16777215
370
     9
100
AcDb2dPolyline
 66
     1
 10
0.0
 20
0.0
 30
0.0
  0
VERTEX
  5
4FE
330
4FD
100
AcDbEntity
  8
Capa 1
 62
     7
420
 16777215
370
     9
100
AcDbVertex
100
AcDb2dVertex
 10
152.5939588377196
 20
-210.6083332806813
 30
0.0
  0
VERTEX
  5
4FF
330
4FD
100
AcDbEntity
  8
Capa 1
 62
     7
420
 16777215
370
     9
100
AcDbVertex
100
AcDb2dVertex
 10
152.5939588377196
 20
-225.8745849044689
 30
0.0
  0
SEQEND
  5
500
330
4FD
100
AcDbEntity
  8
Capa 1
370
     9
  0
SPLINE
  5
501
330
3C
100
AcDbEntity
  8
Capa 1
 62
     7
420
 16777215
370
     9
100
AcDbSpline
210
0.0
220
0.0
230
1.0
 70
     8
 71
     3
 72
    11
 73
     7
 74
     0
 42
0.0000000001
 43
0.0000000001
 40
0.0
 40
0.0
 40
0.0
 40
0.0
 40
1.0
 40
1.0
 40
1.0
 40
2.0
 40
2.0
 40
2.0
 40
2.0
 10
132.1049424582932
 20
-207.7961018360718
 30
0.0
 10
131.3270398977238
 20
-207.7961018360718
 30
0.0
 10
130.6989989907628
 20
-208.4272433289696
 30
0.0
 10
130.6989989907628
 20
-209.205145889539
 30
0.0
 10
130.6989989907628
 20
-209.9799478641717
 30
0.0
 10
131.3270398977238
 20
-210.6083332806813
 30
0.0
 10
132.1049424582932
 20
-210.6083332806813
 30
0.0
  0
SPLINE
  5
502
330
3C
100
AcDbEntity
  8
Capa 1
 62
     7
420
 16777215
370
     9
100
AcDbSpline
210
0.0
220
0.0
230
1.0
 70
     8
 71
     3
 72
    11
 73
     7
 74
     0
 42
0.0000000001
 43
0.0000000001
 40
0.0
 40
0.0
 40
0.0
 40
0.0
 40
1.0
 40
1.0
 40
1.0
 40
2.0
 40
2.0
 40
2.0
 40
2.0
 10
154.2017849006857
 20
-210.6083332806813
 30
0.0
 10
154.978309423061
 20
-210.6083332806813
 30
0.0
 10
155.6077283682161
 20
-209.9799478641717
 30
0.0
 10
155.6077283682161
 20
-209.205145889539
 30
0.0
 10
155.6077283682161
 20
-208.4272433289696
 30
0.0
 10
154.978309423061
 20
-207.7961018360718
 30
0.0
 10
154.2017849006857
 20
-207.7961018360718
 30
0.0
  0
POLYLINE
  5
503
330
3C
100
AcDbEntity
  8
Capa 1
 62
     7
420
 16777215
370
     9
100
AcDb2dPolyline
 66
     1
 10
0.0
 20
0.0
 30
0.0
  0
VERTEX
  5
504
330
503
100
AcDbEntity
  8
Capa 1
 62
     7
420
 16777215
370
     9
100
AcDbVertex
100
AcDb2dVertex
 10
132.1049424582932
 20
-210.6083332806813
 30
0.0
  0
VERTEX
  5
505
330
503
100
AcDbEntity
  8
Capa 1
 62
     7
420
 16777215
370
     9
100
AcDbVertex
100
AcDb2dVertex
 10
154.2017849006857
 20
-210.6083332806813
 30
0.0
  0
SEQEND
  5
506
330
503
100
AcDbEntity
  8
Capa 1
370
     9
  0
POLYLINE
  5
507
330
3C
100
AcDbEntity
  8
Capa 1
 62
     7
420
 16777215
370
     9
100
AcDb2dPolyline
 66
     1
 10
0.0
 20
0.0
 30
0.0
  0
VERTEX
  5
508
330
507
100
AcDbEntity
  8
Capa 1
 62
     7
420
 16777215
370
     9
100
AcDbVertex
100
AcDb2dVertex
 10
135.1187119887898
 20
-198.9590874068575
 30
0.0
  0
VERTEX
  5
509
330
507
100
AcDbEntity
  8
Capa 1
 62
     7
420
 16777215
370
     9
100
AcDbVertex
100
AcDb2dVertex
 10
135.1187119887898
 20
-207.7961018360718
 30
0.0
  0
SEQEND
  5
50A
330
507
100
AcDbEntity
  8
Capa 1
370
     9
  0
POLYLINE
  5
50B
330
3C
100
AcDbEntity
  8
Capa 1
 62
     7
420
 16777215
370
     9
100
AcDb2dPolyline
 66
     1
 10
0.0
 20
0.0
 30
0.0
  0
VERTEX
  5
50C
330
50B
100
AcDbEntity
  8
Capa 1
 62
     7
420
 16777215
370
     9
100
AcDbVertex
100
AcDb2dVertex
 10
151.1880153701891
 20
-198.9590874068575
 30
0.0
  0
VERTEX
  5
50D
330
50B
100
AcDbEntity
  8
Capa 1
 62
     7
420
 16777215
370
     9
100
AcDbVertex
100
AcDb2dVertex
 10
151.1880153701891
 20
-207.7961018360718
 30
0.0
  0
SEQEND
  5
50E
330
50B
100
AcDbEntity
  8
Capa 1
370
     9
  0
ENDBLK
  5
3F
330
3C
100
AcDbEntity
  8
0
100
AcDbBlockEnd
  0
ENDSEC
  0
SECTION
  2
ENTITIES
  0
INSERT
  5
3D
330
1F
100
AcDbEntity
  8
Capa 1
100
AcDbBlockReference
  2
block 2
 10
0.0
 20
0.0
 30
0.0
  0
ENDSEC
  0
SECTION
  2
OBJECTS
  0
DICTIONARY
  5
C
330
0
100
AcDbDictionary
281
     1
  3
ACAD_GROUP
350
D
  3
ACAD_LAYOUT
350
1A
  3
ACAD_MLINESTYLE
350
17
  3
ACAD_PLOTSETTINGS
350
19
  3
ACAD_PLOTSTYLENAME
350
E
  3
ACAD_TABLESTYLE
350
50F
  3
ACAD_VISUALSTYLE
350
2A
  0
DICTIONARY
  5
D
102
{ACAD_REACTORS
330
C
102
}
330
C
100
AcDbDictionary
281
     1
  0
DICTIONARY
  5
1A
102
{ACAD_REACTORS
330
C
102
}
330
C
100
AcDbDictionary
281
     1
  3
Layout1
350
1E
  3
Layout2
350
26
  3
Model
350
22
  0
DICTIONARY
  5
17
102
{ACAD_REACTORS
330
C
102
}
330
C
100
AcDbDictionary
281
     1
  3
Standard
350
18
  0
DICTIONARY
  5
19
102
{ACAD_REACTORS
330
C
102
}
330
C
100
AcDbDictionary
281
     1
  0
ACDBDICTIONARYWDFLT
  5
E
102
{ACAD_REACTORS
330
C
102
}
330
C
100
AcDbDictionary
281
     1
  3
Normal
350
F
100
AcDbDictionaryWithDefault
340
F
  0
DICTIONARY
  5
50F
102
{ACAD_REACTORS
330
C
102
}
330
C
100
AcDbDictionary
281
     1
  0
DICTIONARY
  5
2A
102
{ACAD_REACTORS
330
C
102
}
330
C
100
AcDbDictionary
281
     1
  3
2dWireframe
350
2F
  3
3D Hidden
350
31
  3
3dWireframe
350
30
  3
Basic
350
32
  3
Brighten
350
36
  3
ColorChange
350
3A
  3
Conceptual
350
34
  3
Dim
350
35
  3
Facepattern
350
39
  3
Flat
350
2B
  3
FlatWithEdges
350
2C
  3
Gouraud
350
2D
  3
GouraudWithEdges
350
2E
  3
Linepattern
350
38
  3
Realistic
350
33
  3
Thicken
350
37
  0
LAYOUT
  5
1E
102
{ACAD_REACTORS
330
1A
102
}
330
1A
100
AcDbPlotSettings
  1

  2
none_device
  4

  6

 40
0.0
 41
0.0
 42
0.0
 43
0.0
 44
0.0
 45
0.0
 46
0.0
 47
0.0
 48
0.0
 49
0.0
140
0.0
141
0.0
142
1.0
143
1.0
 70
   688
 72
     0
 73
     0
 74
     5
  7

 75
    16
 76
     0
 77
     2
 78
   300
147
1.0
148
0.0
149
0.0
100
AcDbLayout
  1
Layout1
 70
     1
 71
     1
 10
0.0
 20
0.0
 11
12.0
 21
9.0
 12
0.0
 22
0.0
 32
0.0
 14
1.000000000000000E+20
 24
1.000000000000000E+20
 34
1.000000000000000E+20
 15
-1.000000000000000E+20
 25
-1.000000000000000E+20
 35
-1.000000000000000E+20
146
0.0
 13
0.0
 23
0.0
 33
0.0
 16
1.0
 26
0.0
 36
0.0
 17
0.0
 27
1.0
 37
0.0
 76
     0
330
1B
  0
LAYOUT
  5
26
102
{ACAD_REACTORS
330
1A
102
}
330
1A
100
AcDbPlotSettings
  1

  2
none_device
  4

  6

 40
0.0
 41
0.0
 42
0.0
 43
0.0
 44
0.0
 45
0.0
 46
0.0
 47
0.0
 48
0.0
 49
0.0
140
0.0
141
0.0
142
1.0
143
1.0
 70
   688
 72
     0
 73
     0
 74
     5
  7

 75
    16
 76
     0
 77
     2
 78
   300
147
1.0
148
0.0
149
0.0
100
AcDbLayout
  1
Layout2
 70
     1
 71
     2
 10
0.0
 20
0.0
 11
0.0
 21
0.0
 12
0.0
 22
0.0
 32
0.0
 14
0.0
 24
0.0
 34
0.0
 15
0.0
 25
0.0
 35
0.0
146
0.0
 13
0.0
 23
0.0
 33
0.0
 16
1.0
 26
0.0
 36
0.0
 17
0.0
 27
1.0
 37
0.0
 76
     0
330
23
  0
LAYOUT
  5
22
102
{ACAD_REACTORS
330
1A
102
}
330
1A
100
AcDbPlotSettings
  1

  2
none_device
  4

  6

 40
0.0
 41
0.0
 42
0.0
 43
0.0
 44
0.0
 45
0.0
 46
0.0
 47
0.0
 48
0.0
 49
0.0
140
0.0
141
0.0
142
1.0
143
1.0
 70
  1712
 72
     0
 73
     0
 74
     0
  7

 75
     0
 76
     0
 77
     2
 78
   300
147
1.0
148
0.0
149
0.0
100
AcDbLayout
  1
Model
 70
     1
 71
     0
 10
0.0
 20
0.0
 11
12.0
 21
9.0
 12
0.0
 22
0.0
 32
0.0
 14
1.000000000000000E+20
 24
1.000000000000000E+20
 34
1.000000000000000E+20
 15
-1.000000000000000E+20
 25
-1.000000000000000E+20
 35
-1.000000000000000E+20
146
0.0
 13
0.0
 23
0.0
 33
0.0
 16
1.0
 26
0.0
 36
0.0
 17
0.0
 27
1.0
 37
0.0
 76
     0
330
1F
331
29
  0
MLINESTYLE
  5
18
102
{ACAD_REACTORS
330
17
102
}
330
17
100
AcDbMlineStyle
  2
Standard
 70
     0
  3

 62
   256
 51
90.0
 52
90.0
 71
     2
 49
0.5
 62
   256
  6
BYLAYER
 49
-0.5
 62
   256
  6
BYLAYER
  0
ACDBPLACEHOLDER
  5
F
102
{ACAD_REACTORS
330
E
102
}
330
E
  0
VISUALSTYLE
  5
2F
102
{ACAD_REACTORS
330
2A
102
}
330
2A
100
AcDbVisualStyle
  2
2dWireframe
 70
     4
 71
     0
 72
     2
 73
     0
 90
        0
 40
-0.6
 41
-30.0
 62
     5
 63
     7
421
 16777215
 74
     1
 91
        4
 64
     7
 65
   257
 75
     1
175
     1
 42
1.0
 92
        0
 66
   257
 43
1.0
 76
     1
 77
     6
 78
     2
 67
     7
 79
     5
170
     0
171
     0
290
     0
174
     0
 93
        1
 44
0.0
173
     0
291
     0
 45
0.0
1001
ACAD
1000
AcDbSavedByObjectVersion
1070
     0
  0
VISUALSTYLE
  5
31
102
{ACAD_REACTORS
330
2A
102
}
330
2A
100
AcDbVisualStyle
  2
3D Hidden
 70
     6
 71
     1
 72
     2
 73
     2
 90
        0
 40
-0.6
 41
-30.0
 62
     5
 63
     7
421
 16777215
 74
     2
 91
        2
 64
     7
 65
   257
 75
     2
175
     1
 42
40.0
 92
        0
 66
   257
 43
1.0
 76
     1
 77
     6
 78
     2
 67
     7
 79
     3
170
     0
171
     0
290
     0
174
     0
 93
        1
 44
0.0
173
     0
291
     0
 45
0.0
1001
ACAD
1000
AcDbSavedByObjectVersion
1070
     0
  0
VISUALSTYLE
  5
30
102
{ACAD_REACTORS
330
2A
102
}
330
2A
100
AcDbVisualStyle
  2
3dWireframe
 70
     5
 71
     0
 72
     2
 73
     0
 90
        0
 40
-0.6
 41
-30.0
 62
     5
 63
     7
421
 16777215
 74
     1
 91
        4
 64
     7
 65
   257
 75
     1
175
     1
 42
1.0
 92
        0
 66
   257
 43
1.0
 76
     1
 77
     6
 78
     2
 67
     7
 79
     5
170
     0
171
     0
290
     0
174
     0
 93
        1
 44
0.0
173
     0
291
     0
 45
0.0
1001
ACAD
1000
AcDbSavedByObjectVersion
1070
     0
  0
VISUALSTYLE
  5
32
102
{ACAD_REACTORS
330
2A
102
}
330
2A
100
AcDbVisualStyle
  2
Basic
 70
     7
 71
     1
 72
     0
 73
     1
 90
        0
 40
-0.6
 41
-30.0
 62
     5
 63
     7
421
 16777215
 74
     0
 91
        4
 64
     7
 65
   257
 75
     1
175
     1
 42
1.0
 92
        8
 66
     7
 43
1.0
 76
     1
 77
     6
 78
     2
 67
     7
 79
     5
170
     0
171
     0
290
     0
174
     0
 93
        1
 44
0.0
173
     0
291
     1
 45
0.0
1001
ACAD
1000
AcDbSavedByObjectVersion
1070
     0
  0
VISUALSTYLE
  5
36
102
{ACAD_REACTORS
330
2A
102
}
330
2A
100
AcDbVisualStyle
  2
Brighten
 70
    12
 71
     2
 72
     2
 73
     0
 90
        0
 40
-0.6
 41
-30.0
 62
     5
 63
     7
421
 16777215
 74
     1
 91
        4
 64
     7
 65
   257
 75
     1
175
     1
 42
1.0
 92
        8
 66
     7
 43
1.0
 76
     1
 77
     6
 78
     2
 67
     7
 79
     5
170
     0
171
     0
290
     0
174
     0
 93
        1
 44
50.0
173
     0
291
     1
 45
0.0
1001
ACAD
1000
AcDbSavedByObjectVersion
1070
     0
  0
VISUALSTYLE
  5
3A
102
{ACAD_REACTORS
330
2A
102
}
330
2A
100
AcDbVisualStyle
  2
ColorChange
 70
    16
 71
     2
 72
     2
 73
     3
 90
        0
 40
-0.6
 41
-30.0
 62
     5
 63
     8
421
  8421504
 74
     1
 91
        4
 64
     7
 65
   257
 75
     1
175
     1
 42
1.0
 92
        8
 66
     8
424
  8421504
 43
1.0
 76
     1
 77
     6
 78
     2
 67
     7
 79
     5
170
     0
171
     0
290
     0
174
     0
 93
        1
 44
0.0
173
     0
291
     1
 45
0.0
1001
ACAD
1000
AcDbSavedByObjectVersion
1070
     0
  0
VISUALSTYLE
  5
34
102
{ACAD_REACTORS
330
2A
102
}
330
2A
100
AcDbVisualStyle
  2
Conceptual
 70
     9
 71
     3
 72
     2
 73
     0
 90
        0
 40
-0.6
 41
-30.0
 62
     5
 63
     7
421
 16777215
 74
     2
 91
        2
 64
     7
 65
   257
 75
     1
175
     1
 42
40.0
 92
        8
 66
     7
 43
1.0
 76
     1
 77
     6
 78
     2
 67
     7
 79
     3
170
     0
171
     0
290
     0
174
     0
 93
        1
 44
0.0
173
     0
291
     0
 45
0.0
1001
ACAD
1000
AcDbSavedByObjectVersion
1070
     0
  0
VISUALSTYLE
  5
35
102
{ACAD_REACTORS
330
2A
102
}
330
2A
100
AcDbVisualStyle
  2
Dim
 70
    11
 71
     2
 72
     2
 73
     0
 90
        0
 40
-0.6
 41
-30.0
 62
     5
 63
     7
421
 16777215
 74
     1
 91
        4
 64
     7
 65
   257
 75
     1
175
     1
 42
1.0
 92
        8
 66
     7
 43
1.0
 76
     1
 77
     6
 78
     2
 67
     7
 79
     5
170
     0
171
     0
290
     0
174
     0
 93
        1
 44
-50.0
173
     0
291
     1
 45
0.0
1001
ACAD
1000
AcDbSavedByObjectVersion
1070
     0
  0
VISUALSTYLE
  5
39
102
{ACAD_REACTORS
330
2A
102
}
330
2A
100
AcDbVisualStyle
  2
Facepattern
 70
    15
 71
     2
 72
     2
 73
     0
 90
        0
 40
-0.6
 41
-30.0
 62
     5
 63
     7
421
 16777215
 74
     1
 91
        4
 64
     7
 65
   257
 75
     1
175
     1
 42
1.0
 92
        8
 66
     7
 43
1.0
 76
     1
 77
     6
 78
     2
 67
     7
 79
     5
170
     0
171
     0
290
     0
174
     0
 93
        1
 44
0.0
173
     0
291
     1
 45
0.0
1001
ACAD
1000
AcDbSavedByObjectVersion
1070
     0
  0
VISUALSTYLE
  5
2B
102
{ACAD_REACTORS
330
2A
102
}
330
2A
100
AcDbVisualStyle
  2
Flat
 70
     0
 71
     2
 72
     1
 73
     1
 90
        2
 40
-0.6
 41
30.0
 62
     5
 63
     7
421
 16777215
 74
     0
 91
        4
 64
     7
 65
   257
 75
     1
175
     1
 42
1.0
 92
        8
 66
     7
 43
1.0
 76
     1
 77
     6
 78
     2
 67
     7
 79
     5
170
     0
171
     0
290
     0
174
     0
 93
       13
 44
0.0
173
     0
291
     1
 45
0.0
1001
ACAD
1000
AcDbSavedByObjectVersion
1070
     0
  0
VISUALSTYLE
  5
2C
102
{ACAD_REACTORS
330
2A
102
}
330
2A
100
AcDbVisualStyle
  2
FlatWithEdges
 70
     1
 71
     2
 72
     1
 73
     1
 90
        2
 40
-0.6
 41
30.0
 62
     5
 63
     7
421
 16777215
 74
     1
 91
        4
 64
     7
 65
   257
 75
     1
175
     1
 42
1.0
 92
        0
 66
   257
 43
1.0
 76
     1
 77
     6
 78
     2
 67
     7
 79
     5
170
     0
171
     0
290
     0
174
     0
 93
       13
 44
0.0
173
     0
291
     1
 45
0.0
1001
ACAD
1000
AcDbSavedByObjectVersion
1070
     0
  0
VISUALSTYLE
  5
2D
102
{ACAD_REACTORS
330
2A
102
}
330
2A
100
AcDbVisualStyle
  2
Gouraud
 70
     2
 71
     2
 72
     2
 73
     1
 90
        2
 40
-0.6
 41
30.0
 62
     5
 63
     7
421
 16777215
 74
     0
 91
        4
 64
     7
 65
   257
 75
     1
175
     1
 42
1.0
 92
        0
 66
     7
 43
1.0
 76
     1
 77
     6
 78
     2
 67
     7
 79
     5
170
     0
171
     0
290
     0
174
     0
 93
       13
 44
0.0
173
     0
291
     1
 45
0.0
1001
ACAD
1000
AcDbSavedByObjectVersion
1070
     0
  0
VISUALSTYLE
  5
2E
102
{ACAD_REACTORS
330
2A
102
}
330
2A
100
AcDbVisualStyle
  2
GouraudWithEdges
 70
     3
 71
     2
 72
     2
 73
     1
 90
        2
 40
-0.6
 41
30.0
 62
     5
 63
     7
421
 16777215
 74
     1
 91
        4
 64
     7
 65
   257
 75
     1
175
     1
 42
1.0
 92
        0
 66
   257
 43
1.0
 76
     1
 77
     6
 78
     2
 67
     7
 79
     5
170
     0
171
     0
290
     0
174
     0
 93
       13
 44
0.0
173
     0
291
     1
 45
0.0
1001
ACAD
1000
AcDbSavedByObjectVersion
1070
     0
  0
VISUALSTYLE
  5
38
102
{ACAD_REACTORS
330
2A
102
}
330
2A
100
AcDbVisualStyle
  2
Linepattern
 70
    14
 71
     2
 72
     2
 73
     0
 90
        0
 40
-0.6
 41
-30.0
 62
     5
 63
     7
421
 16777215
 74
     1
 91
        4
 64
     7
 65
   257
 75
     7
175
     7
 42
1.0
 92
        8
 66
     7
 43
1.0
 76
     1
 77
     6
 78
     2
 67
     7
 79
     5
170
     0
171
     0
290
     0
174
     0
 93
        1
 44
0.0
173
     0
291
     1
 45
0.0
1001
ACAD
1000
AcDbSavedByObjectVersion
1070
     0
  0
VISUALSTYLE
  5
33
102
{ACAD_REACTORS
330
2A
102
}
330
2A
100
AcDbVisualStyle
  2
Realistic
 70
     8
 71
     2
 72
     2
 73
     0
 90
        0
 40
-0.6
 41
-30.0
 62
     5
 63
     7
421
 16777215
 74
     1
 91
        0
 64
     7
 65
   257
 75
     1
175
     1
 42
1.0
 92
        8
 66
     8
424
  7895160
 43
1.0
 76
     1
 77
     6
 78
     2
 67
     7
 79
     5
170
     0
171
     0
290
     0
174
     0
 93
       13
 44
0.0
173
     0
291
     0
 45
0.0
1001
ACAD
1000
AcDbSavedByObjectVersion
1070
     0
  0
VISUALSTYLE
  5
37
102
{ACAD_REACTORS
330
2A
102
}
330
2A
100
AcDbVisualStyle
  2
Thicken
 70
    13
 71
     2
 72
     2
 73
     0
 90
        0
 40
-0.6
 41
-30.0
 62
     5
 63
     7
421
 16777215
 74
     1
 91
        4
 64
     7
 65
   257
 75
     1
175
     1
 42
1.0
 92
       12
 66
     7
 43
1.0
 76
     1
 77
     6
 78
     2
 67
     7
 79
     5
170
     0
171
     0
290
     0
174
     0
 93
        1
 44
0.0
173
     0
291
     1
 45
0.0
1001
ACAD
1000
AcDbSavedByObjectVersion
1070
     0
  0
ENDSEC
  0
EOF
