  0
SECTION
  2
HEADER
  9
$ACADVER
  1
AC1018
  9
$ACADMAINTVER
 70
     0
  9
$DWGCODEPAGE
  3
ANSI_1252
  9
$INSBASE
 10
0.0
 20
0.0
 30
0.0
  9
$EXTMIN
 10
1.000000000000000E+20
 20
1.000000000000000E+20
 30
1.000000000000000E+20
  9
$EXTMAX
 10
-1.000000000000000E+20
 20
-1.000000000000000E+20
 30
-1.000000000000000E+20
  9
$LIMMIN
 10
0.0
 20
0.0
  9
$LIMMAX
 10
12.0
 20
9.0
  9
$ORTHOMODE
 70
     0
  9
$REGENMODE
 70
     1
  9
$FILLMODE
 70
     1
  9
$QTEXTMODE
 70
     0
  9
$MIRRTEXT
 70
     1
  9
$LTSCALE
 40
1.0
  9
$ATTMODE
 70
     1
  9
$TEXTSIZE
 40
0.2
  9
$TRACEWID
 40
0.05
  9
$TEXTSTYLE
  7
Standard
  9
$CLAYER
  8
0
  9
$CELTYPE
  6
ByLayer
  9
$CECOLOR
 62
   256
  9
$CELTSCALE
 40
1.0
  9
$DISPSILH
 70
     0
  9
$DIMSCALE
 40
1.0
  9
$DIMASZ
 40
0.18
  9
$DIMEXO
 40
0.0625
  9
$DIMDLI
 40
0.38
  9
$DIMRND
 40
0.0
  9
$DIMDLE
 40
0.0
  9
$DIMEXE
 40
0.18
  9
$DIMTP
 40
0.0
  9
$DIMTM
 40
0.0
  9
$DIMTXT
 40
0.18
  9
$DIMCEN
 40
0.09
  9
$DIMTSZ
 40
0.0
  9
$DIMTOL
 70
     0
  9
$DIMLIM
 70
     0
  9
$DIMTIH
 70
     1
  9
$DIMTOH
 70
     1
  9
$DIMSE1
 70
     0
  9
$DIMSE2
 70
     0
  9
$DIMTAD
 70
     0
  9
$DIMZIN
 70
     0
  9
$DIMBLK
  1

  9
$DIMASO
 70
     1
  9
$DIMSHO
 70
     1
  9
$DIMPOST
  1

  9
$DIMAPOST
  1

  9
$DIMALT
 70
     0
  9
$DIMALTD
 70
     2
  9
$DIMALTF
 40
25.4
  9
$DIMLFAC
 40
1.0
  9
$DIMTOFL
 70
     0
  9
$DIMTVP
 40
0.0
  9
$DIMTIX
 70
     0
  9
$DIMSOXD
 70
     0
  9
$DIMSAH
 70
     0
  9
$DIMBLK1
  1

  9
$DIMBLK2
  1

  9
$DIMSTYLE
  2
Standard
  9
$DIMCLRD
 70
     0
  9
$DIMCLRE
 70
     0
  9
$DIMCLRT
 70
     0
  9
$DIMTFAC
 40
1.0
  9
$DIMGAP
 40
0.09
  9
$DIMJUST
 70
     0
  9
$DIMSD1
 70
     0
  9
$DIMSD2
 70
     0
  9
$DIMTOLJ
 70
     1
  9
$DIMTZIN
 70
     0
  9
$DIMALTZ
 70
     0
  9
$DIMALTTZ
 70
     0
  9
$DIMUPT
 70
     0
  9
$DIMDEC
 70
     4
  9
$DIMTDEC
 70
     4
  9
$DIMALTU
 70
     2
  9
$DIMALTTD
 70
     2
  9
$DIMTXSTY
  7
Standard
  9
$DIMAUNIT
 70
     0
  9
$DIMADEC
 70
     0
  9
$DIMALTRND
 40
0.0
  9
$DIMAZIN
 70
     0
  9
$DIMDSEP
 70
    46
  9
$DIMATFIT
 70
     3
  9
$DIMFRAC
 70
     0
  9
$DIMLDRBLK
  1

  9
$DIMLUNIT
 70
     2
  9
$DIMLWD
 70
    -2
  9
$DIMLWE
 70
    -2
  9
$DIMTMOVE
 70
     0
  9
$LUNITS
 70
     2
  9
$LUPREC
 70
     4
  9
$SKETCHINC
 40
0.1
  9
$FILLETRAD
 40
0.5
  9
$AUNITS
 70
     0
  9
$AUPREC
 70
     0
  9
$MENU
  1
.
  9
$ELEVATION
 40
0.0
  9
$PELEVATION
 40
0.0
  9
$THICKNESS
 40
0.0
  9
$LIMCHECK
 70
     0
  9
$CHAMFERA
 40
0.5
  9
$CHAMFERB
 40
0.5
  9
$CHAMFERC
 40
1.0
  9
$CHAMFERD
 40
0.0
  9
$SKPOLY
 70
     0
  9
$TDCREATE
 40
2457540.497092176
  9
$TDUCREATE
 40
2457540.413758843
  9
$TDUPDATE
 40
2457540.497092187
  9
$TDUUPDATE
 40
2457540.413758854
  9
$TDINDWG
 40
0.0000000116
  9
$TDUSRTIMER
 40
0.0000000116
  9
$USRTIMER
 70
     1
  9
$ANGBASE
 50
0.0
  9
$ANGDIR
 70
     0
  9
$PDMODE
 70
     0
  9
$PDSIZE
 40
0.0
  9
$PLINEWID
 40
0.0
  9
$SPLFRAME
 70
     0
  9
$SPLINETYPE
 70
     6
  9
$SPLINESEGS
 70
     8
  9
$HANDSEED
  5
4EE
  9
$SURFTAB1
 70
     6
  9
$SURFTAB2
 70
     6
  9
$SURFTYPE
 70
     6
  9
$SURFU
 70
     6
  9
$SURFV
 70
     6
  9
$UCSBASE
  2

  9
$UCSNAME
  2

  9
$UCSORG
 10
0.0
 20
0.0
 30
0.0
  9
$UCSXDIR
 10
1.0
 20
0.0
 30
0.0
  9
$UCSYDIR
 10
0.0
 20
1.0
 30
0.0
  9
$UCSORTHOREF
  2

  9
$UCSORTHOVIEW
 70
     0
  9
$UCSORGTOP
 10
0.0
 20
0.0
 30
0.0
  9
$UCSORGBOTTOM
 10
0.0
 20
0.0
 30
0.0
  9
$UCSORGLEFT
 10
0.0
 20
0.0
 30
0.0
  9
$UCSORGRIGHT
 10
0.0
 20
0.0
 30
0.0
  9
$UCSORGFRONT
 10
0.0
 20
0.0
 30
0.0
  9
$UCSORGBACK
 10
0.0
 20
0.0
 30
0.0
  9
$PUCSBASE
  2

  9
$PUCSNAME
  2

  9
$PUCSORG
 10
0.0
 20
0.0
 30
0.0
  9
$PUCSXDIR
 10
1.0
 20
0.0
 30
0.0
  9
$PUCSYDIR
 10
0.0
 20
1.0
 30
0.0
  9
$PUCSORTHOREF
  2

  9
$PUCSORTHOVIEW
 70
     0
  9
$PUCSORGTOP
 10
0.0
 20
0.0
 30
0.0
  9
$PUCSORGBOTTOM
 10
0.0
 20
0.0
 30
0.0
  9
$PUCSORGLEFT
 10
0.0
 20
0.0
 30
0.0
  9
$PUCSORGRIGHT
 10
0.0
 20
0.0
 30
0.0
  9
$PUCSORGFRONT
 10
0.0
 20
0.0
 30
0.0
  9
$PUCSORGBACK
 10
0.0
 20
0.0
 30
0.0
  9
$USERI1
 70
     0
  9
$USERI2
 70
     0
  9
$USERI3
 70
     0
  9
$USERI4
 70
     0
  9
$USERI5
 70
     0
  9
$USERR1
 40
0.0
  9
$USERR2
 40
0.0
  9
$USERR3
 40
0.0
  9
$USERR4
 40
0.0
  9
$USERR5
 40
0.0
  9
$WORLDVIEW
 70
     1
  9
$SHADEDGE
 70
     3
  9
$SHADEDIF
 70
    70
  9
$TILEMODE
 70
     1
  9
$MAXACTVP
 70
    64
  9
$PINSBASE
 10
0.0
 20
0.0
 30
0.0
  9
$PLIMCHECK
 70
     0
  9
$PEXTMIN
 10
1.000000000000000E+20
 20
1.000000000000000E+20
 30
1.000000000000000E+20
  9
$PEXTMAX
 10
-1.000000000000000E+20
 20
-1.000000000000000E+20
 30
-1.000000000000000E+20
  9
$PLIMMIN
 10
0.0
 20
0.0
  9
$PLIMMAX
 10
12.0
 20
9.0
  9
$UNITMODE
 70
     0
  9
$VISRETAIN
 70
     1
  9
$PLINEGEN
 70
     0
  9
$PSLTSCALE
 70
     1
  9
$TREEDEPTH
 70
  3020
  9
$CMLSTYLE
  2
Standard
  9
$CMLJUST
 70
     0
  9
$CMLSCALE
 40
1.0
  9
$PROXYGRAPHICS
 70
     1
  9
$MEASUREMENT
 70
     0
  9
$CELWEIGHT
370
    -1
  9
$ENDCAPS
280
     0
  9
$JOINSTYLE
280
     0
  9
$LWDISPLAY
290
     1
  9
$INSUNITS
 70
     1
  9
$HYPERLINKBASE
  1

  9
$STYLESHEET
  1

  9
$XEDIT
290
     1
  9
$CEPSNTYPE
380
     0
  9
$PSTYLEMODE
290
     1
  9
$FINGERPRINTGUID
  2
{FD6C5512-B865-4351-A0DB-B07CACB6072A}
  9
$VERSIONGUID
  2
{FAEB1C32-E019-11D5-929B-00C0DF256EC4}
  9
$EXTNAMES
290
     1
  9
$PSVPSCALE
 40
0.0
  9
$OLESTARTUP
290
     0
  9
$SORTENTS
280
   127
  9
$INDEXCTL
280
     0
  9
$HIDETEXT
280
     1
  9
$XCLIPFRAME
290
     0
  9
$HALOGAP
280
     0
  9
$OBSCOLOR
 70
   257
  9
$OBSLTYPE
280
     0
  9
$INTERSECTIONDISPLAY
280
     0
  9
$INTERSECTIONCOLOR
 70
   257
  9
$DIMASSOC
280
     2
  9
$PROJECTNAME
  1

  0
ENDSEC
  0
SECTION
  2
CLASSES
  0
CLASS
  1
ACDBDICTIONARYWDFLT
  2
AcDbDictionaryWithDefault
  3
ObjectDBX Classes
 90
        0
 91
        3
280
     0
281
     0
  0
CLASS
  1
VISUALSTYLE
  2
AcDbVisualStyle
  3
ObjectDBX Classes
 90
     4095
 91
        3
280
     0
281
     0
  0
ENDSEC
  0
SECTION
  2
TABLES
  0
TABLE
  2
VPORT
  5
8
330
0
100
AcDbSymbolTable
 70
     1
  0
VPORT
  5
29
330
8
100
AcDbSymbolTableRecord
100
AcDbViewportTableRecord
  2
*Active
 70
     0
 10
0.0
 20
0.0
 11
1.0
 21
1.0
 12
0.0
 22
0.0
 13
0.0
 23
0.0
 14
0.5
 24
0.5
 15
0.5
 25
0.5
 16
0.0
 26
0.0
 36
1.0
 17
93.16606171715988
 27
148.2225633038732
 37
0.0
 40
79.90020478688258
 41
1.403974138135471
 42
50.0
 43
0.0
 44
0.0
 50
0.0
 51
0.0
 71
     0
 72
   100
 73
     1
 74
     3
 75
     0
 76
     0
 77
     0
 78
     0
281
     0
 65
     1
110
0.0
120
0.0
130
0.0
111
1.0
121
0.0
131
0.0
112
0.0
122
1.0
132
0.0
 79
     0
146
0.0
  0
ENDTAB
  0
TABLE
  2
LTYPE
  5
5
330
0
100
AcDbSymbolTable
 70
     1
  0
LTYPE
  5
14
330
5
100
AcDbSymbolTableRecord
100
AcDbLinetypeTableRecord
  2
ByBlock
 70
     0
  3

 72
    65
 73
     0
 40
0.0
  0
LTYPE
  5
15
330
5
100
AcDbSymbolTableRecord
100
AcDbLinetypeTableRecord
  2
ByLayer
 70
     0
  3

 72
    65
 73
     0
 40
0.0
  0
LTYPE
  5
16
330
5
100
AcDbSymbolTableRecord
100
AcDbLinetypeTableRecord
  2
Continuous
 70
     0
  3
Solid line
 72
    65
 73
     0
 40
0.0
  0
ENDTAB
  0
TABLE
  2
LAYER
  5
2
330
0
100
AcDbSymbolTable
 70
     4
  0
LAYER
  5
10
330
2
100
AcDbSymbolTableRecord
100
AcDbLayerTableRecord
  2
0
 70
     0
 62
     7
  6
Continuous
370
    -3
390
F
  0
LAYER
  5
3B
330
2
100
AcDbSymbolTableRecord
100
AcDbLayerTableRecord
  2
cuerpo
 70
     0
 62
     7
  6
Continuous
370
    -3
390
F
  0
LAYER
  5
19D
330
2
100
AcDbSymbolTableRecord
100
AcDbLayerTableRecord
  2
cotas
 70
     1
 62
     7
  6
Continuous
370
    -3
390
F
  0
LAYER
  5
4EC
330
2
100
AcDbSymbolTableRecord
100
AcDbLayerTableRecord
  2
OCULTAS
 70
     0
 62
     7
  6
Continuous
370
    -3
390
F
  0
ENDTAB
  0
TABLE
  2
STYLE
  5
3
330
0
100
AcDbSymbolTable
 70
     1
  0
STYLE
  5
11
330
3
100
AcDbSymbolTableRecord
100
AcDbTextStyleTableRecord
  2
Standard
 70
     0
 40
0.0
 41
1.0
 50
0.0
 71
     0
 42
0.2
  3
txt
  4

  0
ENDTAB
  0
TABLE
  2
VIEW
  5
6
330
0
100
AcDbSymbolTable
 70
     0
  0
ENDTAB
  0
TABLE
  2
UCS
  5
7
330
0
100
AcDbSymbolTable
 70
     0
  0
ENDTAB
  0
TABLE
  2
APPID
  5
9
330
0
100
AcDbSymbolTable
 70
     1
  0
APPID
  5
12
330
9
100
AcDbSymbolTableRecord
100
AcDbRegAppTableRecord
  2
ACAD
 70
     0
  0
ENDTAB
  0
TABLE
  2
DIMSTYLE
  5
A
330
0
100
AcDbSymbolTable
 70
     1
100
AcDbDimStyleTable
  0
DIMSTYLE
105
27
330
A
100
AcDbSymbolTableRecord
100
AcDbDimStyleTableRecord
  2
Standard
 70
     0
340
11
  0
ENDTAB
  0
TABLE
  2
BLOCK_RECORD
  5
1
330
0
100
AcDbSymbolTable
 70
   104
  0
BLOCK_RECORD
  5
1F
330
1
100
AcDbSymbolTableRecord
100
AcDbBlockTableRecord
  2
*Model_Space
340
22
  0
BLOCK_RECORD
  5
1B
330
1
100
AcDbSymbolTableRecord
100
AcDbBlockTableRecord
  2
*Paper_Space
340
1E
  0
BLOCK_RECORD
  5
23
330
1
100
AcDbSymbolTableRecord
100
AcDbBlockTableRecord
  2
*Paper_Space0
340
26
  0
BLOCK_RECORD
  5
104
330
1
100
AcDbSymbolTableRecord
100
AcDbBlockTableRecord
  2
block 2
340
0
102
{BLKREFS
331
105
102
}
  0
BLOCK_RECORD
  5
19E
330
1
100
AcDbSymbolTableRecord
100
AcDbBlockTableRecord
  2
block 3
340
0
102
{BLKREFS
331
19F
102
}
  0
BLOCK_RECORD
  5
1A6
330
1
100
AcDbSymbolTableRecord
100
AcDbBlockTableRecord
  2
block 4
340
0
102
{BLKREFS
331
1A7
102
}
  0
BLOCK_RECORD
  5
1AE
330
1
100
AcDbSymbolTableRecord
100
AcDbBlockTableRecord
  2
block 5
340
0
102
{BLKREFS
331
1AF
102
}
  0
BLOCK_RECORD
  5
1B6
330
1
100
AcDbSymbolTableRecord
100
AcDbBlockTableRecord
  2
block 6
340
0
102
{BLKREFS
331
1B7
102
}
  0
BLOCK_RECORD
  5
1BE
330
1
100
AcDbSymbolTableRecord
100
AcDbBlockTableRecord
  2
block 7
340
0
102
{BLKREFS
331
1BF
102
}
  0
BLOCK_RECORD
  5
1C9
330
1
100
AcDbSymbolTableRecord
100
AcDbBlockTableRecord
  2
block 8
340
0
102
{BLKREFS
331
1CA
102
}
  0
BLOCK_RECORD
  5
1D4
330
1
100
AcDbSymbolTableRecord
100
AcDbBlockTableRecord
  2
block 9
340
0
102
{BLKREFS
331
1D5
102
}
  0
BLOCK_RECORD
  5
1D9
330
1
100
AcDbSymbolTableRecord
100
AcDbBlockTableRecord
  2
block 10
340
0
102
{BLKREFS
331
1DA
102
}
  0
BLOCK_RECORD
  5
1E1
330
1
100
AcDbSymbolTableRecord
100
AcDbBlockTableRecord
  2
block 11
340
0
102
{BLKREFS
331
1E2
102
}
  0
BLOCK_RECORD
  5
1E9
330
1
100
AcDbSymbolTableRecord
100
AcDbBlockTableRecord
  2
block 12
340
0
102
{BLKREFS
331
1EA
102
}
  0
BLOCK_RECORD
  5
1F1
330
1
100
AcDbSymbolTableRecord
100
AcDbBlockTableRecord
  2
block 13
340
0
102
{BLKREFS
331
1F2
102
}
  0
BLOCK_RECORD
  5
1F9
330
1
100
AcDbSymbolTableRecord
100
AcDbBlockTableRecord
  2
block 14
340
0
102
{BLKREFS
331
1FA
102
}
  0
BLOCK_RECORD
  5
201
330
1
100
AcDbSymbolTableRecord
100
AcDbBlockTableRecord
  2
block 15
340
0
102
{BLKREFS
331
202
102
}
  0
BLOCK_RECORD
  5
209
330
1
100
AcDbSymbolTableRecord
100
AcDbBlockTableRecord
  2
block 16
340
0
102
{BLKREFS
331
20A
102
}
  0
BLOCK_RECORD
  5
211
330
1
100
AcDbSymbolTableRecord
100
AcDbBlockTableRecord
  2
block 17
340
0
102
{BLKREFS
331
212
102
}
  0
BLOCK_RECORD
  5
21C
330
1
100
AcDbSymbolTableRecord
100
AcDbBlockTableRecord
  2
block 18
340
0
102
{BLKREFS
331
21D
102
}
  0
BLOCK_RECORD
  5
227
330
1
100
AcDbSymbolTableRecord
100
AcDbBlockTableRecord
  2
block 19
340
0
102
{BLKREFS
331
228
102
}
  0
BLOCK_RECORD
  5
22C
330
1
100
AcDbSymbolTableRecord
100
AcDbBlockTableRecord
  2
block 20
340
0
102
{BLKREFS
331
22D
102
}
  0
BLOCK_RECORD
  5
234
330
1
100
AcDbSymbolTableRecord
100
AcDbBlockTableRecord
  2
block 21
340
0
102
{BLKREFS
331
235
102
}
  0
BLOCK_RECORD
  5
23C
330
1
100
AcDbSymbolTableRecord
100
AcDbBlockTableRecord
  2
block 22
340
0
102
{BLKREFS
331
23D
102
}
  0
BLOCK_RECORD
  5
244
330
1
100
AcDbSymbolTableRecord
100
AcDbBlockTableRecord
  2
block 23
340
0
102
{BLKREFS
331
245
102
}
  0
BLOCK_RECORD
  5
24C
330
1
100
AcDbSymbolTableRecord
100
AcDbBlockTableRecord
  2
block 24
340
0
102
{BLKREFS
331
24D
102
}
  0
BLOCK_RECORD
  5
254
330
1
100
AcDbSymbolTableRecord
100
AcDbBlockTableRecord
  2
block 25
340
0
102
{BLKREFS
331
255
102
}
  0
BLOCK_RECORD
  5
25C
330
1
100
AcDbSymbolTableRecord
100
AcDbBlockTableRecord
  2
block 26
340
0
102
{BLKREFS
331
25D
102
}
  0
BLOCK_RECORD
  5
264
330
1
100
AcDbSymbolTableRecord
100
AcDbBlockTableRecord
  2
block 27
340
0
102
{BLKREFS
331
265
102
}
  0
BLOCK_RECORD
  5
26F
330
1
100
AcDbSymbolTableRecord
100
AcDbBlockTableRecord
  2
block 28
340
0
102
{BLKREFS
331
270
102
}
  0
BLOCK_RECORD
  5
27A
330
1
100
AcDbSymbolTableRecord
100
AcDbBlockTableRecord
  2
block 29
340
0
102
{BLKREFS
331
27B
102
}
  0
BLOCK_RECORD
  5
27F
330
1
100
AcDbSymbolTableRecord
100
AcDbBlockTableRecord
  2
block 30
340
0
102
{BLKREFS
331
280
102
}
  0
BLOCK_RECORD
  5
287
330
1
100
AcDbSymbolTableRecord
100
AcDbBlockTableRecord
  2
block 31
340
0
102
{BLKREFS
331
288
102
}
  0
BLOCK_RECORD
  5
28F
330
1
100
AcDbSymbolTableRecord
100
AcDbBlockTableRecord
  2
block 32
340
0
102
{BLKREFS
331
290
102
}
  0
BLOCK_RECORD
  5
297
330
1
100
AcDbSymbolTableRecord
100
AcDbBlockTableRecord
  2
block 33
340
0
102
{BLKREFS
331
298
102
}
  0
BLOCK_RECORD
  5
29F
330
1
100
AcDbSymbolTableRecord
100
AcDbBlockTableRecord
  2
block 34
340
0
102
{BLKREFS
331
2A0
102
}
  0
BLOCK_RECORD
  5
2A7
330
1
100
AcDbSymbolTableRecord
100
AcDbBlockTableRecord
  2
block 35
340
0
102
{BLKREFS
331
2A8
102
}
  0
BLOCK_RECORD
  5
2AF
330
1
100
AcDbSymbolTableRecord
100
AcDbBlockTableRecord
  2
block 36
340
0
102
{BLKREFS
331
2B0
102
}
  0
BLOCK_RECORD
  5
2B7
330
1
100
AcDbSymbolTableRecord
100
AcDbBlockTableRecord
  2
block 37
340
0
102
{BLKREFS
331
2B8
102
}
  0
BLOCK_RECORD
  5
2C2
330
1
100
AcDbSymbolTableRecord
100
AcDbBlockTableRecord
  2
block 38
340
0
102
{BLKREFS
331
2C3
102
}
  0
BLOCK_RECORD
  5
2CD
330
1
100
AcDbSymbolTableRecord
100
AcDbBlockTableRecord
  2
block 39
340
0
102
{BLKREFS
331
2CE
102
}
  0
BLOCK_RECORD
  5
2D2
330
1
100
AcDbSymbolTableRecord
100
AcDbBlockTableRecord
  2
block 40
340
0
102
{BLKREFS
331
2D3
102
}
  0
BLOCK_RECORD
  5
2DA
330
1
100
AcDbSymbolTableRecord
100
AcDbBlockTableRecord
  2
block 41
340
0
102
{BLKREFS
331
2DB
102
}
  0
BLOCK_RECORD
  5
2E2
330
1
100
AcDbSymbolTableRecord
100
AcDbBlockTableRecord
  2
block 42
340
0
102
{BLKREFS
331
2E3
102
}
  0
BLOCK_RECORD
  5
2EA
330
1
100
AcDbSymbolTableRecord
100
AcDbBlockTableRecord
  2
block 43
340
0
102
{BLKREFS
331
2EB
102
}
  0
BLOCK_RECORD
  5
2F2
330
1
100
AcDbSymbolTableRecord
100
AcDbBlockTableRecord
  2
block 44
340
0
102
{BLKREFS
331
2F3
102
}
  0
BLOCK_RECORD
  5
2FA
330
1
100
AcDbSymbolTableRecord
100
AcDbBlockTableRecord
  2
block 45
340
0
102
{BLKREFS
331
2FB
102
}
  0
BLOCK_RECORD
  5
302
330
1
100
AcDbSymbolTableRecord
100
AcDbBlockTableRecord
  2
block 46
340
0
102
{BLKREFS
331
303
102
}
  0
BLOCK_RECORD
  5
30A
330
1
100
AcDbSymbolTableRecord
100
AcDbBlockTableRecord
  2
block 47
340
0
102
{BLKREFS
331
30B
102
}
  0
BLOCK_RECORD
  5
315
330
1
100
AcDbSymbolTableRecord
100
AcDbBlockTableRecord
  2
block 48
340
0
102
{BLKREFS
331
316
102
}
  0
BLOCK_RECORD
  5
320
330
1
100
AcDbSymbolTableRecord
100
AcDbBlockTableRecord
  2
block 49
340
0
102
{BLKREFS
331
321
102
}
  0
BLOCK_RECORD
  5
325
330
1
100
AcDbSymbolTableRecord
100
AcDbBlockTableRecord
  2
block 50
340
0
102
{BLKREFS
331
326
102
}
  0
BLOCK_RECORD
  5
32D
330
1
100
AcDbSymbolTableRecord
100
AcDbBlockTableRecord
  2
block 51
340
0
102
{BLKREFS
331
32E
102
}
  0
BLOCK_RECORD
  5
335
330
1
100
AcDbSymbolTableRecord
100
AcDbBlockTableRecord
  2
block 52
340
0
102
{BLKREFS
331
336
102
}
  0
BLOCK_RECORD
  5
33D
330
1
100
AcDbSymbolTableRecord
100
AcDbBlockTableRecord
  2
block 53
340
0
102
{BLKREFS
331
33E
102
}
  0
BLOCK_RECORD
  5
345
330
1
100
AcDbSymbolTableRecord
100
AcDbBlockTableRecord
  2
block 54
340
0
102
{BLKREFS
331
346
102
}
  0
BLOCK_RECORD
  5
34D
330
1
100
AcDbSymbolTableRecord
100
AcDbBlockTableRecord
  2
block 55
340
0
102
{BLKREFS
331
34E
102
}
  0
BLOCK_RECORD
  5
355
330
1
100
AcDbSymbolTableRecord
100
AcDbBlockTableRecord
  2
block 56
340
0
102
{BLKREFS
331
356
102
}
  0
BLOCK_RECORD
  5
35D
330
1
100
AcDbSymbolTableRecord
100
AcDbBlockTableRecord
  2
block 57
340
0
102
{BLKREFS
331
35E
102
}
  0
BLOCK_RECORD
  5
368
330
1
100
AcDbSymbolTableRecord
100
AcDbBlockTableRecord
  2
block 58
340
0
102
{BLKREFS
331
369
102
}
  0
BLOCK_RECORD
  5
373
330
1
100
AcDbSymbolTableRecord
100
AcDbBlockTableRecord
  2
block 59
340
0
102
{BLKREFS
331
374
102
}
  0
BLOCK_RECORD
  5
378
330
1
100
AcDbSymbolTableRecord
100
AcDbBlockTableRecord
  2
block 60
340
0
102
{BLKREFS
331
379
102
}
  0
BLOCK_RECORD
  5
380
330
1
100
AcDbSymbolTableRecord
100
AcDbBlockTableRecord
  2
block 61
340
0
102
{BLKREFS
331
381
102
}
  0
BLOCK_RECORD
  5
388
330
1
100
AcDbSymbolTableRecord
100
AcDbBlockTableRecord
  2
block 62
340
0
102
{BLKREFS
331
389
102
}
  0
BLOCK_RECORD
  5
390
330
1
100
AcDbSymbolTableRecord
100
AcDbBlockTableRecord
  2
block 63
340
0
102
{BLKREFS
331
391
102
}
  0
BLOCK_RECORD
  5
398
330
1
100
AcDbSymbolTableRecord
100
AcDbBlockTableRecord
  2
block 64
340
0
102
{BLKREFS
331
399
102
}
  0
BLOCK_RECORD
  5
3A0
330
1
100
AcDbSymbolTableRecord
100
AcDbBlockTableRecord
  2
block 65
340
0
102
{BLKREFS
331
3A1
102
}
  0
BLOCK_RECORD
  5
3A8
330
1
100
AcDbSymbolTableRecord
100
AcDbBlockTableRecord
  2
block 66
340
0
102
{BLKREFS
331
3A9
102
}
  0
BLOCK_RECORD
  5
3B0
330
1
100
AcDbSymbolTableRecord
100
AcDbBlockTableRecord
  2
block 67
340
0
102
{BLKREFS
331
3B1
102
}
  0
BLOCK_RECORD
  5
3BB
330
1
100
AcDbSymbolTableRecord
100
AcDbBlockTableRecord
  2
block 68
340
0
102
{BLKREFS
331
3BC
102
}
  0
BLOCK_RECORD
  5
3C6
330
1
100
AcDbSymbolTableRecord
100
AcDbBlockTableRecord
  2
block 69
340
0
102
{BLKREFS
331
3C7
102
}
  0
BLOCK_RECORD
  5
3CB
330
1
100
AcDbSymbolTableRecord
100
AcDbBlockTableRecord
  2
block 70
340
0
102
{BLKREFS
331
3CC
102
}
  0
BLOCK_RECORD
  5
3D3
330
1
100
AcDbSymbolTableRecord
100
AcDbBlockTableRecord
  2
block 71
340
0
102
{BLKREFS
331
3D4
102
}
  0
BLOCK_RECORD
  5
3DB
330
1
100
AcDbSymbolTableRecord
100
AcDbBlockTableRecord
  2
block 72
340
0
102
{BLKREFS
331
3DC
102
}
  0
BLOCK_RECORD
  5
3E3
330
1
100
AcDbSymbolTableRecord
100
AcDbBlockTableRecord
  2
block 73
340
0
102
{BLKREFS
331
3E4
102
}
  0
BLOCK_RECORD
  5
3EB
330
1
100
AcDbSymbolTableRecord
100
AcDbBlockTableRecord
  2
block 74
340
0
102
{BLKREFS
331
3EC
102
}
  0
BLOCK_RECORD
  5
3F3
330
1
100
AcDbSymbolTableRecord
100
AcDbBlockTableRecord
  2
block 75
340
0
102
{BLKREFS
331
3F4
102
}
  0
BLOCK_RECORD
  5
3FB
330
1
100
AcDbSymbolTableRecord
100
AcDbBlockTableRecord
  2
block 76
340
0
102
{BLKREFS
331
3FC
102
}
  0
BLOCK_RECORD
  5
403
330
1
100
AcDbSymbolTableRecord
100
AcDbBlockTableRecord
  2
block 77
340
0
102
{BLKREFS
331
404
102
}
  0
BLOCK_RECORD
  5
40B
330
1
100
AcDbSymbolTableRecord
100
AcDbBlockTableRecord
  2
block 78
340
0
102
{BLKREFS
331
40C
102
}
  0
BLOCK_RECORD
  5
416
330
1
100
AcDbSymbolTableRecord
100
AcDbBlockTableRecord
  2
block 79
340
0
102
{BLKREFS
331
417
102
}
  0
BLOCK_RECORD
  5
421
330
1
100
AcDbSymbolTableRecord
100
AcDbBlockTableRecord
  2
block 80
340
0
102
{BLKREFS
331
422
102
}
  0
BLOCK_RECORD
  5
426
330
1
100
AcDbSymbolTableRecord
100
AcDbBlockTableRecord
  2
block 81
340
0
102
{BLKREFS
331
427
102
}
  0
BLOCK_RECORD
  5
42E
330
1
100
AcDbSymbolTableRecord
100
AcDbBlockTableRecord
  2
block 82
340
0
102
{BLKREFS
331
42F
102
}
  0
BLOCK_RECORD
  5
436
330
1
100
AcDbSymbolTableRecord
100
AcDbBlockTableRecord
  2
block 83
340
0
102
{BLKREFS
331
437
102
}
  0
BLOCK_RECORD
  5
43E
330
1
100
AcDbSymbolTableRecord
100
AcDbBlockTableRecord
  2
block 84
340
0
102
{BLKREFS
331
43F
102
}
  0
BLOCK_RECORD
  5
446
330
1
100
AcDbSymbolTableRecord
100
AcDbBlockTableRecord
  2
block 85
340
0
102
{BLKREFS
331
447
102
}
  0
BLOCK_RECORD
  5
44E
330
1
100
AcDbSymbolTableRecord
100
AcDbBlockTableRecord
  2
block 86
340
0
102
{BLKREFS
331
44F
102
}
  0
BLOCK_RECORD
  5
456
330
1
100
AcDbSymbolTableRecord
100
AcDbBlockTableRecord
  2
block 87
340
0
102
{BLKREFS
331
457
102
}
  0
BLOCK_RECORD
  5
45E
330
1
100
AcDbSymbolTableRecord
100
AcDbBlockTableRecord
  2
block 88
340
0
102
{BLKREFS
331
45F
102
}
  0
BLOCK_RECORD
  5
466
330
1
100
AcDbSymbolTableRecord
100
AcDbBlockTableRecord
  2
block 89
340
0
102
{BLKREFS
331
467
102
}
  0
BLOCK_RECORD
  5
471
330
1
100
AcDbSymbolTableRecord
100
AcDbBlockTableRecord
  2
block 90
340
0
102
{BLKREFS
331
472
102
}
  0
BLOCK_RECORD
  5
47C
330
1
100
AcDbSymbolTableRecord
100
AcDbBlockTableRecord
  2
block 91
340
0
102
{BLKREFS
331
47D
102
}
  0
BLOCK_RECORD
  5
481
330
1
100
AcDbSymbolTableRecord
100
AcDbBlockTableRecord
  2
block 92
340
0
102
{BLKREFS
331
482
102
}
  0
BLOCK_RECORD
  5
489
330
1
100
AcDbSymbolTableRecord
100
AcDbBlockTableRecord
  2
block 93
340
0
102
{BLKREFS
331
48A
102
}
  0
BLOCK_RECORD
  5
491
330
1
100
AcDbSymbolTableRecord
100
AcDbBlockTableRecord
  2
block 94
340
0
102
{BLKREFS
331
492
102
}
  0
BLOCK_RECORD
  5
499
330
1
100
AcDbSymbolTableRecord
100
AcDbBlockTableRecord
  2
block 95
340
0
102
{BLKREFS
331
49A
102
}
  0
BLOCK_RECORD
  5
4A1
330
1
100
AcDbSymbolTableRecord
100
AcDbBlockTableRecord
  2
block 96
340
0
102
{BLKREFS
331
4A2
102
}
  0
BLOCK_RECORD
  5
4A9
330
1
100
AcDbSymbolTableRecord
100
AcDbBlockTableRecord
  2
block 97
340
0
102
{BLKREFS
331
4AA
102
}
  0
BLOCK_RECORD
  5
4B1
330
1
100
AcDbSymbolTableRecord
100
AcDbBlockTableRecord
  2
block 98
340
0
102
{BLKREFS
331
4B2
102
}
  0
BLOCK_RECORD
  5
4B9
330
1
100
AcDbSymbolTableRecord
100
AcDbBlockTableRecord
  2
block 99
340
0
102
{BLKREFS
331
4BA
102
}
  0
BLOCK_RECORD
  5
4C4
330
1
100
AcDbSymbolTableRecord
100
AcDbBlockTableRecord
  2
block 100
340
0
102
{BLKREFS
331
4C5
102
}
  0
BLOCK_RECORD
  5
4CF
330
1
100
AcDbSymbolTableRecord
100
AcDbBlockTableRecord
  2
block 101
340
0
102
{BLKREFS
331
4D0
102
}
  0
BLOCK_RECORD
  5
4D4
330
1
100
AcDbSymbolTableRecord
100
AcDbBlockTableRecord
  2
block 102
340
0
102
{BLKREFS
331
4D5
102
}
  0
BLOCK_RECORD
  5
4DC
330
1
100
AcDbSymbolTableRecord
100
AcDbBlockTableRecord
  2
block 103
340
0
102
{BLKREFS
331
4DD
102
}
  0
BLOCK_RECORD
  5
4E4
330
1
100
AcDbSymbolTableRecord
100
AcDbBlockTableRecord
  2
block 104
340
0
102
{BLKREFS
331
4E5
102
}
  0
ENDTAB
  0
ENDSEC
  0
SECTION
  2
BLOCKS
  0
BLOCK
  5
20
330
1F
100
AcDbEntity
  8
0
100
AcDbBlockBegin
  2
*Model_Space
 70
     0
 71
     0
 10
0.0
 20
0.0
 30
0.0
  3
*Model_Space
  1

  0
ENDBLK
  5
21
330
1F
100
AcDbEntity
  8
0
100
AcDbBlockEnd
  0
BLOCK
  5
1C
330
1B
100
AcDbEntity
 67
     1
  8
0
100
AcDbBlockBegin
  2
*Paper_Space
 70
     0
 71
     0
 10
0.0
 20
0.0
 30
0.0
  3
*Paper_Space
  1

  0
ENDBLK
  5
1D
330
1B
100
AcDbEntity
 67
     1
  8
0
100
AcDbBlockEnd
  0
BLOCK
  5
24
330
23
100
AcDbEntity
  8
0
100
AcDbBlockBegin
  2
*Paper_Space0
 70
     0
 71
     0
 10
0.0
 20
0.0
 30
0.0
  3
*Paper_Space0
  1

  0
ENDBLK
  5
25
330
23
100
AcDbEntity
  8
0
100
AcDbBlockEnd
  0
BLOCK
  5
106
330
104
100
AcDbEntity
  8
0
100
AcDbBlockBegin
  2
block 2
 70
     0
 71
     0
 10
0.0
 20
0.0
 30
0.0
  3
block 2
  1

  0
SPLINE
  5
108
330
104
100
AcDbEntity
  8
cuerpo
 62
     7
420
 16777215
370
     9
100
AcDbSpline
210
0.0
220
0.0
230
1.0
 70
     8
 71
     3
 72
     8
 73
     4
 74
     0
 42
0.0000000001
 43
0.0000000001
 40
0.0
 40
0.0
 40
0.0
 40
0.0
 40
1.0
 40
1.0
 40
1.0
 40
1.0
 10
43.48606227211459
 20
169.6711249033287
 30
0.0
 10
43.48761256508296
 20
169.6656127505524
 30
0.0
 10
43.48916285805132
 20
169.660100597776
 30
0.0
 10
43.49071315101968
 20
169.6544161902253
 30
0.0
  0
ENDBLK
  5
107
330
104
100
AcDbEntity
  8
0
100
AcDbBlockEnd
  0
BLOCK
  5
1A0
330
19E
100
AcDbEntity
  8
0
100
AcDbBlockBegin
  2
block 3
 70
     0
 71
     0
 10
0.0
 20
0.0
 30
0.0
  3
block 3
  1

  0
POLYLINE
  5
1A2
330
19E
100
AcDbEntity
  8
cotas
 62
   253
420
 11711154
370
     9
100
AcDb2dPolyline
 66
     1
 10
0.0
 20
0.0
 30
0.0
  0
VERTEX
  5
1A3
330
1A2
100
AcDbEntity
  8
cotas
 62
   253
420
 11711154
370
     9
100
AcDbVertex
100
AcDb2dVertex
 10
68.92068547539137
 20
181.2016872376857
 30
0.0
  0
VERTEX
  5
1A4
330
1A2
100
AcDbEntity
  8
cotas
 62
   253
420
 11711154
370
     9
100
AcDbVertex
100
AcDb2dVertex
 10
48.08715954744002
 20
181.2016872376857
 30
0.0
  0
SEQEND
  5
1A5
330
1A2
100
AcDbEntity
  8
cotas
370
     9
  0
ENDBLK
  5
1A1
330
19E
100
AcDbEntity
  8
0
100
AcDbBlockEnd
  0
BLOCK
  5
1A8
330
1A6
100
AcDbEntity
  8
0
100
AcDbBlockBegin
  2
block 4
 70
     0
 71
     0
 10
0.0
 20
0.0
 30
0.0
  3
block 4
  1

  0
POLYLINE
  5
1AA
330
1A6
100
AcDbEntity
  8
cotas
 62
   253
420
 11711154
370
     9
100
AcDb2dPolyline
 66
     1
 10
0.0
 20
0.0
 30
0.0
  0
VERTEX
  5
1AB
330
1AA
100
AcDbEntity
  8
cotas
 62
   253
420
 11711154
370
     9
100
AcDbVertex
100
AcDb2dVertex
 10
61.44138317691396
 20
139.7241156334718
 30
0.0
  0
VERTEX
  5
1AC
330
1AA
100
AcDbEntity
  8
cotas
 62
   253
420
 11711154
370
     9
100
AcDbVertex
100
AcDb2dVertex
 10
48.08715954744002
 20
139.7241156334718
 30
0.0
  0
SEQEND
  5
1AD
330
1AA
100
AcDbEntity
  8
cotas
370
     9
  0
ENDBLK
  5
1A9
330
1A6
100
AcDbEntity
  8
0
100
AcDbBlockEnd
  0
BLOCK
  5
1B0
330
1AE
100
AcDbEntity
  8
0
100
AcDbBlockBegin
  2
block 5
 70
     0
 71
     0
 10
0.0
 20
0.0
 30
0.0
  3
block 5
  1

  0
POLYLINE
  5
1B2
330
1AE
100
AcDbEntity
  8
cotas
 62
   253
420
 11711154
370
     9
100
AcDb2dPolyline
 66
     1
 10
0.0
 20
0.0
 30
0.0
  0
VERTEX
  5
1B3
330
1B2
100
AcDbEntity
  8
cotas
 62
   253
420
 11711154
370
     9
100
AcDbVertex
100
AcDb2dVertex
 10
48.76394855551735
 20
179.848109221531
 30
0.0
  0
VERTEX
  5
1B4
330
1B2
100
AcDbEntity
  8
cotas
 62
   253
420
 11711154
370
     9
100
AcDbVertex
100
AcDb2dVertex
 10
48.76394855551735
 20
161.8164794517334
 30
0.0
  0
SEQEND
  5
1B5
330
1B2
100
AcDbEntity
  8
cotas
370
     9
  0
ENDBLK
  5
1B1
330
1AE
100
AcDbEntity
  8
0
100
AcDbBlockEnd
  0
BLOCK
  5
1B8
330
1B6
100
AcDbEntity
  8
0
100
AcDbBlockBegin
  2
block 6
 70
     0
 71
     0
 10
0.0
 20
0.0
 30
0.0
  3
block 6
  1

  0
POLYLINE
  5
1BA
330
1B6
100
AcDbEntity
  8
cotas
 62
   253
420
 11711154
370
     9
100
AcDb2dPolyline
 66
     1
 10
0.0
 20
0.0
 30
0.0
  0
VERTEX
  5
1BB
330
1BA
100
AcDbEntity
  8
cotas
 62
   253
420
 11711154
370
     9
100
AcDbVertex
100
AcDb2dVertex
 10
48.76394855551735
 20
141.0776936496264
 30
0.0
  0
VERTEX
  5
1BC
330
1BA
100
AcDbEntity
  8
cotas
 62
   253
420
 11711154
370
     9
100
AcDbVertex
100
AcDb2dVertex
 10
48.76394855551735
 20
159.1093234194241
 30
0.0
  0
SEQEND
  5
1BD
330
1BA
100
AcDbEntity
  8
cotas
370
     9
  0
ENDBLK
  5
1B9
330
1B6
100
AcDbEntity
  8
0
100
AcDbBlockEnd
  0
BLOCK
  5
1C0
330
1BE
100
AcDbEntity
  8
0
100
AcDbBlockBegin
  2
block 7
 70
     0
 71
     0
 10
0.0
 20
0.0
 30
0.0
  3
block 7
  1

  0
POLYLINE
  5
1C2
330
1BE
100
AcDbEntity
  8
cotas
370
     0
100
AcDb2dPolyline
 66
     1
 10
0.0
 20
0.0
 30
0.0
  0
VERTEX
  5
1C3
330
1C2
100
AcDbEntity
  8
cotas
370
     0
100
AcDbVertex
100
AcDb2dVertex
 10
48.98960230980121
 20
179.848109221531
 30
0.0
  0
VERTEX
  5
1C4
330
1C2
100
AcDbEntity
  8
cotas
370
     0
100
AcDbVertex
100
AcDb2dVertex
 10
48.53846705600775
 20
179.848109221531
 30
0.0
  0
VERTEX
  5
1C5
330
1C2
100
AcDbEntity
  8
cotas
370
     0
100
AcDbVertex
100
AcDb2dVertex
 10
48.76394855551735
 20
181.2016872376857
 30
0.0
  0
VERTEX
  5
1C6
330
1C2
100
AcDbEntity
  8
cotas
370
     0
100
AcDbVertex
100
AcDb2dVertex
 10
48.98960230980121
 20
179.848109221531
 30
0.0
  0
SEQEND
  5
1C7
330
1C2
100
AcDbEntity
  8
cotas
370
     0
  0
HATCH
  5
1C8
330
1BE
100
AcDbEntity
  8
cotas
 62
   253
420
 11711154
100
AcDbHatch
 10
0.0
 20
0.0
 30
0.0
210
0.0
220
0.0
230
1.0
  2
SOLID
 70
     1
 71
     0
 91
        1
 92
        1
 93
        3
 72
     1
 10
48.98960230980121
 20
179.848109221531
 11
48.53846705600775
 21
179.848109221531
 72
     1
 10
48.53846705600775
 20
179.848109221531
 11
48.76394855551735
 21
181.2016872376857
 72
     1
 10
48.76394855551735
 20
181.2016872376857
 11
48.98960230980121
 21
179.848109221531
 97
        0
 75
     2
 76
     1
 98
        0
  0
ENDBLK
  5
1C1
330
1BE
100
AcDbEntity
  8
0
100
AcDbBlockEnd
  0
BLOCK
  5
1CB
330
1C9
100
AcDbEntity
  8
0
100
AcDbBlockBegin
  2
block 8
 70
     0
 71
     0
 10
0.0
 20
0.0
 30
0.0
  3
block 8
  1

  0
POLYLINE
  5
1CD
330
1C9
100
AcDbEntity
  8
cotas
370
     0
100
AcDb2dPolyline
 66
     1
 10
0.0
 20
0.0
 30
0.0
  0
VERTEX
  5
1CE
330
1CD
100
AcDbEntity
  8
cotas
370
     0
100
AcDbVertex
100
AcDb2dVertex
 10
48.53846705600775
 20
141.0776936496264
 30
0.0
  0
VERTEX
  5
1CF
330
1CD
100
AcDbEntity
  8
cotas
370
     0
100
AcDbVertex
100
AcDb2dVertex
 10
48.98960230980121
 20
141.0776936496264
 30
0.0
  0
VERTEX
  5
1D0
330
1CD
100
AcDbEntity
  8
cotas
370
     0
100
AcDbVertex
100
AcDb2dVertex
 10
48.76394855551735
 20
139.7241156334718
 30
0.0
  0
VERTEX
  5
1D1
330
1CD
100
AcDbEntity
  8
cotas
370
     0
100
AcDbVertex
100
AcDb2dVertex
 10
48.53846705600775
 20
141.0776936496264
 30
0.0
  0
SEQEND
  5
1D2
330
1CD
100
AcDbEntity
  8
cotas
370
     0
  0
HATCH
  5
1D3
330
1C9
100
AcDbEntity
  8
cotas
 62
   253
420
 11711154
100
AcDbHatch
 10
0.0
 20
0.0
 30
0.0
210
0.0
220
0.0
230
1.0
  2
SOLID
 70
     1
 71
     0
 91
        1
 92
        1
 93
        3
 72
     1
 10
48.53846705600775
 20
141.0776936496264
 11
48.98960230980121
 21
141.0776936496264
 72
     1
 10
48.98960230980121
 20
141.0776936496264
 11
48.76394855551735
 21
139.7241156334718
 72
     1
 10
48.76394855551735
 20
139.7241156334718
 11
48.53846705600775
 21
141.0776936496264
 97
        0
 75
     2
 76
     1
 98
        0
  0
ENDBLK
  5
1CC
330
1C9
100
AcDbEntity
  8
0
100
AcDbBlockEnd
  0
BLOCK
  5
1D6
330
1D4
100
AcDbEntity
  8
0
100
AcDbBlockBegin
  2
block 9
 70
     0
 71
     0
 10
0.0
 20
0.0
 30
0.0
  3
block 9
  1

  0
MTEXT
  5
1D8
330
1D4
100
AcDbEntity
  8
cotas
 62
   253
420
 11711154
100
AcDbMText
 10
46.83021645964661
 20
159.7861124275014
 30
0.0
 40
1.353581844786167
 41
0.0
 71
     7
 72
     1
  1
\fMyriad Pro|b0|i0|c0|p34;\W1;305
 73
     1
 44
1.0
  0
ENDBLK
  5
1D7
330
1D4
100
AcDbEntity
  8
0
100
AcDbBlockEnd
  0
BLOCK
  5
1DB
330
1D9
100
AcDbEntity
  8
0
100
AcDbBlockBegin
  2
block 10
 70
     0
 71
     0
 10
0.0
 20
0.0
 30
0.0
  3
block 10
  1

  0
POLYLINE
  5
1DD
330
1D9
100
AcDbEntity
  8
cotas
 62
   253
420
 11711154
370
     9
100
AcDb2dPolyline
 66
     1
 10
0.0
 20
0.0
 30
0.0
  0
VERTEX
  5
1DE
330
1DD
100
AcDbEntity
  8
cotas
 62
   253
420
 11711154
370
     9
100
AcDbVertex
100
AcDb2dVertex
 10
70.00365124117964
 20
181.2016872376857
 30
0.0
  0
VERTEX
  5
1DF
330
1DD
100
AcDbEntity
  8
cotas
 62
   253
420
 11711154
370
     9
100
AcDbVertex
100
AcDb2dVertex
 10
70.00365124117964
 20
181.2016872376857
 30
0.0
  0
SEQEND
  5
1E0
330
1DD
100
AcDbEntity
  8
cotas
370
     9
  0
ENDBLK
  5
1DC
330
1D9
100
AcDbEntity
  8
0
100
AcDbBlockEnd
  0
BLOCK
  5
1E3
330
1E1
100
AcDbEntity
  8
0
100
AcDbBlockBegin
  2
block 11
 70
     0
 71
     0
 10
0.0
 20
0.0
 30
0.0
  3
block 11
  1

  0
POLYLINE
  5
1E5
330
1E1
100
AcDbEntity
  8
cotas
 62
   253
420
 11711154
370
     9
100
AcDb2dPolyline
 66
     1
 10
0.0
 20
0.0
 30
0.0
  0
VERTEX
  5
1E6
330
1E5
100
AcDbEntity
  8
cotas
 62
   253
420
 11711154
370
     9
100
AcDbVertex
100
AcDb2dVertex
 10
62.52434894270225
 20
139.7241156334718
 30
0.0
  0
VERTEX
  5
1E7
330
1E5
100
AcDbEntity
  8
cotas
 62
   253
420
 11711154
370
     9
100
AcDbVertex
100
AcDb2dVertex
 10
62.52434894270225
 20
139.7241156334718
 30
0.0
  0
SEQEND
  5
1E8
330
1E5
100
AcDbEntity
  8
cotas
370
     9
  0
ENDBLK
  5
1E4
330
1E1
100
AcDbEntity
  8
0
100
AcDbBlockEnd
  0
BLOCK
  5
1EB
330
1E9
100
AcDbEntity
  8
0
100
AcDbBlockBegin
  2
block 12
 70
     0
 71
     0
 10
0.0
 20
0.0
 30
0.0
  3
block 12
  1

  0
POLYLINE
  5
1ED
330
1E9
100
AcDbEntity
  8
cotas
 62
   253
420
 11711154
370
     9
100
AcDb2dPolyline
 66
     1
 10
0.0
 20
0.0
 30
0.0
  0
VERTEX
  5
1EE
330
1ED
100
AcDbEntity
  8
cotas
 62
   253
420
 11711154
370
     9
100
AcDbVertex
100
AcDb2dVertex
 10
48.76394855551735
 20
139.7241156334718
 30
0.0
  0
VERTEX
  5
1EF
330
1ED
100
AcDbEntity
  8
cotas
 62
   253
420
 11711154
370
     9
100
AcDbVertex
100
AcDb2dVertex
 10
48.76394855551735
 20
139.7241156334718
 30
0.0
  0
SEQEND
  5
1F0
330
1ED
100
AcDbEntity
  8
cotas
370
     9
  0
ENDBLK
  5
1EC
330
1E9
100
AcDbEntity
  8
0
100
AcDbBlockEnd
  0
BLOCK
  5
1F3
330
1F1
100
AcDbEntity
  8
0
100
AcDbBlockBegin
  2
block 13
 70
     0
 71
     0
 10
0.0
 20
0.0
 30
0.0
  3
block 13
  1

  0
POLYLINE
  5
1F5
330
1F1
100
AcDbEntity
  8
cotas
 62
   253
420
 11711154
370
     9
100
AcDb2dPolyline
 66
     1
 10
0.0
 20
0.0
 30
0.0
  0
VERTEX
  5
1F6
330
1F5
100
AcDbEntity
  8
cotas
 62
   253
420
 11711154
370
     9
100
AcDbVertex
100
AcDb2dVertex
 10
82.36689315432147
 20
165.7320027254941
 30
0.0
  0
VERTEX
  5
1F7
330
1F5
100
AcDbEntity
  8
cotas
 62
   253
420
 11711154
370
     9
100
AcDbVertex
100
AcDb2dVertex
 10
82.36689315432147
 20
160.4856390657814
 30
0.0
  0
SEQEND
  5
1F8
330
1F5
100
AcDbEntity
  8
cotas
370
     9
  0
ENDBLK
  5
1F4
330
1F1
100
AcDbEntity
  8
0
100
AcDbBlockEnd
  0
BLOCK
  5
1FB
330
1F9
100
AcDbEntity
  8
0
100
AcDbBlockBegin
  2
block 14
 70
     0
 71
     0
 10
0.0
 20
0.0
 30
0.0
  3
block 14
  1

  0
POLYLINE
  5
1FD
330
1F9
100
AcDbEntity
  8
cotas
 62
   253
420
 11711154
370
     9
100
AcDb2dPolyline
 66
     1
 10
0.0
 20
0.0
 30
0.0
  0
VERTEX
  5
1FE
330
1FD
100
AcDbEntity
  8
cotas
 62
   253
420
 11711154
370
     9
100
AcDbVertex
100
AcDb2dVertex
 10
57.31639809765007
 20
162.5592420383533
 30
0.0
  0
VERTEX
  5
1FF
330
1FD
100
AcDbEntity
  8
cotas
 62
   253
420
 11711154
370
     9
100
AcDbVertex
100
AcDb2dVertex
 10
57.31639809765007
 20
160.4856390657814
 30
0.0
  0
SEQEND
  5
200
330
1FD
100
AcDbEntity
  8
cotas
370
     9
  0
ENDBLK
  5
1FC
330
1F9
100
AcDbEntity
  8
0
100
AcDbBlockEnd
  0
BLOCK
  5
203
330
201
100
AcDbEntity
  8
0
100
AcDbBlockBegin
  2
block 15
 70
     0
 71
     0
 10
0.0
 20
0.0
 30
0.0
  3
block 15
  1

  0
POLYLINE
  5
205
330
201
100
AcDbEntity
  8
cotas
 62
   253
420
 11711154
370
     9
100
AcDb2dPolyline
 66
     1
 10
0.0
 20
0.0
 30
0.0
  0
VERTEX
  5
206
330
205
100
AcDbEntity
  8
cotas
 62
   253
420
 11711154
370
     9
100
AcDbVertex
100
AcDb2dVertex
 10
81.01331513816682
 20
161.1624280738587
 30
0.0
  0
VERTEX
  5
207
330
205
100
AcDbEntity
  8
cotas
 62
   253
420
 11711154
370
     9
100
AcDbVertex
100
AcDb2dVertex
 10
72.0975802771145
 20
161.1624280738587
 30
0.0
  0
SEQEND
  5
208
330
205
100
AcDbEntity
  8
cotas
370
     9
  0
ENDBLK
  5
204
330
201
100
AcDbEntity
  8
0
100
AcDbBlockEnd
  0
BLOCK
  5
20B
330
209
100
AcDbEntity
  8
0
100
AcDbBlockBegin
  2
block 16
 70
     0
 71
     0
 10
0.0
 20
0.0
 30
0.0
  3
block 16
  1

  0
POLYLINE
  5
20D
330
209
100
AcDbEntity
  8
cotas
 62
   253
420
 11711154
370
     9
100
AcDb2dPolyline
 66
     1
 10
0.0
 20
0.0
 30
0.0
  0
VERTEX
  5
20E
330
20D
100
AcDbEntity
  8
cotas
 62
   253
420
 11711154
370
     9
100
AcDbVertex
100
AcDb2dVertex
 10
58.66997611380473
 20
161.1624280738587
 30
0.0
  0
VERTEX
  5
20F
330
20D
100
AcDbEntity
  8
cotas
 62
   253
420
 11711154
370
     9
100
AcDbVertex
100
AcDb2dVertex
 10
67.58571097485705
 20
161.1624280738587
 30
0.0
  0
SEQEND
  5
210
330
20D
100
AcDbEntity
  8
cotas
370
     9
  0
ENDBLK
  5
20C
330
209
100
AcDbEntity
  8
0
100
AcDbBlockEnd
  0
BLOCK
  5
213
330
211
100
AcDbEntity
  8
0
100
AcDbBlockBegin
  2
block 17
 70
     0
 71
     0
 10
0.0
 20
0.0
 30
0.0
  3
block 17
  1

  0
POLYLINE
  5
215
330
211
100
AcDbEntity
  8
cotas
370
     0
100
AcDb2dPolyline
 66
     1
 10
0.0
 20
0.0
 30
0.0
  0
VERTEX
  5
216
330
215
100
AcDbEntity
  8
cotas
370
     0
100
AcDbVertex
100
AcDb2dVertex
 10
81.01331513816682
 20
160.9367743195749
 30
0.0
  0
VERTEX
  5
217
330
215
100
AcDbEntity
  8
cotas
370
     0
100
AcDbVertex
100
AcDb2dVertex
 10
81.01331513816682
 20
161.3880818281426
 30
0.0
  0
VERTEX
  5
218
330
215
100
AcDbEntity
  8
cotas
370
     0
100
AcDbVertex
100
AcDb2dVertex
 10
82.36689315432147
 20
161.1624280738587
 30
0.0
  0
VERTEX
  5
219
330
215
100
AcDbEntity
  8
cotas
370
     0
100
AcDbVertex
100
AcDb2dVertex
 10
81.01331513816682
 20
160.9367743195749
 30
0.0
  0
SEQEND
  5
21A
330
215
100
AcDbEntity
  8
cotas
370
     0
  0
HATCH
  5
21B
330
211
100
AcDbEntity
  8
cotas
 62
   253
420
 11711154
100
AcDbHatch
 10
0.0
 20
0.0
 30
0.0
210
0.0
220
0.0
230
1.0
  2
SOLID
 70
     1
 71
     0
 91
        1
 92
        1
 93
        3
 72
     1
 10
81.01331513816682
 20
160.9367743195749
 11
81.01331513816682
 21
161.3880818281426
 72
     1
 10
81.01331513816682
 20
161.3880818281426
 11
82.36689315432147
 21
161.1624280738587
 72
     1
 10
82.36689315432147
 20
161.1624280738587
 11
81.01331513816682
 21
160.9367743195749
 97
        0
 75
     2
 76
     1
 98
        0
  0
ENDBLK
  5
214
330
211
100
AcDbEntity
  8
0
100
AcDbBlockEnd
  0
BLOCK
  5
21E
330
21C
100
AcDbEntity
  8
0
100
AcDbBlockBegin
  2
block 18
 70
     0
 71
     0
 10
0.0
 20
0.0
 30
0.0
  3
block 18
  1

  0
POLYLINE
  5
220
330
21C
100
AcDbEntity
  8
cotas
370
     0
100
AcDb2dPolyline
 66
     1
 10
0.0
 20
0.0
 30
0.0
  0
VERTEX
  5
221
330
220
100
AcDbEntity
  8
cotas
370
     0
100
AcDbVertex
100
AcDb2dVertex
 10
58.66997611380473
 20
161.3880818281426
 30
0.0
  0
VERTEX
  5
222
330
220
100
AcDbEntity
  8
cotas
370
     0
100
AcDbVertex
100
AcDb2dVertex
 10
58.66997611380473
 20
160.9367743195749
 30
0.0
  0
VERTEX
  5
223
330
220
100
AcDbEntity
  8
cotas
370
     0
100
AcDbVertex
100
AcDb2dVertex
 10
57.31639809765007
 20
161.1624280738587
 30
0.0
  0
VERTEX
  5
224
330
220
100
AcDbEntity
  8
cotas
370
     0
100
AcDbVertex
100
AcDb2dVertex
 10
58.66997611380473
 20
161.3880818281426
 30
0.0
  0
SEQEND
  5
225
330
220
100
AcDbEntity
  8
cotas
370
     0
  0
HATCH
  5
226
330
21C
100
AcDbEntity
  8
cotas
 62
   253
420
 11711154
100
AcDbHatch
 10
0.0
 20
0.0
 30
0.0
210
0.0
220
0.0
230
1.0
  2
SOLID
 70
     1
 71
     0
 91
        1
 92
        1
 93
        3
 72
     1
 10
58.66997611380473
 20
161.3880818281426
 11
58.66997611380473
 21
160.9367743195749
 72
     1
 10
58.66997611380473
 20
160.9367743195749
 11
57.31639809765007
 21
161.1624280738587
 72
     1
 10
57.31639809765007
 20
161.1624280738587
 11
58.66997611380473
 21
161.3880818281426
 97
        0
 75
     2
 76
     1
 98
        0
  0
ENDBLK
  5
21F
330
21C
100
AcDbEntity
  8
0
100
AcDbBlockEnd
  0
BLOCK
  5
229
330
227
100
AcDbEntity
  8
0
100
AcDbBlockBegin
  2
block 19
 70
     0
 71
     0
 10
0.0
 20
0.0
 30
0.0
  3
block 19
  1

  0
MTEXT
  5
22B
330
227
100
AcDbEntity
  8
cotas
 62
   253
420
 11711154
100
AcDbMText
 10
67.81119247436665
 20
160.4858113205556
 30
0.0
 40
1.353581844786167
 41
0.0
 71
     7
 72
     1
  1
\fMyriad Pro|b0|i0|c0|p34;\W1;185
 73
     1
 44
1.0
  0
ENDBLK
  5
22A
330
227
100
AcDbEntity
  8
0
100
AcDbBlockEnd
  0
BLOCK
  5
22E
330
22C
100
AcDbEntity
  8
0
100
AcDbBlockBegin
  2
block 20
 70
     0
 71
     0
 10
0.0
 20
0.0
 30
0.0
  3
block 20
  1

  0
POLYLINE
  5
230
330
22C
100
AcDbEntity
  8
cotas
 62
   253
420
 11711154
370
     9
100
AcDb2dPolyline
 66
     1
 10
0.0
 20
0.0
 30
0.0
  0
VERTEX
  5
231
330
230
100
AcDbEntity
  8
cotas
 62
   253
420
 11711154
370
     9
100
AcDbVertex
100
AcDb2dVertex
 10
82.36689315432147
 20
166.8147962365081
 30
0.0
  0
VERTEX
  5
232
330
230
100
AcDbEntity
  8
cotas
 62
   253
420
 11711154
370
     9
100
AcDbVertex
100
AcDb2dVertex
 10
82.36689315432147
 20
166.8147962365081
 30
0.0
  0
SEQEND
  5
233
330
230
100
AcDbEntity
  8
cotas
370
     9
  0
ENDBLK
  5
22F
330
22C
100
AcDbEntity
  8
0
100
AcDbBlockEnd
  0
BLOCK
  5
236
330
234
100
AcDbEntity
  8
0
100
AcDbBlockBegin
  2
block 21
 70
     0
 71
     0
 10
0.0
 20
0.0
 30
0.0
  3
block 21
  1

  0
POLYLINE
  5
238
330
234
100
AcDbEntity
  8
cotas
 62
   253
420
 11711154
370
     9
100
AcDb2dPolyline
 66
     1
 10
0.0
 20
0.0
 30
0.0
  0
VERTEX
  5
239
330
238
100
AcDbEntity
  8
cotas
 62
   253
420
 11711154
370
     9
100
AcDbVertex
100
AcDb2dVertex
 10
57.31639809765007
 20
163.6422078041415
 30
0.0
  0
VERTEX
  5
23A
330
238
100
AcDbEntity
  8
cotas
 62
   253
420
 11711154
370
     9
100
AcDbVertex
100
AcDb2dVertex
 10
57.31639809765007
 20
163.6422078041415
 30
0.0
  0
SEQEND
  5
23B
330
238
100
AcDbEntity
  8
cotas
370
     9
  0
ENDBLK
  5
237
330
234
100
AcDbEntity
  8
0
100
AcDbBlockEnd
  0
BLOCK
  5
23E
330
23C
100
AcDbEntity
  8
0
100
AcDbBlockBegin
  2
block 22
 70
     0
 71
     0
 10
0.0
 20
0.0
 30
0.0
  3
block 22
  1

  0
POLYLINE
  5
240
330
23C
100
AcDbEntity
  8
cotas
 62
   253
420
 11711154
370
     9
100
AcDb2dPolyline
 66
     1
 10
0.0
 20
0.0
 30
0.0
  0
VERTEX
  5
241
330
240
100
AcDbEntity
  8
cotas
 62
   253
420
 11711154
370
     9
100
AcDbVertex
100
AcDb2dVertex
 10
57.31639809765007
 20
161.1624280738587
 30
0.0
  0
VERTEX
  5
242
330
240
100
AcDbEntity
  8
cotas
 62
   253
420
 11711154
370
     9
100
AcDbVertex
100
AcDb2dVertex
 10
57.31639809765007
 20
161.1624280738587
 30
0.0
  0
SEQEND
  5
243
330
240
100
AcDbEntity
  8
cotas
370
     9
  0
ENDBLK
  5
23F
330
23C
100
AcDbEntity
  8
0
100
AcDbBlockEnd
  0
BLOCK
  5
246
330
244
100
AcDbEntity
  8
0
100
AcDbBlockBegin
  2
block 23
 70
     0
 71
     0
 10
0.0
 20
0.0
 30
0.0
  3
block 23
  1

  0
POLYLINE
  5
248
330
244
100
AcDbEntity
  8
cotas
 62
   253
420
 11711154
370
     9
100
AcDb2dPolyline
 66
     1
 10
0.0
 20
0.0
 30
0.0
  0
VERTEX
  5
249
330
248
100
AcDbEntity
  8
cotas
 62
   253
420
 11711154
370
     9
100
AcDbVertex
100
AcDb2dVertex
 10
83.44985892010976
 20
166.8147962365081
 30
0.0
  0
VERTEX
  5
24A
330
248
100
AcDbEntity
  8
cotas
 62
   253
420
 11711154
370
     9
100
AcDbVertex
100
AcDb2dVertex
 10
86.7654188151142
 20
166.8147962365081
 30
0.0
  0
SEQEND
  5
24B
330
248
100
AcDbEntity
  8
cotas
370
     9
  0
ENDBLK
  5
247
330
244
100
AcDbEntity
  8
0
100
AcDbBlockEnd
  0
BLOCK
  5
24E
330
24C
100
AcDbEntity
  8
0
100
AcDbBlockBegin
  2
block 24
 70
     0
 71
     0
 10
0.0
 20
0.0
 30
0.0
  3
block 24
  1

  0
POLYLINE
  5
250
330
24C
100
AcDbEntity
  8
cotas
 62
   253
420
 11711154
370
     9
100
AcDb2dPolyline
 66
     1
 10
0.0
 20
0.0
 30
0.0
  0
VERTEX
  5
251
330
250
100
AcDbEntity
  8
cotas
 62
   253
420
 11711154
370
     9
100
AcDbVertex
100
AcDb2dVertex
 10
69.3328911502015
 20
139.7241156334718
 30
0.0
  0
VERTEX
  5
252
330
250
100
AcDbEntity
  8
cotas
 62
   253
420
 11711154
370
     9
100
AcDbVertex
100
AcDb2dVertex
 10
86.7654188151142
 20
139.7241156334718
 30
0.0
  0
SEQEND
  5
253
330
250
100
AcDbEntity
  8
cotas
370
     9
  0
ENDBLK
  5
24F
330
24C
100
AcDbEntity
  8
0
100
AcDbBlockEnd
  0
BLOCK
  5
256
330
254
100
AcDbEntity
  8
0
100
AcDbBlockBegin
  2
block 25
 70
     0
 71
     0
 10
0.0
 20
0.0
 30
0.0
  3
block 25
  1

  0
POLYLINE
  5
258
330
254
100
AcDbEntity
  8
cotas
 62
   253
420
 11711154
370
     9
100
AcDb2dPolyline
 66
     1
 10
0.0
 20
0.0
 30
0.0
  0
VERTEX
  5
259
330
258
100
AcDbEntity
  8
cotas
 62
   253
420
 11711154
370
     9
100
AcDbVertex
100
AcDb2dVertex
 10
86.08862980703688
 20
165.4612182203535
 30
0.0
  0
VERTEX
  5
25A
330
258
100
AcDbEntity
  8
cotas
 62
   253
420
 11711154
370
     9
100
AcDbVertex
100
AcDb2dVertex
 10
86.08862980703688
 20
154.6229478237575
 30
0.0
  0
SEQEND
  5
25B
330
258
100
AcDbEntity
  8
cotas
370
     9
  0
ENDBLK
  5
257
330
254
100
AcDbEntity
  8
0
100
AcDbBlockEnd
  0
BLOCK
  5
25E
330
25C
100
AcDbEntity
  8
0
100
AcDbBlockBegin
  2
block 26
 70
     0
 71
     0
 10
0.0
 20
0.0
 30
0.0
  3
block 26
  1

  0
POLYLINE
  5
260
330
25C
100
AcDbEntity
  8
cotas
 62
   253
420
 11711154
370
     9
100
AcDb2dPolyline
 66
     1
 10
0.0
 20
0.0
 30
0.0
  0
VERTEX
  5
261
330
260
100
AcDbEntity
  8
cotas
 62
   253
420
 11711154
370
     9
100
AcDbVertex
100
AcDb2dVertex
 10
86.08862980703688
 20
141.0776936496264
 30
0.0
  0
VERTEX
  5
262
330
260
100
AcDbEntity
  8
cotas
 62
   253
420
 11711154
370
     9
100
AcDbVertex
100
AcDb2dVertex
 10
86.08862980703688
 20
151.9157917914481
 30
0.0
  0
SEQEND
  5
263
330
260
100
AcDbEntity
  8
cotas
370
     9
  0
ENDBLK
  5
25F
330
25C
100
AcDbEntity
  8
0
100
AcDbBlockEnd
  0
BLOCK
  5
266
330
264
100
AcDbEntity
  8
0
100
AcDbBlockBegin
  2
block 27
 70
     0
 71
     0
 10
0.0
 20
0.0
 30
0.0
  3
block 27
  1

  0
POLYLINE
  5
268
330
264
100
AcDbEntity
  8
cotas
370
     0
100
AcDb2dPolyline
 66
     1
 10
0.0
 20
0.0
 30
0.0
  0
VERTEX
  5
269
330
268
100
AcDbEntity
  8
cotas
370
     0
100
AcDbVertex
100
AcDb2dVertex
 10
86.31428356132074
 20
165.4612182203535
 30
0.0
  0
VERTEX
  5
26A
330
268
100
AcDbEntity
  8
cotas
370
     0
100
AcDbVertex
100
AcDb2dVertex
 10
85.86297605275301
 20
165.4612182203535
 30
0.0
  0
VERTEX
  5
26B
330
268
100
AcDbEntity
  8
cotas
370
     0
100
AcDbVertex
100
AcDb2dVertex
 10
86.08862980703688
 20
166.8147962365081
 30
0.0
  0
VERTEX
  5
26C
330
268
100
AcDbEntity
  8
cotas
370
     0
100
AcDbVertex
100
AcDb2dVertex
 10
86.31428356132074
 20
165.4612182203535
 30
0.0
  0
SEQEND
  5
26D
330
268
100
AcDbEntity
  8
cotas
370
     0
  0
HATCH
  5
26E
330
264
100
AcDbEntity
  8
cotas
 62
   253
420
 11711154
100
AcDbHatch
 10
0.0
 20
0.0
 30
0.0
210
0.0
220
0.0
230
1.0
  2
SOLID
 70
     1
 71
     0
 91
        1
 92
        1
 93
        3
 72
     1
 10
86.31428356132074
 20
165.4612182203535
 11
85.86297605275301
 21
165.4612182203535
 72
     1
 10
85.86297605275301
 20
165.4612182203535
 11
86.08862980703688
 21
166.8147962365081
 72
     1
 10
86.08862980703688
 20
166.8147962365081
 11
86.31428356132074
 21
165.4612182203535
 97
        0
 75
     2
 76
     1
 98
        0
  0
ENDBLK
  5
267
330
264
100
AcDbEntity
  8
0
100
AcDbBlockEnd
  0
BLOCK
  5
271
330
26F
100
AcDbEntity
  8
0
100
AcDbBlockBegin
  2
block 28
 70
     0
 71
     0
 10
0.0
 20
0.0
 30
0.0
  3
block 28
  1

  0
POLYLINE
  5
273
330
26F
100
AcDbEntity
  8
cotas
370
     0
100
AcDb2dPolyline
 66
     1
 10
0.0
 20
0.0
 30
0.0
  0
VERTEX
  5
274
330
273
100
AcDbEntity
  8
cotas
370
     0
100
AcDbVertex
100
AcDb2dVertex
 10
85.86297605275301
 20
141.0776936496264
 30
0.0
  0
VERTEX
  5
275
330
273
100
AcDbEntity
  8
cotas
370
     0
100
AcDbVertex
100
AcDb2dVertex
 10
86.31428356132074
 20
141.0776936496264
 30
0.0
  0
VERTEX
  5
276
330
273
100
AcDbEntity
  8
cotas
370
     0
100
AcDbVertex
100
AcDb2dVertex
 10
86.08862980703688
 20
139.7241156334718
 30
0.0
  0
VERTEX
  5
277
330
273
100
AcDbEntity
  8
cotas
370
     0
100
AcDbVertex
100
AcDb2dVertex
 10
85.86297605275301
 20
141.0776936496264
 30
0.0
  0
SEQEND
  5
278
330
273
100
AcDbEntity
  8
cotas
370
     0
  0
HATCH
  5
279
330
26F
100
AcDbEntity
  8
cotas
 62
   253
420
 11711154
100
AcDbHatch
 10
0.0
 20
0.0
 30
0.0
210
0.0
220
0.0
230
1.0
  2
SOLID
 70
     1
 71
     0
 91
        1
 92
        1
 93
        3
 72
     1
 10
85.86297605275301
 20
141.0776936496264
 11
86.31428356132074
 21
141.0776936496264
 72
     1
 10
86.31428356132074
 20
141.0776936496264
 11
86.08862980703688
 21
139.7241156334718
 72
     1
 10
86.08862980703688
 20
139.7241156334718
 11
85.86297605275301
 21
141.0776936496264
 97
        0
 75
     2
 76
     1
 98
        0
  0
ENDBLK
  5
272
330
26F
100
AcDbEntity
  8
0
100
AcDbBlockEnd
  0
BLOCK
  5
27C
330
27A
100
AcDbEntity
  8
0
100
AcDbBlockBegin
  2
block 29
 70
     0
 71
     0
 10
0.0
 20
0.0
 30
0.0
  3
block 29
  1

  0
MTEXT
  5
27E
330
27A
100
AcDbEntity
  8
cotas
 62
   253
420
 11711154
100
AcDbMText
 10
84.15489771116614
 20
152.5927530542997
 30
0.0
 40
1.353581844786167
 41
0.0
 71
     7
 72
     1
  1
\fMyriad Pro|b0|i0|c0|p34;\W1;200
 73
     1
 44
1.0
  0
ENDBLK
  5
27D
330
27A
100
AcDbEntity
  8
0
100
AcDbBlockEnd
  0
BLOCK
  5
281
330
27F
100
AcDbEntity
  8
0
100
AcDbBlockBegin
  2
block 30
 70
     0
 71
     0
 10
0.0
 20
0.0
 30
0.0
  3
block 30
  1

  0
POLYLINE
  5
283
330
27F
100
AcDbEntity
  8
cotas
 62
   253
420
 11711154
370
     9
100
AcDb2dPolyline
 66
     1
 10
0.0
 20
0.0
 30
0.0
  0
VERTEX
  5
284
330
283
100
AcDbEntity
  8
cotas
 62
   253
420
 11711154
370
     9
100
AcDbVertex
100
AcDb2dVertex
 10
82.36689315432147
 20
166.8147962365081
 30
0.0
  0
VERTEX
  5
285
330
283
100
AcDbEntity
  8
cotas
 62
   253
420
 11711154
370
     9
100
AcDbVertex
100
AcDb2dVertex
 10
82.36689315432147
 20
166.8147962365081
 30
0.0
  0
SEQEND
  5
286
330
283
100
AcDbEntity
  8
cotas
370
     9
  0
ENDBLK
  5
282
330
27F
100
AcDbEntity
  8
0
100
AcDbBlockEnd
  0
BLOCK
  5
289
330
287
100
AcDbEntity
  8
0
100
AcDbBlockBegin
  2
block 31
 70
     0
 71
     0
 10
0.0
 20
0.0
 30
0.0
  3
block 31
  1

  0
POLYLINE
  5
28B
330
287
100
AcDbEntity
  8
cotas
 62
   253
420
 11711154
370
     9
100
AcDb2dPolyline
 66
     1
 10
0.0
 20
0.0
 30
0.0
  0
VERTEX
  5
28C
330
28B
100
AcDbEntity
  8
cotas
 62
   253
420
 11711154
370
     9
100
AcDbVertex
100
AcDb2dVertex
 10
68.24992538441322
 20
139.7241156334718
 30
0.0
  0
VERTEX
  5
28D
330
28B
100
AcDbEntity
  8
cotas
 62
   253
420
 11711154
370
     9
100
AcDbVertex
100
AcDb2dVertex
 10
68.24992538441322
 20
139.7241156334718
 30
0.0
  0
SEQEND
  5
28E
330
28B
100
AcDbEntity
  8
cotas
370
     9
  0
ENDBLK
  5
28A
330
287
100
AcDbEntity
  8
0
100
AcDbBlockEnd
  0
BLOCK
  5
291
330
28F
100
AcDbEntity
  8
0
100
AcDbBlockBegin
  2
block 32
 70
     0
 71
     0
 10
0.0
 20
0.0
 30
0.0
  3
block 32
  1

  0
POLYLINE
  5
293
330
28F
100
AcDbEntity
  8
cotas
 62
   253
420
 11711154
370
     9
100
AcDb2dPolyline
 66
     1
 10
0.0
 20
0.0
 30
0.0
  0
VERTEX
  5
294
330
293
100
AcDbEntity
  8
cotas
 62
   253
420
 11711154
370
     9
100
AcDbVertex
100
AcDb2dVertex
 10
86.08862980703688
 20
139.7241156334718
 30
0.0
  0
VERTEX
  5
295
330
293
100
AcDbEntity
  8
cotas
 62
   253
420
 11711154
370
     9
100
AcDbVertex
100
AcDb2dVertex
 10
86.08862980703688
 20
139.7241156334718
 30
0.0
  0
SEQEND
  5
296
330
293
100
AcDbEntity
  8
cotas
370
     9
  0
ENDBLK
  5
292
330
28F
100
AcDbEntity
  8
0
100
AcDbBlockEnd
  0
BLOCK
  5
299
330
297
100
AcDbEntity
  8
0
100
AcDbBlockBegin
  2
block 33
 70
     0
 71
     0
 10
0.0
 20
0.0
 30
0.0
  3
block 33
  1

  0
POLYLINE
  5
29B
330
297
100
AcDbEntity
  8
cotas
 62
   253
420
 11711154
370
     9
100
AcDb2dPolyline
 66
     1
 10
0.0
 20
0.0
 30
0.0
  0
VERTEX
  5
29C
330
29B
100
AcDbEntity
  8
cotas
 62
   253
420
 11711154
370
     9
100
AcDbVertex
100
AcDb2dVertex
 10
99.04132755770495
 20
153.2598957950184
 30
0.0
  0
VERTEX
  5
29D
330
29B
100
AcDbEntity
  8
cotas
 62
   253
420
 11711154
370
     9
100
AcDbVertex
100
AcDb2dVertex
 10
99.04132755770495
 20
162.0373100723379
 30
0.0
  0
SEQEND
  5
29E
330
29B
100
AcDbEntity
  8
cotas
370
     9
  0
ENDBLK
  5
29A
330
297
100
AcDbEntity
  8
0
100
AcDbBlockEnd
  0
BLOCK
  5
2A1
330
29F
100
AcDbEntity
  8
0
100
AcDbBlockBegin
  2
block 34
 70
     0
 71
     0
 10
0.0
 20
0.0
 30
0.0
  3
block 34
  1

  0
POLYLINE
  5
2A3
330
29F
100
AcDbEntity
  8
cotas
 62
   253
420
 11711154
370
     9
100
AcDb2dPolyline
 66
     1
 10
0.0
 20
0.0
 30
0.0
  0
VERTEX
  5
2A4
330
2A3
100
AcDbEntity
  8
cotas
 62
   253
420
 11711154
370
     9
100
AcDbVertex
100
AcDb2dVertex
 10
140.6394775039026
 20
132.8277234910986
 30
0.0
  0
VERTEX
  5
2A5
330
2A3
100
AcDbEntity
  8
cotas
 62
   253
420
 11711154
370
     9
100
AcDbVertex
100
AcDb2dVertex
 10
140.6394775039026
 20
162.0373100723379
 30
0.0
  0
SEQEND
  5
2A6
330
2A3
100
AcDbEntity
  8
cotas
370
     9
  0
ENDBLK
  5
2A2
330
29F
100
AcDbEntity
  8
0
100
AcDbBlockEnd
  0
BLOCK
  5
2A9
330
2A7
100
AcDbEntity
  8
0
100
AcDbBlockBegin
  2
block 35
 70
     0
 71
     0
 10
0.0
 20
0.0
 30
0.0
  3
block 35
  1

  0
POLYLINE
  5
2AB
330
2A7
100
AcDbEntity
  8
cotas
 62
   253
420
 11711154
370
     9
100
AcDb2dPolyline
 66
     1
 10
0.0
 20
0.0
 30
0.0
  0
VERTEX
  5
2AC
330
2AB
100
AcDbEntity
  8
cotas
 62
   253
420
 11711154
370
     9
100
AcDbVertex
100
AcDb2dVertex
 10
100.3950778286339
 20
161.3605210642606
 30
0.0
  0
VERTEX
  5
2AD
330
2AB
100
AcDbEntity
  8
cotas
 62
   253
420
 11711154
370
     9
100
AcDbVertex
100
AcDb2dVertex
 10
117.9704047014102
 20
161.3605210642606
 30
0.0
  0
SEQEND
  5
2AE
330
2AB
100
AcDbEntity
  8
cotas
370
     9
  0
ENDBLK
  5
2AA
330
2A7
100
AcDbEntity
  8
0
100
AcDbBlockEnd
  0
BLOCK
  5
2B1
330
2AF
100
AcDbEntity
  8
0
100
AcDbBlockBegin
  2
block 36
 70
     0
 71
     0
 10
0.0
 20
0.0
 30
0.0
  3
block 36
  1

  0
POLYLINE
  5
2B3
330
2AF
100
AcDbEntity
  8
cotas
 62
   253
420
 11711154
370
     9
100
AcDb2dPolyline
 66
     1
 10
0.0
 20
0.0
 30
0.0
  0
VERTEX
  5
2B4
330
2B3
100
AcDbEntity
  8
cotas
 62
   253
420
 11711154
370
     9
100
AcDbVertex
100
AcDb2dVertex
 10
139.285899487748
 20
161.3605210642606
 30
0.0
  0
VERTEX
  5
2B5
330
2B3
100
AcDbEntity
  8
cotas
 62
   253
420
 11711154
370
     9
100
AcDbVertex
100
AcDb2dVertex
 10
122.7077555031772
 20
161.3605210642606
 30
0.0
  0
SEQEND
  5
2B6
330
2B3
100
AcDbEntity
  8
cotas
370
     9
  0
ENDBLK
  5
2B2
330
2AF
100
AcDbEntity
  8
0
100
AcDbBlockEnd
  0
BLOCK
  5
2B9
330
2B7
100
AcDbEntity
  8
0
100
AcDbBlockBegin
  2
block 37
 70
     0
 71
     0
 10
0.0
 20
0.0
 30
0.0
  3
block 37
  1

  0
POLYLINE
  5
2BB
330
2B7
100
AcDbEntity
  8
cotas
370
     0
100
AcDb2dPolyline
 66
     1
 10
0.0
 20
0.0
 30
0.0
  0
VERTEX
  5
2BC
330
2BB
100
AcDbEntity
  8
cotas
370
     0
100
AcDbVertex
100
AcDb2dVertex
 10
100.3950778286339
 20
161.5861748185444
 30
0.0
  0
VERTEX
  5
2BD
330
2BB
100
AcDbEntity
  8
cotas
370
     0
100
AcDbVertex
100
AcDb2dVertex
 10
100.3950778286339
 20
161.1348673099767
 30
0.0
  0
VERTEX
  5
2BE
330
2BB
100
AcDbEntity
  8
cotas
370
     0
100
AcDbVertex
100
AcDb2dVertex
 10
99.04132755770495
 20
161.3605210642606
 30
0.0
  0
VERTEX
  5
2BF
330
2BB
100
AcDbEntity
  8
cotas
370
     0
100
AcDbVertex
100
AcDb2dVertex
 10
100.3950778286339
 20
161.5861748185444
 30
0.0
  0
SEQEND
  5
2C0
330
2BB
100
AcDbEntity
  8
cotas
370
     0
  0
HATCH
  5
2C1
330
2B7
100
AcDbEntity
  8
cotas
 62
   253
420
 11711154
100
AcDbHatch
 10
0.0
 20
0.0
 30
0.0
210
0.0
220
0.0
230
1.0
  2
SOLID
 70
     1
 71
     0
 91
        1
 92
        1
 93
        3
 72
     1
 10
100.3950778286339
 20
161.5861748185444
 11
100.3950778286339
 21
161.1348673099767
 72
     1
 10
100.3950778286339
 20
161.1348673099767
 11
99.04132755770495
 21
161.3605210642606
 72
     1
 10
99.04132755770495
 20
161.3605210642606
 11
100.3950778286339
 21
161.5861748185444
 97
        0
 75
     2
 76
     1
 98
        0
  0
ENDBLK
  5
2BA
330
2B7
100
AcDbEntity
  8
0
100
AcDbBlockEnd
  0
BLOCK
  5
2C4
330
2C2
100
AcDbEntity
  8
0
100
AcDbBlockBegin
  2
block 38
 70
     0
 71
     0
 10
0.0
 20
0.0
 30
0.0
  3
block 38
  1

  0
POLYLINE
  5
2C6
330
2C2
100
AcDbEntity
  8
cotas
370
     0
100
AcDb2dPolyline
 66
     1
 10
0.0
 20
0.0
 30
0.0
  0
VERTEX
  5
2C7
330
2C6
100
AcDbEntity
  8
cotas
370
     0
100
AcDbVertex
100
AcDb2dVertex
 10
139.285899487748
 20
161.1348673099767
 30
0.0
  0
VERTEX
  5
2C8
330
2C6
100
AcDbEntity
  8
cotas
370
     0
100
AcDbVertex
100
AcDb2dVertex
 10
139.285899487748
 20
161.5861748185444
 30
0.0
  0
VERTEX
  5
2C9
330
2C6
100
AcDbEntity
  8
cotas
370
     0
100
AcDbVertex
100
AcDb2dVertex
 10
140.6394775039026
 20
161.3605210642606
 30
0.0
  0
VERTEX
  5
2CA
330
2C6
100
AcDbEntity
  8
cotas
370
     0
100
AcDbVertex
100
AcDb2dVertex
 10
139.285899487748
 20
161.1348673099767
 30
0.0
  0
SEQEND
  5
2CB
330
2C6
100
AcDbEntity
  8
cotas
370
     0
  0
HATCH
  5
2CC
330
2C2
100
AcDbEntity
  8
cotas
 62
   253
420
 11711154
100
AcDbHatch
 10
0.0
 20
0.0
 30
0.0
210
0.0
220
0.0
230
1.0
  2
SOLID
 70
     1
 71
     0
 91
        1
 92
        1
 93
        3
 72
     1
 10
139.285899487748
 20
161.1348673099767
 11
139.285899487748
 21
161.5861748185444
 72
     1
 10
139.285899487748
 20
161.5861748185444
 11
140.6394775039026
 21
161.3605210642606
 72
     1
 10
140.6394775039026
 20
161.3605210642606
 11
139.285899487748
 21
161.1348673099767
 97
        0
 75
     2
 76
     1
 98
        0
  0
ENDBLK
  5
2C5
330
2C2
100
AcDbEntity
  8
0
100
AcDbBlockEnd
  0
BLOCK
  5
2CF
330
2CD
100
AcDbEntity
  8
0
100
AcDbBlockBegin
  2
block 39
 70
     0
 71
     0
 10
0.0
 20
0.0
 30
0.0
  3
block 39
  1

  0
MTEXT
  5
2D1
330
2CD
100
AcDbEntity
  8
cotas
 62
   253
420
 11711154
100
AcDbMText
 10
118.4051757516487
 20
160.6839043109575
 30
0.0
 40
1.353581844786167
 41
0.0
 71
     7
 72
     1
  1
\fMyriad Pro|b0|i0|c0|p34;\W1;305
 73
     1
 44
1.0
  0
ENDBLK
  5
2D0
330
2CD
100
AcDbEntity
  8
0
100
AcDbBlockEnd
  0
BLOCK
  5
2D4
330
2D2
100
AcDbEntity
  8
0
100
AcDbBlockBegin
  2
block 40
 70
     0
 71
     0
 10
0.0
 20
0.0
 30
0.0
  3
block 40
  1

  0
POLYLINE
  5
2D6
330
2D2
100
AcDbEntity
  8
cotas
 62
   253
420
 11711154
370
     9
100
AcDb2dPolyline
 66
     1
 10
0.0
 20
0.0
 30
0.0
  0
VERTEX
  5
2D7
330
2D6
100
AcDbEntity
  8
cotas
 62
   253
420
 11711154
370
     9
100
AcDbVertex
100
AcDb2dVertex
 10
99.04132755770495
 20
152.1771022840043
 30
0.0
  0
VERTEX
  5
2D8
330
2D6
100
AcDbEntity
  8
cotas
 62
   253
420
 11711154
370
     9
100
AcDbVertex
100
AcDb2dVertex
 10
99.04132755770495
 20
152.1771022840043
 30
0.0
  0
SEQEND
  5
2D9
330
2D6
100
AcDbEntity
  8
cotas
370
     9
  0
ENDBLK
  5
2D5
330
2D2
100
AcDbEntity
  8
0
100
AcDbBlockEnd
  0
BLOCK
  5
2DC
330
2DA
100
AcDbEntity
  8
0
100
AcDbBlockBegin
  2
block 41
 70
     0
 71
     0
 10
0.0
 20
0.0
 30
0.0
  3
block 41
  1

  0
POLYLINE
  5
2DE
330
2DA
100
AcDbEntity
  8
cotas
 62
   253
420
 11711154
370
     9
100
AcDb2dPolyline
 66
     1
 10
0.0
 20
0.0
 30
0.0
  0
VERTEX
  5
2DF
330
2DE
100
AcDbEntity
  8
cotas
 62
   253
420
 11711154
370
     9
100
AcDbVertex
100
AcDb2dVertex
 10
140.6394775039026
 20
131.7445854705361
 30
0.0
  0
VERTEX
  5
2E0
330
2DE
100
AcDbEntity
  8
cotas
 62
   253
420
 11711154
370
     9
100
AcDbVertex
100
AcDb2dVertex
 10
140.6394775039026
 20
131.7445854705361
 30
0.0
  0
SEQEND
  5
2E1
330
2DE
100
AcDbEntity
  8
cotas
370
     9
  0
ENDBLK
  5
2DD
330
2DA
100
AcDbEntity
  8
0
100
AcDbBlockEnd
  0
BLOCK
  5
2E4
330
2E2
100
AcDbEntity
  8
0
100
AcDbBlockBegin
  2
block 42
 70
     0
 71
     0
 10
0.0
 20
0.0
 30
0.0
  3
block 42
  1

  0
POLYLINE
  5
2E6
330
2E2
100
AcDbEntity
  8
cotas
 62
   253
420
 11711154
370
     9
100
AcDb2dPolyline
 66
     1
 10
0.0
 20
0.0
 30
0.0
  0
VERTEX
  5
2E7
330
2E6
100
AcDbEntity
  8
cotas
 62
   253
420
 11711154
370
     9
100
AcDbVertex
100
AcDb2dVertex
 10
140.6394775039026
 20
161.3605210642606
 30
0.0
  0
VERTEX
  5
2E8
330
2E6
100
AcDbEntity
  8
cotas
 62
   253
420
 11711154
370
     9
100
AcDbVertex
100
AcDb2dVertex
 10
140.6394775039026
 20
161.3605210642606
 30
0.0
  0
SEQEND
  5
2E9
330
2E6
100
AcDbEntity
  8
cotas
370
     9
  0
ENDBLK
  5
2E5
330
2E2
100
AcDbEntity
  8
0
100
AcDbBlockEnd
  0
BLOCK
  5
2EC
330
2EA
100
AcDbEntity
  8
0
100
AcDbBlockBegin
  2
block 43
 70
     0
 71
     0
 10
0.0
 20
0.0
 30
0.0
  3
block 43
  1

  0
POLYLINE
  5
2EE
330
2EA
100
AcDbEntity
  8
cotas
 62
   253
420
 11711154
370
     9
100
AcDb2dPolyline
 66
     1
 10
0.0
 20
0.0
 30
0.0
  0
VERTEX
  5
2EF
330
2EE
100
AcDbEntity
  8
cotas
 62
   253
420
 11711154
370
     9
100
AcDbVertex
100
AcDb2dVertex
 10
102.147942411529
 20
150.3903035105795
 30
0.0
  0
VERTEX
  5
2F0
330
2EE
100
AcDbEntity
  8
cotas
 62
   253
420
 11711154
370
     9
100
AcDbVertex
100
AcDb2dVertex
 10
102.147942411529
 20
157.5436997761523
 30
0.0
  0
SEQEND
  5
2F1
330
2EE
100
AcDbEntity
  8
cotas
370
     9
  0
ENDBLK
  5
2ED
330
2EA
100
AcDbEntity
  8
0
100
AcDbBlockEnd
  0
BLOCK
  5
2F4
330
2F2
100
AcDbEntity
  8
0
100
AcDbBlockBegin
  2
block 44
 70
     0
 71
     0
 10
0.0
 20
0.0
 30
0.0
  3
block 44
  1

  0
POLYLINE
  5
2F6
330
2F2
100
AcDbEntity
  8
cotas
 62
   253
420
 11711154
370
     9
100
AcDb2dPolyline
 66
     1
 10
0.0
 20
0.0
 30
0.0
  0
VERTEX
  5
2F7
330
2F6
100
AcDbEntity
  8
cotas
 62
   253
420
 11711154
370
     9
100
AcDbVertex
100
AcDb2dVertex
 10
140.6394775039026
 20
131.2670952362805
 30
0.0
  0
VERTEX
  5
2F8
330
2F6
100
AcDbEntity
  8
cotas
 62
   253
420
 11711154
370
     9
100
AcDbVertex
100
AcDb2dVertex
 10
140.6394775039026
 20
157.5436997761523
 30
0.0
  0
SEQEND
  5
2F9
330
2F6
100
AcDbEntity
  8
cotas
370
     9
  0
ENDBLK
  5
2F5
330
2F2
100
AcDbEntity
  8
0
100
AcDbBlockEnd
  0
BLOCK
  5
2FC
330
2FA
100
AcDbEntity
  8
0
100
AcDbBlockBegin
  2
block 45
 70
     0
 71
     0
 10
0.0
 20
0.0
 30
0.0
  3
block 45
  1

  0
POLYLINE
  5
2FE
330
2FA
100
AcDbEntity
  8
cotas
 62
   253
420
 11711154
370
     9
100
AcDb2dPolyline
 66
     1
 10
0.0
 20
0.0
 30
0.0
  0
VERTEX
  5
2FF
330
2FE
100
AcDbEntity
  8
cotas
 62
   253
420
 11711154
370
     9
100
AcDbVertex
100
AcDb2dVertex
 10
103.5015204276837
 20
156.8669107680749
 30
0.0
  0
VERTEX
  5
300
330
2FE
100
AcDbEntity
  8
cotas
 62
   253
420
 11711154
370
     9
100
AcDbVertex
100
AcDb2dVertex
 10
119.160685191564
 20
156.8669107680749
 30
0.0
  0
SEQEND
  5
301
330
2FE
100
AcDbEntity
  8
cotas
370
     9
  0
ENDBLK
  5
2FD
330
2FA
100
AcDbEntity
  8
0
100
AcDbBlockEnd
  0
BLOCK
  5
304
330
302
100
AcDbEntity
  8
0
100
AcDbBlockBegin
  2
block 46
 70
     0
 71
     0
 10
0.0
 20
0.0
 30
0.0
  3
block 46
  1

  0
POLYLINE
  5
306
330
302
100
AcDbEntity
  8
cotas
 62
   253
420
 11711154
370
     9
100
AcDb2dPolyline
 66
     1
 10
0.0
 20
0.0
 30
0.0
  0
VERTEX
  5
307
330
306
100
AcDbEntity
  8
cotas
 62
   253
420
 11711154
370
     9
100
AcDbVertex
100
AcDb2dVertex
 10
139.285899487748
 20
156.8669107680749
 30
0.0
  0
VERTEX
  5
308
330
306
100
AcDbEntity
  8
cotas
 62
   253
420
 11711154
370
     9
100
AcDbVertex
100
AcDb2dVertex
 10
123.898035993331
 20
156.8669107680749
 30
0.0
  0
SEQEND
  5
309
330
306
100
AcDbEntity
  8
cotas
370
     9
  0
ENDBLK
  5
305
330
302
100
AcDbEntity
  8
0
100
AcDbBlockEnd
  0
BLOCK
  5
30C
330
30A
100
AcDbEntity
  8
0
100
AcDbBlockBegin
  2
block 47
 70
     0
 71
     0
 10
0.0
 20
0.0
 30
0.0
  3
block 47
  1

  0
POLYLINE
  5
30E
330
30A
100
AcDbEntity
  8
cotas
370
     0
100
AcDb2dPolyline
 66
     1
 10
0.0
 20
0.0
 30
0.0
  0
VERTEX
  5
30F
330
30E
100
AcDbEntity
  8
cotas
370
     0
100
AcDbVertex
100
AcDb2dVertex
 10
103.5015204276837
 20
157.0923922675846
 30
0.0
  0
VERTEX
  5
310
330
30E
100
AcDbEntity
  8
cotas
370
     0
100
AcDbVertex
100
AcDb2dVertex
 10
103.5015204276837
 20
156.6412570137911
 30
0.0
  0
VERTEX
  5
311
330
30E
100
AcDbEntity
  8
cotas
370
     0
100
AcDbVertex
100
AcDb2dVertex
 10
102.147942411529
 20
156.8669107680749
 30
0.0
  0
VERTEX
  5
312
330
30E
100
AcDbEntity
  8
cotas
370
     0
100
AcDbVertex
100
AcDb2dVertex
 10
103.5015204276837
 20
157.0923922675846
 30
0.0
  0
SEQEND
  5
313
330
30E
100
AcDbEntity
  8
cotas
370
     0
  0
HATCH
  5
314
330
30A
100
AcDbEntity
  8
cotas
 62
   253
420
 11711154
100
AcDbHatch
 10
0.0
 20
0.0
 30
0.0
210
0.0
220
0.0
230
1.0
  2
SOLID
 70
     1
 71
     0
 91
        1
 92
        1
 93
        3
 72
     1
 10
103.5015204276837
 20
157.0923922675846
 11
103.5015204276837
 21
156.6412570137911
 72
     1
 10
103.5015204276837
 20
156.6412570137911
 11
102.147942411529
 21
156.8669107680749
 72
     1
 10
102.147942411529
 20
156.8669107680749
 11
103.5015204276837
 21
157.0923922675846
 97
        0
 75
     2
 76
     1
 98
        0
  0
ENDBLK
  5
30D
330
30A
100
AcDbEntity
  8
0
100
AcDbBlockEnd
  0
BLOCK
  5
317
330
315
100
AcDbEntity
  8
0
100
AcDbBlockBegin
  2
block 48
 70
     0
 71
     0
 10
0.0
 20
0.0
 30
0.0
  3
block 48
  1

  0
POLYLINE
  5
319
330
315
100
AcDbEntity
  8
cotas
370
     0
100
AcDb2dPolyline
 66
     1
 10
0.0
 20
0.0
 30
0.0
  0
VERTEX
  5
31A
330
319
100
AcDbEntity
  8
cotas
370
     0
100
AcDbVertex
100
AcDb2dVertex
 10
139.285899487748
 20
156.6412570137911
 30
0.0
  0
VERTEX
  5
31B
330
319
100
AcDbEntity
  8
cotas
370
     0
100
AcDbVertex
100
AcDb2dVertex
 10
139.285899487748
 20
157.0923922675846
 30
0.0
  0
VERTEX
  5
31C
330
319
100
AcDbEntity
  8
cotas
370
     0
100
AcDbVertex
100
AcDb2dVertex
 10
140.6394775039026
 20
156.8669107680749
 30
0.0
  0
VERTEX
  5
31D
330
319
100
AcDbEntity
  8
cotas
370
     0
100
AcDbVertex
100
AcDb2dVertex
 10
139.285899487748
 20
156.6412570137911
 30
0.0
  0
SEQEND
  5
31E
330
319
100
AcDbEntity
  8
cotas
370
     0
  0
HATCH
  5
31F
330
315
100
AcDbEntity
  8
cotas
 62
   253
420
 11711154
100
AcDbHatch
 10
0.0
 20
0.0
 30
0.0
210
0.0
220
0.0
230
1.0
  2
SOLID
 70
     1
 71
     0
 91
        1
 92
        1
 93
        3
 72
     1
 10
139.285899487748
 20
156.6412570137911
 11
139.285899487748
 21
157.0923922675846
 72
     1
 10
139.285899487748
 20
157.0923922675846
 11
140.6394775039026
 21
156.8669107680749
 72
     1
 10
140.6394775039026
 20
156.8669107680749
 11
139.285899487748
 21
156.6412570137911
 97
        0
 75
     2
 76
     1
 98
        0
  0
ENDBLK
  5
318
330
315
100
AcDbEntity
  8
0
100
AcDbBlockEnd
  0
BLOCK
  5
322
330
320
100
AcDbEntity
  8
0
100
AcDbBlockBegin
  2
block 49
 70
     0
 71
     0
 10
0.0
 20
0.0
 30
0.0
  3
block 49
  1

  0
MTEXT
  5
324
330
320
100
AcDbEntity
  8
cotas
 62
   253
420
 11711154
100
AcDbMText
 10
119.5954562418025
 20
156.1901217599976
 30
0.0
 40
1.353581844786167
 41
0.0
 71
     7
 72
     1
  1
\fMyriad Pro|b0|i0|c0|p34;\W1;280
 73
     1
 44
1.0
  0
ENDBLK
  5
323
330
320
100
AcDbEntity
  8
0
100
AcDbBlockEnd
  0
BLOCK
  5
327
330
325
100
AcDbEntity
  8
0
100
AcDbBlockBegin
  2
block 50
 70
     0
 71
     0
 10
0.0
 20
0.0
 30
0.0
  3
block 50
  1

  0
POLYLINE
  5
329
330
325
100
AcDbEntity
  8
cotas
 62
   253
420
 11711154
370
     9
100
AcDb2dPolyline
 66
     1
 10
0.0
 20
0.0
 30
0.0
  0
VERTEX
  5
32A
330
329
100
AcDbEntity
  8
cotas
 62
   253
420
 11711154
370
     9
100
AcDbVertex
100
AcDb2dVertex
 10
102.147942411529
 20
149.3075099995655
 30
0.0
  0
VERTEX
  5
32B
330
329
100
AcDbEntity
  8
cotas
 62
   253
420
 11711154
370
     9
100
AcDbVertex
100
AcDb2dVertex
 10
102.147942411529
 20
149.3075099995655
 30
0.0
  0
SEQEND
  5
32C
330
329
100
AcDbEntity
  8
cotas
370
     9
  0
ENDBLK
  5
328
330
325
100
AcDbEntity
  8
0
100
AcDbBlockEnd
  0
BLOCK
  5
32F
330
32D
100
AcDbEntity
  8
0
100
AcDbBlockBegin
  2
block 51
 70
     0
 71
     0
 10
0.0
 20
0.0
 30
0.0
  3
block 51
  1

  0
POLYLINE
  5
331
330
32D
100
AcDbEntity
  8
cotas
 62
   253
420
 11711154
370
     9
100
AcDb2dPolyline
 66
     1
 10
0.0
 20
0.0
 30
0.0
  0
VERTEX
  5
332
330
331
100
AcDbEntity
  8
cotas
 62
   253
420
 11711154
370
     9
100
AcDbVertex
100
AcDb2dVertex
 10
140.6394775039026
 20
130.1843017252664
 30
0.0
  0
VERTEX
  5
333
330
331
100
AcDbEntity
  8
cotas
 62
   253
420
 11711154
370
     9
100
AcDbVertex
100
AcDb2dVertex
 10
140.6394775039026
 20
130.1843017252664
 30
0.0
  0
SEQEND
  5
334
330
331
100
AcDbEntity
  8
cotas
370
     9
  0
ENDBLK
  5
330
330
32D
100
AcDbEntity
  8
0
100
AcDbBlockEnd
  0
BLOCK
  5
337
330
335
100
AcDbEntity
  8
0
100
AcDbBlockBegin
  2
block 52
 70
     0
 71
     0
 10
0.0
 20
0.0
 30
0.0
  3
block 52
  1

  0
POLYLINE
  5
339
330
335
100
AcDbEntity
  8
cotas
 62
   253
420
 11711154
370
     9
100
AcDb2dPolyline
 66
     1
 10
0.0
 20
0.0
 30
0.0
  0
VERTEX
  5
33A
330
339
100
AcDbEntity
  8
cotas
 62
   253
420
 11711154
370
     9
100
AcDbVertex
100
AcDb2dVertex
 10
140.6394775039026
 20
156.8669107680749
 30
0.0
  0
VERTEX
  5
33B
330
339
100
AcDbEntity
  8
cotas
 62
   253
420
 11711154
370
     9
100
AcDbVertex
100
AcDb2dVertex
 10
140.6394775039026
 20
156.8669107680749
 30
0.0
  0
SEQEND
  5
33C
330
339
100
AcDbEntity
  8
cotas
370
     9
  0
ENDBLK
  5
338
330
335
100
AcDbEntity
  8
0
100
AcDbBlockEnd
  0
BLOCK
  5
33F
330
33D
100
AcDbEntity
  8
0
100
AcDbBlockBegin
  2
block 53
 70
     0
 71
     0
 10
0.0
 20
0.0
 30
0.0
  3
block 53
  1

  0
POLYLINE
  5
341
330
33D
100
AcDbEntity
  8
cotas
 62
   253
420
 11711154
370
     9
100
AcDb2dPolyline
 66
     1
 10
0.0
 20
0.0
 30
0.0
  0
VERTEX
  5
342
330
341
100
AcDbEntity
  8
cotas
 62
   253
420
 11711154
370
     9
100
AcDbVertex
100
AcDb2dVertex
 10
97.95853404669093
 20
152.1771022840043
 30
0.0
  0
VERTEX
  5
343
330
341
100
AcDbEntity
  8
cotas
 62
   253
420
 11711154
370
     9
100
AcDbVertex
100
AcDb2dVertex
 10
93.19586179310728
 20
152.1771022840043
 30
0.0
  0
SEQEND
  5
344
330
341
100
AcDbEntity
  8
cotas
370
     9
  0
ENDBLK
  5
340
330
33D
100
AcDbEntity
  8
0
100
AcDbBlockEnd
  0
BLOCK
  5
347
330
345
100
AcDbEntity
  8
0
100
AcDbBlockBegin
  2
block 54
 70
     0
 71
     0
 10
0.0
 20
0.0
 30
0.0
  3
block 54
  1

  0
POLYLINE
  5
349
330
345
100
AcDbEntity
  8
cotas
 62
   253
420
 11711154
370
     9
100
AcDb2dPolyline
 66
     1
 10
0.0
 20
0.0
 30
0.0
  0
VERTEX
  5
34A
330
349
100
AcDbEntity
  8
cotas
 62
   253
420
 11711154
370
     9
100
AcDbVertex
100
AcDb2dVertex
 10
98.20227455227236
 20
139.7241156334718
 30
0.0
  0
VERTEX
  5
34B
330
349
100
AcDbEntity
  8
cotas
 62
   253
420
 11711154
370
     9
100
AcDbVertex
100
AcDb2dVertex
 10
93.19586179310728
 20
139.7241156334718
 30
0.0
  0
SEQEND
  5
34C
330
349
100
AcDbEntity
  8
cotas
370
     9
  0
ENDBLK
  5
348
330
345
100
AcDbEntity
  8
0
100
AcDbBlockEnd
  0
BLOCK
  5
34F
330
34D
100
AcDbEntity
  8
0
100
AcDbBlockBegin
  2
block 55
 70
     0
 71
     0
 10
0.0
 20
0.0
 30
0.0
  3
block 55
  1

  0
POLYLINE
  5
351
330
34D
100
AcDbEntity
  8
cotas
 62
   253
420
 11711154
370
     9
100
AcDb2dPolyline
 66
     1
 10
0.0
 20
0.0
 30
0.0
  0
VERTEX
  5
352
330
351
100
AcDbEntity
  8
cotas
 62
   253
420
 11711154
370
     9
100
AcDbVertex
100
AcDb2dVertex
 10
93.87265080118462
 20
150.8235242678497
 30
0.0
  0
VERTEX
  5
353
330
351
100
AcDbEntity
  8
cotas
 62
   253
420
 11711154
370
     9
100
AcDbVertex
100
AcDb2dVertex
 10
93.87265080118462
 20
147.3040147201185
 30
0.0
  0
SEQEND
  5
354
330
351
100
AcDbEntity
  8
cotas
370
     9
  0
ENDBLK
  5
350
330
34D
100
AcDbEntity
  8
0
100
AcDbBlockEnd
  0
BLOCK
  5
357
330
355
100
AcDbEntity
  8
0
100
AcDbBlockBegin
  2
block 56
 70
     0
 71
     0
 10
0.0
 20
0.0
 30
0.0
  3
block 56
  1

  0
POLYLINE
  5
359
330
355
100
AcDbEntity
  8
cotas
 62
   253
420
 11711154
370
     9
100
AcDb2dPolyline
 66
     1
 10
0.0
 20
0.0
 30
0.0
  0
VERTEX
  5
35A
330
359
100
AcDbEntity
  8
cotas
 62
   253
420
 11711154
370
     9
100
AcDbVertex
100
AcDb2dVertex
 10
93.87265080118462
 20
141.0776936496264
 30
0.0
  0
VERTEX
  5
35B
330
359
100
AcDbEntity
  8
cotas
 62
   253
420
 11711154
370
     9
100
AcDbVertex
100
AcDb2dVertex
 10
93.87265080118462
 20
144.5968586878091
 30
0.0
  0
SEQEND
  5
35C
330
359
100
AcDbEntity
  8
cotas
370
     9
  0
ENDBLK
  5
358
330
355
100
AcDbEntity
  8
0
100
AcDbBlockEnd
  0
BLOCK
  5
35F
330
35D
100
AcDbEntity
  8
0
100
AcDbBlockBegin
  2
block 57
 70
     0
 71
     0
 10
0.0
 20
0.0
 30
0.0
  3
block 57
  1

  0
POLYLINE
  5
361
330
35D
100
AcDbEntity
  8
cotas
370
     0
100
AcDb2dPolyline
 66
     1
 10
0.0
 20
0.0
 30
0.0
  0
VERTEX
  5
362
330
361
100
AcDbEntity
  8
cotas
370
     0
100
AcDbVertex
100
AcDb2dVertex
 10
94.09830455546849
 20
150.8235242678497
 30
0.0
  0
VERTEX
  5
363
330
361
100
AcDbEntity
  8
cotas
370
     0
100
AcDbVertex
100
AcDb2dVertex
 10
93.64699704690075
 20
150.8235242678497
 30
0.0
  0
VERTEX
  5
364
330
361
100
AcDbEntity
  8
cotas
370
     0
100
AcDbVertex
100
AcDb2dVertex
 10
93.87265080118462
 20
152.1771022840043
 30
0.0
  0
VERTEX
  5
365
330
361
100
AcDbEntity
  8
cotas
370
     0
100
AcDbVertex
100
AcDb2dVertex
 10
94.09830455546849
 20
150.8235242678497
 30
0.0
  0
SEQEND
  5
366
330
361
100
AcDbEntity
  8
cotas
370
     0
  0
HATCH
  5
367
330
35D
100
AcDbEntity
  8
cotas
 62
   253
420
 11711154
100
AcDbHatch
 10
0.0
 20
0.0
 30
0.0
210
0.0
220
0.0
230
1.0
  2
SOLID
 70
     1
 71
     0
 91
        1
 92
        1
 93
        3
 72
     1
 10
94.09830455546849
 20
150.8235242678497
 11
93.64699704690075
 21
150.8235242678497
 72
     1
 10
93.64699704690075
 20
150.8235242678497
 11
93.87265080118462
 21
152.1771022840043
 72
     1
 10
93.87265080118462
 20
152.1771022840043
 11
94.09830455546849
 21
150.8235242678497
 97
        0
 75
     2
 76
     1
 98
        0
  0
ENDBLK
  5
360
330
35D
100
AcDbEntity
  8
0
100
AcDbBlockEnd
  0
BLOCK
  5
36A
330
368
100
AcDbEntity
  8
0
100
AcDbBlockBegin
  2
block 58
 70
     0
 71
     0
 10
0.0
 20
0.0
 30
0.0
  3
block 58
  1

  0
POLYLINE
  5
36C
330
368
100
AcDbEntity
  8
cotas
370
     0
100
AcDb2dPolyline
 66
     1
 10
0.0
 20
0.0
 30
0.0
  0
VERTEX
  5
36D
330
36C
100
AcDbEntity
  8
cotas
370
     0
100
AcDbVertex
100
AcDb2dVertex
 10
93.64699704690075
 20
141.0776936496264
 30
0.0
  0
VERTEX
  5
36E
330
36C
100
AcDbEntity
  8
cotas
370
     0
100
AcDbVertex
100
AcDb2dVertex
 10
94.09830455546849
 20
141.0776936496264
 30
0.0
  0
VERTEX
  5
36F
330
36C
100
AcDbEntity
  8
cotas
370
     0
100
AcDbVertex
100
AcDb2dVertex
 10
93.87265080118462
 20
139.7241156334718
 30
0.0
  0
VERTEX
  5
370
330
36C
100
AcDbEntity
  8
cotas
370
     0
100
AcDbVertex
100
AcDb2dVertex
 10
93.64699704690075
 20
141.0776936496264
 30
0.0
  0
SEQEND
  5
371
330
36C
100
AcDbEntity
  8
cotas
370
     0
  0
HATCH
  5
372
330
368
100
AcDbEntity
  8
cotas
 62
   253
420
 11711154
100
AcDbHatch
 10
0.0
 20
0.0
 30
0.0
210
0.0
220
0.0
230
1.0
  2
SOLID
 70
     1
 71
     0
 91
        1
 92
        1
 93
        3
 72
     1
 10
93.64699704690075
 20
141.0776936496264
 11
94.09830455546849
 21
141.0776936496264
 72
     1
 10
94.09830455546849
 20
141.0776936496264
 11
93.87265080118462
 21
139.7241156334718
 72
     1
 10
93.87265080118462
 20
139.7241156334718
 11
93.64699704690075
 21
141.0776936496264
 97
        0
 75
     2
 76
     1
 98
        0
  0
ENDBLK
  5
36B
330
368
100
AcDbEntity
  8
0
100
AcDbBlockEnd
  0
BLOCK
  5
375
330
373
100
AcDbEntity
  8
0
100
AcDbBlockBegin
  2
block 59
 70
     0
 71
     0
 10
0.0
 20
0.0
 30
0.0
  3
block 59
  1

  0
MTEXT
  5
377
330
373
100
AcDbEntity
  8
cotas
 62
   253
420
 11711154
100
AcDbMText
 10
92.58349607060413
 20
145.2738199506607
 30
0.0
 40
1.353581844786167
 41
0.0
 71
     7
 72
     1
  1
\fMyriad Pro|b0|i0|c0|p34;\W1;90
 73
     1
 44
1.0
  0
ENDBLK
  5
376
330
373
100
AcDbEntity
  8
0
100
AcDbBlockEnd
  0
BLOCK
  5
37A
330
378
100
AcDbEntity
  8
0
100
AcDbBlockBegin
  2
block 60
 70
     0
 71
     0
 10
0.0
 20
0.0
 30
0.0
  3
block 60
  1

  0
POLYLINE
  5
37C
330
378
100
AcDbEntity
  8
cotas
 62
   253
420
 11711154
370
     9
100
AcDb2dPolyline
 66
     1
 10
0.0
 20
0.0
 30
0.0
  0
VERTEX
  5
37D
330
37C
100
AcDbEntity
  8
cotas
 62
   253
420
 11711154
370
     9
100
AcDbVertex
100
AcDb2dVertex
 10
99.04132755770495
 20
152.1771022840043
 30
0.0
  0
VERTEX
  5
37E
330
37C
100
AcDbEntity
  8
cotas
 62
   253
420
 11711154
370
     9
100
AcDbVertex
100
AcDb2dVertex
 10
99.04132755770495
 20
152.1771022840043
 30
0.0
  0
SEQEND
  5
37F
330
37C
100
AcDbEntity
  8
cotas
370
     9
  0
ENDBLK
  5
37B
330
378
100
AcDbEntity
  8
0
100
AcDbBlockEnd
  0
BLOCK
  5
382
330
380
100
AcDbEntity
  8
0
100
AcDbBlockBegin
  2
block 61
 70
     0
 71
     0
 10
0.0
 20
0.0
 30
0.0
  3
block 61
  1

  0
POLYLINE
  5
384
330
380
100
AcDbEntity
  8
cotas
 62
   253
420
 11711154
370
     9
100
AcDb2dPolyline
 66
     1
 10
0.0
 20
0.0
 30
0.0
  0
VERTEX
  5
385
330
384
100
AcDbEntity
  8
cotas
 62
   253
420
 11711154
370
     9
100
AcDbVertex
100
AcDb2dVertex
 10
99.28506806328637
 20
139.7241156334718
 30
0.0
  0
VERTEX
  5
386
330
384
100
AcDbEntity
  8
cotas
 62
   253
420
 11711154
370
     9
100
AcDbVertex
100
AcDb2dVertex
 10
99.28506806328637
 20
139.7241156334718
 30
0.0
  0
SEQEND
  5
387
330
384
100
AcDbEntity
  8
cotas
370
     9
  0
ENDBLK
  5
383
330
380
100
AcDbEntity
  8
0
100
AcDbBlockEnd
  0
BLOCK
  5
38A
330
388
100
AcDbEntity
  8
0
100
AcDbBlockBegin
  2
block 62
 70
     0
 71
     0
 10
0.0
 20
0.0
 30
0.0
  3
block 62
  1

  0
POLYLINE
  5
38C
330
388
100
AcDbEntity
  8
cotas
 62
   253
420
 11711154
370
     9
100
AcDb2dPolyline
 66
     1
 10
0.0
 20
0.0
 30
0.0
  0
VERTEX
  5
38D
330
38C
100
AcDbEntity
  8
cotas
 62
   253
420
 11711154
370
     9
100
AcDbVertex
100
AcDb2dVertex
 10
93.87265080118462
 20
139.7241156334718
 30
0.0
  0
VERTEX
  5
38E
330
38C
100
AcDbEntity
  8
cotas
 62
   253
420
 11711154
370
     9
100
AcDbVertex
100
AcDb2dVertex
 10
93.87265080118462
 20
139.7241156334718
 30
0.0
  0
SEQEND
  5
38F
330
38C
100
AcDbEntity
  8
cotas
370
     9
  0
ENDBLK
  5
38B
330
388
100
AcDbEntity
  8
0
100
AcDbBlockEnd
  0
BLOCK
  5
392
330
390
100
AcDbEntity
  8
0
100
AcDbBlockBegin
  2
block 63
 70
     0
 71
     0
 10
0.0
 20
0.0
 30
0.0
  3
block 63
  1

  0
POLYLINE
  5
394
330
390
100
AcDbEntity
  8
cotas
 62
   253
420
 11711154
370
     9
100
AcDb2dPolyline
 66
     1
 10
0.0
 20
0.0
 30
0.0
  0
VERTEX
  5
395
330
394
100
AcDbEntity
  8
cotas
 62
   253
420
 11711154
370
     9
100
AcDbVertex
100
AcDb2dVertex
 10
70.56916366508341
 20
136.1277804564195
 30
0.0
  0
VERTEX
  5
396
330
394
100
AcDbEntity
  8
cotas
 62
   253
420
 11711154
370
     9
100
AcDbVertex
100
AcDb2dVertex
 10
79.22806665771034
 20
136.1277804564195
 30
0.0
  0
SEQEND
  5
397
330
394
100
AcDbEntity
  8
cotas
370
     9
  0
ENDBLK
  5
393
330
390
100
AcDbEntity
  8
0
100
AcDbBlockEnd
  0
BLOCK
  5
39A
330
398
100
AcDbEntity
  8
0
100
AcDbBlockBegin
  2
block 64
 70
     0
 71
     0
 10
0.0
 20
0.0
 30
0.0
  3
block 64
  1

  0
POLYLINE
  5
39C
330
398
100
AcDbEntity
  8
cotas
 62
   253
420
 11711154
370
     9
100
AcDb2dPolyline
 66
     1
 10
0.0
 20
0.0
 30
0.0
  0
VERTEX
  5
39D
330
39C
100
AcDbEntity
  8
cotas
 62
   253
420
 11711154
370
     9
100
AcDbVertex
100
AcDb2dVertex
 10
69.3328911502015
 20
139.7241156334718
 30
0.0
  0
VERTEX
  5
39E
330
39C
100
AcDbEntity
  8
cotas
 62
   253
420
 11711154
370
     9
100
AcDbVertex
100
AcDb2dVertex
 10
79.22806665771034
 20
139.7241156334718
 30
0.0
  0
SEQEND
  5
39F
330
39C
100
AcDbEntity
  8
cotas
370
     9
  0
ENDBLK
  5
39B
330
398
100
AcDbEntity
  8
0
100
AcDbBlockEnd
  0
BLOCK
  5
3A2
330
3A0
100
AcDbEntity
  8
0
100
AcDbBlockBegin
  2
block 65
 70
     0
 71
     0
 10
0.0
 20
0.0
 30
0.0
  3
block 65
  1

  0
POLYLINE
  5
3A4
330
3A0
100
AcDbEntity
  8
cotas
 62
   253
420
 11711154
370
     9
100
AcDb2dPolyline
 66
     1
 10
0.0
 20
0.0
 30
0.0
  0
VERTEX
  5
3A5
330
3A4
100
AcDbEntity
  8
cotas
 62
   253
420
 11711154
370
     9
100
AcDbVertex
100
AcDb2dVertex
 10
78.55127764963302
 20
134.7742024402648
 30
0.0
  0
VERTEX
  5
3A6
330
3A4
100
AcDbEntity
  8
cotas
 62
   253
420
 11711154
370
     9
100
AcDbVertex
100
AcDb2dVertex
 10
78.55127764963302
 20
133.4206244241101
 30
0.0
  0
SEQEND
  5
3A7
330
3A4
100
AcDbEntity
  8
cotas
370
     9
  0
ENDBLK
  5
3A3
330
3A0
100
AcDbEntity
  8
0
100
AcDbBlockEnd
  0
BLOCK
  5
3AA
330
3A8
100
AcDbEntity
  8
0
100
AcDbBlockBegin
  2
block 66
 70
     0
 71
     0
 10
0.0
 20
0.0
 30
0.0
  3
block 66
  1

  0
POLYLINE
  5
3AC
330
3A8
100
AcDbEntity
  8
cotas
 62
   253
420
 11711154
370
     9
100
AcDb2dPolyline
 66
     1
 10
0.0
 20
0.0
 30
0.0
  0
VERTEX
  5
3AD
330
3AC
100
AcDbEntity
  8
cotas
 62
   253
420
 11711154
370
     9
100
AcDbVertex
100
AcDb2dVertex
 10
78.55127764963302
 20
141.0776936496264
 30
0.0
  0
VERTEX
  5
3AE
330
3AC
100
AcDbEntity
  8
cotas
 62
   253
420
 11711154
370
     9
100
AcDbVertex
100
AcDb2dVertex
 10
78.55127764963302
 20
142.4312716657811
 30
0.0
  0
SEQEND
  5
3AF
330
3AC
100
AcDbEntity
  8
cotas
370
     9
  0
ENDBLK
  5
3AB
330
3A8
100
AcDbEntity
  8
0
100
AcDbBlockEnd
  0
BLOCK
  5
3B2
330
3B0
100
AcDbEntity
  8
0
100
AcDbBlockBegin
  2
block 67
 70
     0
 71
     0
 10
0.0
 20
0.0
 30
0.0
  3
block 67
  1

  0
POLYLINE
  5
3B4
330
3B0
100
AcDbEntity
  8
cotas
370
     0
100
AcDb2dPolyline
 66
     1
 10
0.0
 20
0.0
 30
0.0
  0
VERTEX
  5
3B5
330
3B4
100
AcDbEntity
  8
cotas
370
     0
100
AcDbVertex
100
AcDb2dVertex
 10
78.77693140391688
 20
134.7742024402648
 30
0.0
  0
VERTEX
  5
3B6
330
3B4
100
AcDbEntity
  8
cotas
370
     0
100
AcDbVertex
100
AcDb2dVertex
 10
78.32562389534915
 20
134.7742024402648
 30
0.0
  0
VERTEX
  5
3B7
330
3B4
100
AcDbEntity
  8
cotas
370
     0
100
AcDbVertex
100
AcDb2dVertex
 10
78.55127764963302
 20
136.1277804564195
 30
0.0
  0
VERTEX
  5
3B8
330
3B4
100
AcDbEntity
  8
cotas
370
     0
100
AcDbVertex
100
AcDb2dVertex
 10
78.77693140391688
 20
134.7742024402648
 30
0.0
  0
SEQEND
  5
3B9
330
3B4
100
AcDbEntity
  8
cotas
370
     0
  0
HATCH
  5
3BA
330
3B0
100
AcDbEntity
  8
cotas
 62
   253
420
 11711154
100
AcDbHatch
 10
0.0
 20
0.0
 30
0.0
210
0.0
220
0.0
230
1.0
  2
SOLID
 70
     1
 71
     0
 91
        1
 92
        1
 93
        3
 72
     1
 10
78.77693140391688
 20
134.7742024402648
 11
78.32562389534915
 21
134.7742024402648
 72
     1
 10
78.32562389534915
 20
134.7742024402648
 11
78.55127764963302
 21
136.1277804564195
 72
     1
 10
78.55127764963302
 20
136.1277804564195
 11
78.77693140391688
 21
134.7742024402648
 97
        0
 75
     2
 76
     1
 98
        0
  0
ENDBLK
  5
3B3
330
3B0
100
AcDbEntity
  8
0
100
AcDbBlockEnd
  0
BLOCK
  5
3BD
330
3BB
100
AcDbEntity
  8
0
100
AcDbBlockBegin
  2
block 68
 70
     0
 71
     0
 10
0.0
 20
0.0
 30
0.0
  3
block 68
  1

  0
POLYLINE
  5
3BF
330
3BB
100
AcDbEntity
  8
cotas
370
     0
100
AcDb2dPolyline
 66
     1
 10
0.0
 20
0.0
 30
0.0
  0
VERTEX
  5
3C0
330
3BF
100
AcDbEntity
  8
cotas
370
     0
100
AcDbVertex
100
AcDb2dVertex
 10
78.32562389534915
 20
141.0776936496264
 30
0.0
  0
VERTEX
  5
3C1
330
3BF
100
AcDbEntity
  8
cotas
370
     0
100
AcDbVertex
100
AcDb2dVertex
 10
78.77693140391688
 20
141.0776936496264
 30
0.0
  0
VERTEX
  5
3C2
330
3BF
100
AcDbEntity
  8
cotas
370
     0
100
AcDbVertex
100
AcDb2dVertex
 10
78.55127764963302
 20
139.7241156334718
 30
0.0
  0
VERTEX
  5
3C3
330
3BF
100
AcDbEntity
  8
cotas
370
     0
100
AcDbVertex
100
AcDb2dVertex
 10
78.32562389534915
 20
141.0776936496264
 30
0.0
  0
SEQEND
  5
3C4
330
3BF
100
AcDbEntity
  8
cotas
370
     0
  0
HATCH
  5
3C5
330
3BB
100
AcDbEntity
  8
cotas
 62
   253
420
 11711154
100
AcDbHatch
 10
0.0
 20
0.0
 30
0.0
210
0.0
220
0.0
230
1.0
  2
SOLID
 70
     1
 71
     0
 91
        1
 92
        1
 93
        3
 72
     1
 10
78.32562389534915
 20
141.0776936496264
 11
78.77693140391688
 21
141.0776936496264
 72
     1
 10
78.77693140391688
 20
141.0776936496264
 11
78.55127764963302
 21
139.7241156334718
 72
     1
 10
78.55127764963302
 20
139.7241156334718
 11
78.32562389534915
 21
141.0776936496264
 97
        0
 75
     2
 76
     1
 98
        0
  0
ENDBLK
  5
3BE
330
3BB
100
AcDbEntity
  8
0
100
AcDbBlockEnd
  0
BLOCK
  5
3C8
330
3C6
100
AcDbEntity
  8
0
100
AcDbBlockBegin
  2
block 69
 70
     0
 71
     0
 10
0.0
 20
0.0
 30
0.0
  3
block 69
  1

  0
MTEXT
  5
3CA
330
3C6
100
AcDbEntity
  8
cotas
 62
   253
420
 11711154
100
AcDbMText
 10
74.78062064102707
 20
137.2491590368683
 30
0.0
 40
1.353581844786167
 41
0.0
 71
     7
 72
     1
  1
\fMyriad Pro|b0|i0|c0|p34;\W1;max.60
 73
     1
 44
1.0
  0
ENDBLK
  5
3C9
330
3C6
100
AcDbEntity
  8
0
100
AcDbBlockEnd
  0
BLOCK
  5
3CD
330
3CB
100
AcDbEntity
  8
0
100
AcDbBlockBegin
  2
block 70
 70
     0
 71
     0
 10
0.0
 20
0.0
 30
0.0
  3
block 70
  1

  0
POLYLINE
  5
3CF
330
3CB
100
AcDbEntity
  8
cotas
 62
   253
420
 11711154
370
     9
100
AcDb2dPolyline
 66
     1
 10
0.0
 20
0.0
 30
0.0
  0
VERTEX
  5
3D0
330
3CF
100
AcDbEntity
  8
cotas
 62
   253
420
 11711154
370
     9
100
AcDbVertex
100
AcDb2dVertex
 10
69.48637015406938
 20
136.1277804564195
 30
0.0
  0
VERTEX
  5
3D1
330
3CF
100
AcDbEntity
  8
cotas
 62
   253
420
 11711154
370
     9
100
AcDbVertex
100
AcDb2dVertex
 10
69.48637015406938
 20
136.1277804564195
 30
0.0
  0
SEQEND
  5
3D2
330
3CF
100
AcDbEntity
  8
cotas
370
     9
  0
ENDBLK
  5
3CE
330
3CB
100
AcDbEntity
  8
0
100
AcDbBlockEnd
  0
BLOCK
  5
3D5
330
3D3
100
AcDbEntity
  8
0
100
AcDbBlockBegin
  2
block 71
 70
     0
 71
     0
 10
0.0
 20
0.0
 30
0.0
  3
block 71
  1

  0
POLYLINE
  5
3D7
330
3D3
100
AcDbEntity
  8
cotas
 62
   253
420
 11711154
370
     9
100
AcDb2dPolyline
 66
     1
 10
0.0
 20
0.0
 30
0.0
  0
VERTEX
  5
3D8
330
3D7
100
AcDbEntity
  8
cotas
 62
   253
420
 11711154
370
     9
100
AcDbVertex
100
AcDb2dVertex
 10
68.24992538441322
 20
139.7241156334718
 30
0.0
  0
VERTEX
  5
3D9
330
3D7
100
AcDbEntity
  8
cotas
 62
   253
420
 11711154
370
     9
100
AcDbVertex
100
AcDb2dVertex
 10
68.24992538441322
 20
139.7241156334718
 30
0.0
  0
SEQEND
  5
3DA
330
3D7
100
AcDbEntity
  8
cotas
370
     9
  0
ENDBLK
  5
3D6
330
3D3
100
AcDbEntity
  8
0
100
AcDbBlockEnd
  0
BLOCK
  5
3DD
330
3DB
100
AcDbEntity
  8
0
100
AcDbBlockBegin
  2
block 72
 70
     0
 71
     0
 10
0.0
 20
0.0
 30
0.0
  3
block 72
  1

  0
POLYLINE
  5
3DF
330
3DB
100
AcDbEntity
  8
cotas
 62
   253
420
 11711154
370
     9
100
AcDb2dPolyline
 66
     1
 10
0.0
 20
0.0
 30
0.0
  0
VERTEX
  5
3E0
330
3DF
100
AcDbEntity
  8
cotas
 62
   253
420
 11711154
370
     9
100
AcDbVertex
100
AcDb2dVertex
 10
78.55127764963302
 20
139.7241156334718
 30
0.0
  0
VERTEX
  5
3E1
330
3DF
100
AcDbEntity
  8
cotas
 62
   253
420
 11711154
370
     9
100
AcDbVertex
100
AcDb2dVertex
 10
78.55127764963302
 20
139.7241156334718
 30
0.0
  0
SEQEND
  5
3E2
330
3DF
100
AcDbEntity
  8
cotas
370
     9
  0
ENDBLK
  5
3DE
330
3DB
100
AcDbEntity
  8
0
100
AcDbBlockEnd
  0
BLOCK
  5
3E5
330
3E3
100
AcDbEntity
  8
0
100
AcDbBlockBegin
  2
block 73
 70
     0
 71
     0
 10
0.0
 20
0.0
 30
0.0
  3
block 73
  1

  0
POLYLINE
  5
3E7
330
3E3
100
AcDbEntity
  8
cotas
 62
   253
420
 11711154
370
     9
100
AcDb2dPolyline
 66
     1
 10
0.0
 20
0.0
 30
0.0
  0
VERTEX
  5
3E8
330
3E7
100
AcDbEntity
  8
cotas
 62
   253
420
 11711154
370
     9
100
AcDbVertex
100
AcDb2dVertex
 10
100.3957668477309
 20
127.5450140740165
 30
0.0
  0
VERTEX
  5
3E9
330
3E7
100
AcDbEntity
  8
cotas
 62
   253
420
 11711154
370
     9
100
AcDbVertex
100
AcDb2dVertex
 10
100.3957668477309
 20
124.8450927422262
 30
0.0
  0
SEQEND
  5
3EA
330
3E7
100
AcDbEntity
  8
cotas
370
     9
  0
ENDBLK
  5
3E6
330
3E3
100
AcDbEntity
  8
0
100
AcDbBlockEnd
  0
BLOCK
  5
3ED
330
3EB
100
AcDbEntity
  8
0
100
AcDbBlockBegin
  2
block 74
 70
     0
 71
     0
 10
0.0
 20
0.0
 30
0.0
  3
block 74
  1

  0
POLYLINE
  5
3EF
330
3EB
100
AcDbEntity
  8
cotas
 62
   253
420
 11711154
370
     9
100
AcDb2dPolyline
 66
     1
 10
0.0
 20
0.0
 30
0.0
  0
VERTEX
  5
3F0
330
3EF
100
AcDbEntity
  8
cotas
 62
   253
420
 11711154
370
     9
100
AcDbVertex
100
AcDb2dVertex
 10
101.4677083079664
 20
127.5450140740165
 30
0.0
  0
VERTEX
  5
3F1
330
3EF
100
AcDbEntity
  8
cotas
 62
   253
420
 11711154
370
     9
100
AcDbVertex
100
AcDb2dVertex
 10
101.4677083079664
 20
124.8450927422262
 30
0.0
  0
SEQEND
  5
3F2
330
3EF
100
AcDbEntity
  8
cotas
370
     9
  0
ENDBLK
  5
3EE
330
3EB
100
AcDbEntity
  8
0
100
AcDbBlockEnd
  0
BLOCK
  5
3F5
330
3F3
100
AcDbEntity
  8
0
100
AcDbBlockBegin
  2
block 75
 70
     0
 71
     0
 10
0.0
 20
0.0
 30
0.0
  3
block 75
  1

  0
POLYLINE
  5
3F7
330
3F3
100
AcDbEntity
  8
cotas
 62
   253
420
 11711154
370
     9
100
AcDb2dPolyline
 66
     1
 10
0.0
 20
0.0
 30
0.0
  0
VERTEX
  5
3F8
330
3F7
100
AcDbEntity
  8
cotas
 62
   253
420
 11711154
370
     9
100
AcDbVertex
100
AcDb2dVertex
 10
100.3957668477309
 20
125.5220540050778
 30
0.0
  0
VERTEX
  5
3F9
330
3F7
100
AcDbEntity
  8
cotas
 62
   253
420
 11711154
370
     9
100
AcDbVertex
100
AcDb2dVertex
 10
96.6507758004901
 20
125.5220540050778
 30
0.0
  0
SEQEND
  5
3FA
330
3F7
100
AcDbEntity
  8
cotas
370
     9
  0
ENDBLK
  5
3F6
330
3F3
100
AcDbEntity
  8
0
100
AcDbBlockEnd
  0
BLOCK
  5
3FD
330
3FB
100
AcDbEntity
  8
0
100
AcDbBlockBegin
  2
block 76
 70
     0
 71
     0
 10
0.0
 20
0.0
 30
0.0
  3
block 76
  1

  0
POLYLINE
  5
3FF
330
3FB
100
AcDbEntity
  8
cotas
 62
   253
420
 11711154
370
     9
100
AcDb2dPolyline
 66
     1
 10
0.0
 20
0.0
 30
0.0
  0
VERTEX
  5
400
330
3FF
100
AcDbEntity
  8
cotas
 62
   253
420
 11711154
370
     9
100
AcDbVertex
100
AcDb2dVertex
 10
99.042016576802
 20
125.5220540050778
 30
0.0
  0
VERTEX
  5
401
330
3FF
100
AcDbEntity
  8
cotas
 62
   253
420
 11711154
370
     9
100
AcDbVertex
100
AcDb2dVertex
 10
97.68843856064734
 20
125.5220540050778
 30
0.0
  0
SEQEND
  5
402
330
3FF
100
AcDbEntity
  8
cotas
370
     9
  0
ENDBLK
  5
3FE
330
3FB
100
AcDbEntity
  8
0
100
AcDbBlockEnd
  0
BLOCK
  5
405
330
403
100
AcDbEntity
  8
0
100
AcDbBlockBegin
  2
block 77
 70
     0
 71
     0
 10
0.0
 20
0.0
 30
0.0
  3
block 77
  1

  0
POLYLINE
  5
407
330
403
100
AcDbEntity
  8
cotas
 62
   253
420
 11711154
370
     9
100
AcDb2dPolyline
 66
     1
 10
0.0
 20
0.0
 30
0.0
  0
VERTEX
  5
408
330
407
100
AcDbEntity
  8
cotas
 62
   253
420
 11711154
370
     9
100
AcDbVertex
100
AcDb2dVertex
 10
102.8212863241211
 20
125.5220540050778
 30
0.0
  0
VERTEX
  5
409
330
407
100
AcDbEntity
  8
cotas
 62
   253
420
 11711154
370
     9
100
AcDbVertex
100
AcDb2dVertex
 10
104.1748643402757
 20
125.5220540050778
 30
0.0
  0
SEQEND
  5
40A
330
407
100
AcDbEntity
  8
cotas
370
     9
  0
ENDBLK
  5
406
330
403
100
AcDbEntity
  8
0
100
AcDbBlockEnd
  0
BLOCK
  5
40D
330
40B
100
AcDbEntity
  8
0
100
AcDbBlockBegin
  2
block 78
 70
     0
 71
     0
 10
0.0
 20
0.0
 30
0.0
  3
block 78
  1

  0
POLYLINE
  5
40F
330
40B
100
AcDbEntity
  8
cotas
370
     0
100
AcDb2dPolyline
 66
     1
 10
0.0
 20
0.0
 30
0.0
  0
VERTEX
  5
410
330
40F
100
AcDbEntity
  8
cotas
370
     0
100
AcDbVertex
100
AcDb2dVertex
 10
99.042016576802
 20
125.296400250794
 30
0.0
  0
VERTEX
  5
411
330
40F
100
AcDbEntity
  8
cotas
370
     0
100
AcDbVertex
100
AcDb2dVertex
 10
99.042016576802
 20
125.7473632498132
 30
0.0
  0
VERTEX
  5
412
330
40F
100
AcDbEntity
  8
cotas
370
     0
100
AcDbVertex
100
AcDb2dVertex
 10
100.3957668477309
 20
125.5220540050778
 30
0.0
  0
VERTEX
  5
413
330
40F
100
AcDbEntity
  8
cotas
370
     0
100
AcDbVertex
100
AcDb2dVertex
 10
99.042016576802
 20
125.296400250794
 30
0.0
  0
SEQEND
  5
414
330
40F
100
AcDbEntity
  8
cotas
370
     0
  0
HATCH
  5
415
330
40B
100
AcDbEntity
  8
cotas
 62
   253
420
 11711154
100
AcDbHatch
 10
0.0
 20
0.0
 30
0.0
210
0.0
220
0.0
230
1.0
  2
SOLID
 70
     1
 71
     0
 91
        1
 92
        1
 93
        3
 72
     1
 10
99.042016576802
 20
125.296400250794
 11
99.042016576802
 21
125.7473632498132
 72
     1
 10
99.042016576802
 20
125.7473632498132
 11
100.3957668477309
 21
125.5220540050778
 72
     1
 10
100.3957668477309
 20
125.5220540050778
 11
99.042016576802
 21
125.296400250794
 97
        0
 75
     2
 76
     1
 98
        0
  0
ENDBLK
  5
40E
330
40B
100
AcDbEntity
  8
0
100
AcDbBlockEnd
  0
BLOCK
  5
418
330
416
100
AcDbEntity
  8
0
100
AcDbBlockBegin
  2
block 79
 70
     0
 71
     0
 10
0.0
 20
0.0
 30
0.0
  3
block 79
  1

  0
POLYLINE
  5
41A
330
416
100
AcDbEntity
  8
cotas
370
     0
100
AcDb2dPolyline
 66
     1
 10
0.0
 20
0.0
 30
0.0
  0
VERTEX
  5
41B
330
41A
100
AcDbEntity
  8
cotas
370
     0
100
AcDbVertex
100
AcDb2dVertex
 10
102.8212863241211
 20
125.7473632498132
 30
0.0
  0
VERTEX
  5
41C
330
41A
100
AcDbEntity
  8
cotas
370
     0
100
AcDbVertex
100
AcDb2dVertex
 10
102.8212863241211
 20
125.296400250794
 30
0.0
  0
VERTEX
  5
41D
330
41A
100
AcDbEntity
  8
cotas
370
     0
100
AcDbVertex
100
AcDb2dVertex
 10
101.4677083079664
 20
125.5220540050778
 30
0.0
  0
VERTEX
  5
41E
330
41A
100
AcDbEntity
  8
cotas
370
     0
100
AcDbVertex
100
AcDb2dVertex
 10
102.8212863241211
 20
125.7473632498132
 30
0.0
  0
SEQEND
  5
41F
330
41A
100
AcDbEntity
  8
cotas
370
     0
  0
HATCH
  5
420
330
416
100
AcDbEntity
  8
cotas
 62
   253
420
 11711154
100
AcDbHatch
 10
0.0
 20
0.0
 30
0.0
210
0.0
220
0.0
230
1.0
  2
SOLID
 70
     1
 71
     0
 91
        1
 92
        1
 93
        3
 72
     1
 10
102.8212863241211
 20
125.7473632498132
 11
102.8212863241211
 21
125.296400250794
 72
     1
 10
102.8212863241211
 20
125.296400250794
 11
101.4677083079664
 21
125.5220540050778
 72
     1
 10
101.4677083079664
 20
125.5220540050778
 11
102.8212863241211
 21
125.7473632498132
 97
        0
 75
     2
 76
     1
 98
        0
  0
ENDBLK
  5
419
330
416
100
AcDbEntity
  8
0
100
AcDbBlockEnd
  0
BLOCK
  5
423
330
421
100
AcDbEntity
  8
0
100
AcDbBlockBegin
  2
block 80
 70
     0
 71
     0
 10
0.0
 20
0.0
 30
0.0
  3
block 80
  1

  0
MTEXT
  5
425
330
421
100
AcDbEntity
  8
cotas
 62
   253
420
 11711154
100
AcDbMText
 10
87.88473033827188
 20
124.8450927422262
 30
0.0
 40
1.353581844786167
 41
0.0
 71
     7
 72
     1
  1
\fMyriad Pro|b0|i0|c0|p34;\W1;M8x1.25
 73
     1
 44
1.0
  0
ENDBLK
  5
424
330
421
100
AcDbEntity
  8
0
100
AcDbBlockEnd
  0
BLOCK
  5
428
330
426
100
AcDbEntity
  8
0
100
AcDbBlockBegin
  2
block 81
 70
     0
 71
     0
 10
0.0
 20
0.0
 30
0.0
  3
block 81
  1

  0
POLYLINE
  5
42A
330
426
100
AcDbEntity
  8
cotas
 62
   253
420
 11711154
370
     9
100
AcDb2dPolyline
 66
     1
 10
0.0
 20
0.0
 30
0.0
  0
VERTEX
  5
42B
330
42A
100
AcDbEntity
  8
cotas
 62
   253
420
 11711154
370
     9
100
AcDbVertex
100
AcDb2dVertex
 10
100.3957668477309
 20
128.6278075850306
 30
0.0
  0
VERTEX
  5
42C
330
42A
100
AcDbEntity
  8
cotas
 62
   253
420
 11711154
370
     9
100
AcDbVertex
100
AcDb2dVertex
 10
100.3957668477309
 20
128.6278075850306
 30
0.0
  0
SEQEND
  5
42D
330
42A
100
AcDbEntity
  8
cotas
370
     9
  0
ENDBLK
  5
429
330
426
100
AcDbEntity
  8
0
100
AcDbBlockEnd
  0
BLOCK
  5
430
330
42E
100
AcDbEntity
  8
0
100
AcDbBlockBegin
  2
block 82
 70
     0
 71
     0
 10
0.0
 20
0.0
 30
0.0
  3
block 82
  1

  0
POLYLINE
  5
432
330
42E
100
AcDbEntity
  8
cotas
 62
   253
420
 11711154
370
     9
100
AcDb2dPolyline
 66
     1
 10
0.0
 20
0.0
 30
0.0
  0
VERTEX
  5
433
330
432
100
AcDbEntity
  8
cotas
 62
   253
420
 11711154
370
     9
100
AcDbVertex
100
AcDb2dVertex
 10
101.4677083079664
 20
128.6278075850306
 30
0.0
  0
VERTEX
  5
434
330
432
100
AcDbEntity
  8
cotas
 62
   253
420
 11711154
370
     9
100
AcDbVertex
100
AcDb2dVertex
 10
101.4677083079664
 20
128.6278075850306
 30
0.0
  0
SEQEND
  5
435
330
432
100
AcDbEntity
  8
cotas
370
     9
  0
ENDBLK
  5
431
330
42E
100
AcDbEntity
  8
0
100
AcDbBlockEnd
  0
BLOCK
  5
438
330
436
100
AcDbEntity
  8
0
100
AcDbBlockBegin
  2
block 83
 70
     0
 71
     0
 10
0.0
 20
0.0
 30
0.0
  3
block 83
  1

  0
POLYLINE
  5
43A
330
436
100
AcDbEntity
  8
cotas
 62
   253
420
 11711154
370
     9
100
AcDb2dPolyline
 66
     1
 10
0.0
 20
0.0
 30
0.0
  0
VERTEX
  5
43B
330
43A
100
AcDbEntity
  8
cotas
 62
   253
420
 11711154
370
     9
100
AcDbVertex
100
AcDb2dVertex
 10
101.4677083079664
 20
125.5220540050778
 30
0.0
  0
VERTEX
  5
43C
330
43A
100
AcDbEntity
  8
cotas
 62
   253
420
 11711154
370
     9
100
AcDbVertex
100
AcDb2dVertex
 10
101.4677083079664
 20
125.5220540050778
 30
0.0
  0
SEQEND
  5
43D
330
43A
100
AcDbEntity
  8
cotas
370
     9
  0
ENDBLK
  5
439
330
436
100
AcDbEntity
  8
0
100
AcDbBlockEnd
  0
BLOCK
  5
440
330
43E
100
AcDbEntity
  8
0
100
AcDbBlockBegin
  2
block 84
 70
     0
 71
     0
 10
0.0
 20
0.0
 30
0.0
  3
block 84
  1

  0
POLYLINE
  5
442
330
43E
100
AcDbEntity
  8
cotas
 62
   253
420
 11711154
370
     9
100
AcDb2dPolyline
 66
     1
 10
0.0
 20
0.0
 30
0.0
  0
VERTEX
  5
443
330
442
100
AcDbEntity
  8
cotas
 62
   253
420
 11711154
370
     9
100
AcDbVertex
100
AcDb2dVertex
 10
66.26296656329538
 20
120.2186740150842
 30
0.0
  0
VERTEX
  5
444
330
442
100
AcDbEntity
  8
cotas
 62
   253
420
 11711154
370
     9
100
AcDbVertex
100
AcDb2dVertex
 10
66.26296656329538
 20
117.6758490374213
 30
0.0
  0
SEQEND
  5
445
330
442
100
AcDbEntity
  8
cotas
370
     9
  0
ENDBLK
  5
441
330
43E
100
AcDbEntity
  8
0
100
AcDbBlockEnd
  0
BLOCK
  5
448
330
446
100
AcDbEntity
  8
0
100
AcDbBlockBegin
  2
block 85
 70
     0
 71
     0
 10
0.0
 20
0.0
 30
0.0
  3
block 85
  1

  0
POLYLINE
  5
44A
330
446
100
AcDbEntity
  8
cotas
 62
   253
420
 11711154
370
     9
100
AcDb2dPolyline
 66
     1
 10
0.0
 20
0.0
 30
0.0
  0
VERTEX
  5
44B
330
44A
100
AcDbEntity
  8
cotas
 62
   253
420
 11711154
370
     9
100
AcDbVertex
100
AcDb2dVertex
 10
67.60844860505969
 20
120.2186740150842
 30
0.0
  0
VERTEX
  5
44C
330
44A
100
AcDbEntity
  8
cotas
 62
   253
420
 11711154
370
     9
100
AcDbVertex
100
AcDb2dVertex
 10
67.60844860505969
 20
117.6758490374213
 30
0.0
  0
SEQEND
  5
44D
330
44A
100
AcDbEntity
  8
cotas
370
     9
  0
ENDBLK
  5
449
330
446
100
AcDbEntity
  8
0
100
AcDbBlockEnd
  0
BLOCK
  5
450
330
44E
100
AcDbEntity
  8
0
100
AcDbBlockBegin
  2
block 86
 70
     0
 71
     0
 10
0.0
 20
0.0
 30
0.0
  3
block 86
  1

  0
POLYLINE
  5
452
330
44E
100
AcDbEntity
  8
cotas
 62
   253
420
 11711154
370
     9
100
AcDb2dPolyline
 66
     1
 10
0.0
 20
0.0
 30
0.0
  0
VERTEX
  5
453
330
452
100
AcDbEntity
  8
cotas
 62
   253
420
 11711154
370
     9
100
AcDbVertex
100
AcDb2dVertex
 10
66.26296656329538
 20
118.3524657907244
 30
0.0
  0
VERTEX
  5
454
330
452
100
AcDbEntity
  8
cotas
 62
   253
420
 11711154
370
     9
100
AcDbVertex
100
AcDb2dVertex
 10
61.09187823993537
 20
118.3524657907244
 30
0.0
  0
SEQEND
  5
455
330
452
100
AcDbEntity
  8
cotas
370
     9
  0
ENDBLK
  5
451
330
44E
100
AcDbEntity
  8
0
100
AcDbBlockEnd
  0
BLOCK
  5
458
330
456
100
AcDbEntity
  8
0
100
AcDbBlockBegin
  2
block 87
 70
     0
 71
     0
 10
0.0
 20
0.0
 30
0.0
  3
block 87
  1

  0
POLYLINE
  5
45A
330
456
100
AcDbEntity
  8
cotas
 62
   253
420
 11711154
370
     9
100
AcDb2dPolyline
 66
     1
 10
0.0
 20
0.0
 30
0.0
  0
VERTEX
  5
45B
330
45A
100
AcDbEntity
  8
cotas
 62
   253
420
 11711154
370
     9
100
AcDbVertex
100
AcDb2dVertex
 10
64.90938854714071
 20
118.3524657907244
 30
0.0
  0
VERTEX
  5
45C
330
45A
100
AcDbEntity
  8
cotas
 62
   253
420
 11711154
370
     9
100
AcDbVertex
100
AcDb2dVertex
 10
63.55581053098605
 20
118.3524657907244
 30
0.0
  0
SEQEND
  5
45D
330
45A
100
AcDbEntity
  8
cotas
370
     9
  0
ENDBLK
  5
459
330
456
100
AcDbEntity
  8
0
100
AcDbBlockEnd
  0
BLOCK
  5
460
330
45E
100
AcDbEntity
  8
0
100
AcDbBlockBegin
  2
block 88
 70
     0
 71
     0
 10
0.0
 20
0.0
 30
0.0
  3
block 88
  1

  0
POLYLINE
  5
462
330
45E
100
AcDbEntity
  8
cotas
 62
   253
420
 11711154
370
     9
100
AcDb2dPolyline
 66
     1
 10
0.0
 20
0.0
 30
0.0
  0
VERTEX
  5
463
330
462
100
AcDbEntity
  8
cotas
 62
   253
420
 11711154
370
     9
100
AcDbVertex
100
AcDb2dVertex
 10
68.96202662121436
 20
118.3524657907244
 30
0.0
  0
VERTEX
  5
464
330
462
100
AcDbEntity
  8
cotas
 62
   253
420
 11711154
370
     9
100
AcDbVertex
100
AcDb2dVertex
 10
70.31560463736902
 20
118.3524657907244
 30
0.0
  0
SEQEND
  5
465
330
462
100
AcDbEntity
  8
cotas
370
     9
  0
ENDBLK
  5
461
330
45E
100
AcDbEntity
  8
0
100
AcDbBlockEnd
  0
BLOCK
  5
468
330
466
100
AcDbEntity
  8
0
100
AcDbBlockBegin
  2
block 89
 70
     0
 71
     0
 10
0.0
 20
0.0
 30
0.0
  3
block 89
  1

  0
POLYLINE
  5
46A
330
466
100
AcDbEntity
  8
cotas
370
     0
100
AcDb2dPolyline
 66
     1
 10
0.0
 20
0.0
 30
0.0
  0
VERTEX
  5
46B
330
46A
100
AcDbEntity
  8
cotas
370
     0
100
AcDbVertex
100
AcDb2dVertex
 10
64.90938854714071
 20
118.1268120364405
 30
0.0
  0
VERTEX
  5
46C
330
46A
100
AcDbEntity
  8
cotas
370
     0
100
AcDbVertex
100
AcDb2dVertex
 10
64.90938854714071
 20
118.5781195450082
 30
0.0
  0
VERTEX
  5
46D
330
46A
100
AcDbEntity
  8
cotas
370
     0
100
AcDbVertex
100
AcDb2dVertex
 10
66.26296656329538
 20
118.3524657907244
 30
0.0
  0
VERTEX
  5
46E
330
46A
100
AcDbEntity
  8
cotas
370
     0
100
AcDbVertex
100
AcDb2dVertex
 10
64.90938854714071
 20
118.1268120364405
 30
0.0
  0
SEQEND
  5
46F
330
46A
100
AcDbEntity
  8
cotas
370
     0
  0
HATCH
  5
470
330
466
100
AcDbEntity
  8
cotas
 62
   253
420
 11711154
100
AcDbHatch
 10
0.0
 20
0.0
 30
0.0
210
0.0
220
0.0
230
1.0
  2
SOLID
 70
     1
 71
     0
 91
        1
 92
        1
 93
        3
 72
     1
 10
64.90938854714071
 20
118.1268120364405
 11
64.90938854714071
 21
118.5781195450082
 72
     1
 10
64.90938854714071
 20
118.5781195450082
 11
66.26296656329538
 21
118.3524657907244
 72
     1
 10
66.26296656329538
 20
118.3524657907244
 11
64.90938854714071
 21
118.1268120364405
 97
        0
 75
     2
 76
     1
 98
        0
  0
ENDBLK
  5
469
330
466
100
AcDbEntity
  8
0
100
AcDbBlockEnd
  0
BLOCK
  5
473
330
471
100
AcDbEntity
  8
0
100
AcDbBlockBegin
  2
block 90
 70
     0
 71
     0
 10
0.0
 20
0.0
 30
0.0
  3
block 90
  1

  0
POLYLINE
  5
475
330
471
100
AcDbEntity
  8
cotas
370
     0
100
AcDb2dPolyline
 66
     1
 10
0.0
 20
0.0
 30
0.0
  0
VERTEX
  5
476
330
475
100
AcDbEntity
  8
cotas
370
     0
100
AcDbVertex
100
AcDb2dVertex
 10
68.96202662121436
 20
118.5781195450082
 30
0.0
  0
VERTEX
  5
477
330
475
100
AcDbEntity
  8
cotas
370
     0
100
AcDbVertex
100
AcDb2dVertex
 10
68.96202662121436
 20
118.1268120364405
 30
0.0
  0
VERTEX
  5
478
330
475
100
AcDbEntity
  8
cotas
370
     0
100
AcDbVertex
100
AcDb2dVertex
 10
67.60844860505969
 20
118.3524657907244
 30
0.0
  0
VERTEX
  5
479
330
475
100
AcDbEntity
  8
cotas
370
     0
100
AcDbVertex
100
AcDb2dVertex
 10
68.96202662121436
 20
118.5781195450082
 30
0.0
  0
SEQEND
  5
47A
330
475
100
AcDbEntity
  8
cotas
370
     0
  0
HATCH
  5
47B
330
471
100
AcDbEntity
  8
cotas
 62
   253
420
 11711154
100
AcDbHatch
 10
0.0
 20
0.0
 30
0.0
210
0.0
220
0.0
230
1.0
  2
SOLID
 70
     1
 71
     0
 91
        1
 92
        1
 93
        3
 72
     1
 10
68.96202662121436
 20
118.5781195450082
 11
68.96202662121436
 21
118.1268120364405
 72
     1
 10
68.96202662121436
 20
118.1268120364405
 11
67.60844860505969
 21
118.3524657907244
 72
     1
 10
67.60844860505969
 20
118.3524657907244
 11
68.96202662121436
 21
118.5781195450082
 97
        0
 75
     2
 76
     1
 98
        0
  0
ENDBLK
  5
474
330
471
100
AcDbEntity
  8
0
100
AcDbBlockEnd
  0
BLOCK
  5
47E
330
47C
100
AcDbEntity
  8
0
100
AcDbBlockBegin
  2
block 91
 70
     0
 71
     0
 10
0.0
 20
0.0
 30
0.0
  3
block 91
  1

  0
MTEXT
  5
480
330
47C
100
AcDbEntity
  8
cotas
 62
   253
420
 11711154
100
AcDbMText
 10
54.29160426160071
 20
117.9015027917052
 30
0.0
 40
1.353581844786167
 41
0.0
 71
     7
 72
     1
  1
\fMyriad Pro|b0|i0|c0|p34;\W1;R3/8"
 73
     1
 44
1.0
  0
ENDBLK
  5
47F
330
47C
100
AcDbEntity
  8
0
100
AcDbBlockEnd
  0
BLOCK
  5
483
330
481
100
AcDbEntity
  8
0
100
AcDbBlockBegin
  2
block 92
 70
     0
 71
     0
 10
0.0
 20
0.0
 30
0.0
  3
block 92
  1

  0
POLYLINE
  5
485
330
481
100
AcDbEntity
  8
cotas
 62
   253
420
 11711154
370
     9
100
AcDb2dPolyline
 66
     1
 10
0.0
 20
0.0
 30
0.0
  0
VERTEX
  5
486
330
485
100
AcDbEntity
  8
cotas
 62
   253
420
 11711154
370
     9
100
AcDbVertex
100
AcDb2dVertex
 10
66.26296656329538
 20
121.3014675260983
 30
0.0
  0
VERTEX
  5
487
330
485
100
AcDbEntity
  8
cotas
 62
   253
420
 11711154
370
     9
100
AcDbVertex
100
AcDb2dVertex
 10
66.26296656329538
 20
121.3014675260983
 30
0.0
  0
SEQEND
  5
488
330
485
100
AcDbEntity
  8
cotas
370
     9
  0
ENDBLK
  5
484
330
481
100
AcDbEntity
  8
0
100
AcDbBlockEnd
  0
BLOCK
  5
48B
330
489
100
AcDbEntity
  8
0
100
AcDbBlockBegin
  2
block 93
 70
     0
 71
     0
 10
0.0
 20
0.0
 30
0.0
  3
block 93
  1

  0
POLYLINE
  5
48D
330
489
100
AcDbEntity
  8
cotas
 62
   253
420
 11711154
370
     9
100
AcDb2dPolyline
 66
     1
 10
0.0
 20
0.0
 30
0.0
  0
VERTEX
  5
48E
330
48D
100
AcDbEntity
  8
cotas
 62
   253
420
 11711154
370
     9
100
AcDbVertex
100
AcDb2dVertex
 10
67.60844860505969
 20
121.3014675260983
 30
0.0
  0
VERTEX
  5
48F
330
48D
100
AcDbEntity
  8
cotas
 62
   253
420
 11711154
370
     9
100
AcDbVertex
100
AcDb2dVertex
 10
67.60844860505969
 20
121.3014675260983
 30
0.0
  0
SEQEND
  5
490
330
48D
100
AcDbEntity
  8
cotas
370
     9
  0
ENDBLK
  5
48C
330
489
100
AcDbEntity
  8
0
100
AcDbBlockEnd
  0
BLOCK
  5
493
330
491
100
AcDbEntity
  8
0
100
AcDbBlockBegin
  2
block 94
 70
     0
 71
     0
 10
0.0
 20
0.0
 30
0.0
  3
block 94
  1

  0
POLYLINE
  5
495
330
491
100
AcDbEntity
  8
cotas
 62
   253
420
 11711154
370
     9
100
AcDb2dPolyline
 66
     1
 10
0.0
 20
0.0
 30
0.0
  0
VERTEX
  5
496
330
495
100
AcDbEntity
  8
cotas
 62
   253
420
 11711154
370
     9
100
AcDbVertex
100
AcDb2dVertex
 10
67.60844860505969
 20
118.3524657907244
 30
0.0
  0
VERTEX
  5
497
330
495
100
AcDbEntity
  8
cotas
 62
   253
420
 11711154
370
     9
100
AcDbVertex
100
AcDb2dVertex
 10
67.60844860505969
 20
118.3524657907244
 30
0.0
  0
SEQEND
  5
498
330
495
100
AcDbEntity
  8
cotas
370
     9
  0
ENDBLK
  5
494
330
491
100
AcDbEntity
  8
0
100
AcDbBlockEnd
  0
BLOCK
  5
49B
330
499
100
AcDbEntity
  8
0
100
AcDbBlockBegin
  2
block 95
 70
     0
 71
     0
 10
0.0
 20
0.0
 30
0.0
  3
block 95
  1

  0
POLYLINE
  5
49D
330
499
100
AcDbEntity
  8
cotas
 62
   253
420
 11711154
370
     9
100
AcDb2dPolyline
 66
     1
 10
0.0
 20
0.0
 30
0.0
  0
VERTEX
  5
49E
330
49D
100
AcDbEntity
  8
cotas
 62
   253
420
 11711154
370
     9
100
AcDbVertex
100
AcDb2dVertex
 10
61.44138317691396
 20
139.7241156334718
 30
0.0
  0
VERTEX
  5
49F
330
49D
100
AcDbEntity
  8
cotas
 62
   253
420
 11711154
370
     9
100
AcDbVertex
100
AcDb2dVertex
 10
48.08715954744002
 20
139.7241156334718
 30
0.0
  0
SEQEND
  5
4A0
330
49D
100
AcDbEntity
  8
cotas
370
     9
  0
ENDBLK
  5
49C
330
499
100
AcDbEntity
  8
0
100
AcDbBlockEnd
  0
BLOCK
  5
4A3
330
4A1
100
AcDbEntity
  8
0
100
AcDbBlockBegin
  2
block 96
 70
     0
 71
     0
 10
0.0
 20
0.0
 30
0.0
  3
block 96
  1

  0
POLYLINE
  5
4A5
330
4A1
100
AcDbEntity
  8
cotas
 62
   253
420
 11711154
370
     9
100
AcDb2dPolyline
 66
     1
 10
0.0
 20
0.0
 30
0.0
  0
VERTEX
  5
4A6
330
4A5
100
AcDbEntity
  8
cotas
 62
   253
420
 11711154
370
     9
100
AcDbVertex
100
AcDb2dVertex
 10
64.87321504454559
 20
121.3014675260983
 30
0.0
  0
VERTEX
  5
4A7
330
4A5
100
AcDbEntity
  8
cotas
 62
   253
420
 11711154
370
     9
100
AcDbVertex
100
AcDb2dVertex
 10
48.08715954744002
 20
121.3014675260983
 30
0.0
  0
SEQEND
  5
4A8
330
4A5
100
AcDbEntity
  8
cotas
370
     9
  0
ENDBLK
  5
4A4
330
4A1
100
AcDbEntity
  8
0
100
AcDbBlockEnd
  0
BLOCK
  5
4AB
330
4A9
100
AcDbEntity
  8
0
100
AcDbBlockBegin
  2
block 97
 70
     0
 71
     0
 10
0.0
 20
0.0
 30
0.0
  3
block 97
  1

  0
POLYLINE
  5
4AD
330
4A9
100
AcDbEntity
  8
cotas
 62
   253
420
 11711154
370
     9
100
AcDb2dPolyline
 66
     1
 10
0.0
 20
0.0
 30
0.0
  0
VERTEX
  5
4AE
330
4AD
100
AcDbEntity
  8
cotas
 62
   253
420
 11711154
370
     9
100
AcDbVertex
100
AcDb2dVertex
 10
48.76394855551735
 20
138.3705376173171
 30
0.0
  0
VERTEX
  5
4AF
330
4AD
100
AcDbEntity
  8
cotas
 62
   253
420
 11711154
370
     9
100
AcDbVertex
100
AcDb2dVertex
 10
48.76394855551735
 20
131.8661973411654
 30
0.0
  0
SEQEND
  5
4B0
330
4AD
100
AcDbEntity
  8
cotas
370
     9
  0
ENDBLK
  5
4AC
330
4A9
100
AcDbEntity
  8
0
100
AcDbBlockEnd
  0
BLOCK
  5
4B3
330
4B1
100
AcDbEntity
  8
0
100
AcDbBlockBegin
  2
block 98
 70
     0
 71
     0
 10
0.0
 20
0.0
 30
0.0
  3
block 98
  1

  0
POLYLINE
  5
4B5
330
4B1
100
AcDbEntity
  8
cotas
 62
   253
420
 11711154
370
     9
100
AcDb2dPolyline
 66
     1
 10
0.0
 20
0.0
 30
0.0
  0
VERTEX
  5
4B6
330
4B5
100
AcDbEntity
  8
cotas
 62
   253
420
 11711154
370
     9
100
AcDbVertex
100
AcDb2dVertex
 10
48.76394855551735
 20
122.6550455422529
 30
0.0
  0
VERTEX
  5
4B7
330
4B5
100
AcDbEntity
  8
cotas
 62
   253
420
 11711154
370
     9
100
AcDbVertex
100
AcDb2dVertex
 10
48.76394855551735
 20
129.1590413088561
 30
0.0
  0
SEQEND
  5
4B8
330
4B5
100
AcDbEntity
  8
cotas
370
     9
  0
ENDBLK
  5
4B4
330
4B1
100
AcDbEntity
  8
0
100
AcDbBlockEnd
  0
BLOCK
  5
4BB
330
4B9
100
AcDbEntity
  8
0
100
AcDbBlockBegin
  2
block 99
 70
     0
 71
     0
 10
0.0
 20
0.0
 30
0.0
  3
block 99
  1

  0
POLYLINE
  5
4BD
330
4B9
100
AcDbEntity
  8
cotas
370
     0
100
AcDb2dPolyline
 66
     1
 10
0.0
 20
0.0
 30
0.0
  0
VERTEX
  5
4BE
330
4BD
100
AcDbEntity
  8
cotas
370
     0
100
AcDbVertex
100
AcDb2dVertex
 10
48.98960230980121
 20
138.3705376173171
 30
0.0
  0
VERTEX
  5
4BF
330
4BD
100
AcDbEntity
  8
cotas
370
     0
100
AcDbVertex
100
AcDb2dVertex
 10
48.53846705600775
 20
138.3705376173171
 30
0.0
  0
VERTEX
  5
4C0
330
4BD
100
AcDbEntity
  8
cotas
370
     0
100
AcDbVertex
100
AcDb2dVertex
 10
48.76394855551735
 20
139.7241156334718
 30
0.0
  0
VERTEX
  5
4C1
330
4BD
100
AcDbEntity
  8
cotas
370
     0
100
AcDbVertex
100
AcDb2dVertex
 10
48.98960230980121
 20
138.3705376173171
 30
0.0
  0
SEQEND
  5
4C2
330
4BD
100
AcDbEntity
  8
cotas
370
     0
  0
HATCH
  5
4C3
330
4B9
100
AcDbEntity
  8
cotas
 62
   253
420
 11711154
100
AcDbHatch
 10
0.0
 20
0.0
 30
0.0
210
0.0
220
0.0
230
1.0
  2
SOLID
 70
     1
 71
     0
 91
        1
 92
        1
 93
        3
 72
     1
 10
48.98960230980121
 20
138.3705376173171
 11
48.53846705600775
 21
138.3705376173171
 72
     1
 10
48.53846705600775
 20
138.3705376173171
 11
48.76394855551735
 21
139.7241156334718
 72
     1
 10
48.76394855551735
 20
139.7241156334718
 11
48.98960230980121
 21
138.3705376173171
 97
        0
 75
     2
 76
     1
 98
        0
  0
ENDBLK
  5
4BC
330
4B9
100
AcDbEntity
  8
0
100
AcDbBlockEnd
  0
BLOCK
  5
4C6
330
4C4
100
AcDbEntity
  8
0
100
AcDbBlockBegin
  2
block 100
 70
     0
 71
     0
 10
0.0
 20
0.0
 30
0.0
  3
block 100
  1

  0
POLYLINE
  5
4C8
330
4C4
100
AcDbEntity
  8
cotas
370
     0
100
AcDb2dPolyline
 66
     1
 10
0.0
 20
0.0
 30
0.0
  0
VERTEX
  5
4C9
330
4C8
100
AcDbEntity
  8
cotas
370
     0
100
AcDbVertex
100
AcDb2dVertex
 10
48.53846705600775
 20
122.6550455422529
 30
0.0
  0
VERTEX
  5
4CA
330
4C8
100
AcDbEntity
  8
cotas
370
     0
100
AcDbVertex
100
AcDb2dVertex
 10
48.98960230980121
 20
122.6550455422529
 30
0.0
  0
VERTEX
  5
4CB
330
4C8
100
AcDbEntity
  8
cotas
370
     0
100
AcDbVertex
100
AcDb2dVertex
 10
48.76394855551735
 20
121.3014675260983
 30
0.0
  0
VERTEX
  5
4CC
330
4C8
100
AcDbEntity
  8
cotas
370
     0
100
AcDbVertex
100
AcDb2dVertex
 10
48.53846705600775
 20
122.6550455422529
 30
0.0
  0
SEQEND
  5
4CD
330
4C8
100
AcDbEntity
  8
cotas
370
     0
  0
HATCH
  5
4CE
330
4C4
100
AcDbEntity
  8
cotas
 62
   253
420
 11711154
100
AcDbHatch
 10
0.0
 20
0.0
 30
0.0
210
0.0
220
0.0
230
1.0
  2
SOLID
 70
     1
 71
     0
 91
        1
 92
        1
 93
        3
 72
     1
 10
48.53846705600775
 20
122.6550455422529
 11
48.98960230980121
 21
122.6550455422529
 72
     1
 10
48.98960230980121
 20
122.6550455422529
 11
48.76394855551735
 21
121.3014675260983
 72
     1
 10
48.76394855551735
 20
121.3014675260983
 11
48.53846705600775
 21
122.6550455422529
 97
        0
 75
     2
 76
     1
 98
        0
  0
ENDBLK
  5
4C7
330
4C4
100
AcDbEntity
  8
0
100
AcDbBlockEnd
  0
BLOCK
  5
4D1
330
4CF
100
AcDbEntity
  8
0
100
AcDbBlockBegin
  2
block 101
 70
     0
 71
     0
 10
0.0
 20
0.0
 30
0.0
  3
block 101
  1

  0
MTEXT
  5
4D3
330
4CF
100
AcDbEntity
  8
cotas
 62
   253
420
 11711154
100
AcDbMText
 10
46.83021645964661
 20
129.8360025717077
 30
0.0
 40
1.353581844786167
 41
0.0
 71
     7
 72
     1
  1
\fMyriad Pro|b0|i0|c0|p34;\W1;395
 73
     1
 44
1.0
  0
ENDBLK
  5
4D2
330
4CF
100
AcDbEntity
  8
0
100
AcDbBlockEnd
  0
BLOCK
  5
4D6
330
4D4
100
AcDbEntity
  8
0
100
AcDbBlockBegin
  2
block 102
 70
     0
 71
     0
 10
0.0
 20
0.0
 30
0.0
  3
block 102
  1

  0
POLYLINE
  5
4D8
330
4D4
100
AcDbEntity
  8
cotas
 62
   253
420
 11711154
370
     9
100
AcDb2dPolyline
 66
     1
 10
0.0
 20
0.0
 30
0.0
  0
VERTEX
  5
4D9
330
4D8
100
AcDbEntity
  8
cotas
 62
   253
420
 11711154
370
     9
100
AcDbVertex
100
AcDb2dVertex
 10
62.52434894270225
 20
139.7241156334718
 30
0.0
  0
VERTEX
  5
4DA
330
4D8
100
AcDbEntity
  8
cotas
 62
   253
420
 11711154
370
     9
100
AcDbVertex
100
AcDb2dVertex
 10
62.52434894270225
 20
139.7241156334718
 30
0.0
  0
SEQEND
  5
4DB
330
4D8
100
AcDbEntity
  8
cotas
370
     9
  0
ENDBLK
  5
4D7
330
4D4
100
AcDbEntity
  8
0
100
AcDbBlockEnd
  0
BLOCK
  5
4DE
330
4DC
100
AcDbEntity
  8
0
100
AcDbBlockBegin
  2
block 103
 70
     0
 71
     0
 10
0.0
 20
0.0
 30
0.0
  3
block 103
  1

  0
POLYLINE
  5
4E0
330
4DC
100
AcDbEntity
  8
cotas
 62
   253
420
 11711154
370
     9
100
AcDb2dPolyline
 66
     1
 10
0.0
 20
0.0
 30
0.0
  0
VERTEX
  5
4E1
330
4E0
100
AcDbEntity
  8
cotas
 62
   253
420
 11711154
370
     9
100
AcDbVertex
100
AcDb2dVertex
 10
65.95618081033388
 20
121.3014675260983
 30
0.0
  0
VERTEX
  5
4E2
330
4E0
100
AcDbEntity
  8
cotas
 62
   253
420
 11711154
370
     9
100
AcDbVertex
100
AcDb2dVertex
 10
65.95618081033388
 20
121.3014675260983
 30
0.0
  0
SEQEND
  5
4E3
330
4E0
100
AcDbEntity
  8
cotas
370
     9
  0
ENDBLK
  5
4DF
330
4DC
100
AcDbEntity
  8
0
100
AcDbBlockEnd
  0
BLOCK
  5
4E6
330
4E4
100
AcDbEntity
  8
0
100
AcDbBlockBegin
  2
block 104
 70
     0
 71
     0
 10
0.0
 20
0.0
 30
0.0
  3
block 104
  1

  0
POLYLINE
  5
4E8
330
4E4
100
AcDbEntity
  8
cotas
 62
   253
420
 11711154
370
     9
100
AcDb2dPolyline
 66
     1
 10
0.0
 20
0.0
 30
0.0
  0
VERTEX
  5
4E9
330
4E8
100
AcDbEntity
  8
cotas
 62
   253
420
 11711154
370
     9
100
AcDbVertex
100
AcDb2dVertex
 10
48.76394855551735
 20
121.3014675260983
 30
0.0
  0
VERTEX
  5
4EA
330
4E8
100
AcDbEntity
  8
cotas
 62
   253
420
 11711154
370
     9
100
AcDbVertex
100
AcDb2dVertex
 10
48.76394855551735
 20
121.3014675260983
 30
0.0
  0
SEQEND
  5
4EB
330
4E8
100
AcDbEntity
  8
cotas
370
     9
  0
ENDBLK
  5
4E7
330
4E4
100
AcDbEntity
  8
0
100
AcDbBlockEnd
  0
ENDSEC
  0
SECTION
  2
ENTITIES
  0
POLYLINE
  5
3C
330
1F
100
AcDbEntity
  8
cuerpo
 62
     7
420
 16777215
370
     9
100
AcDb2dPolyline
 66
     1
 10
0.0
 20
0.0
 30
0.0
  0
VERTEX
  5
3D
330
3C
100
AcDbEntity
  8
cuerpo
 62
     7
420
 16777215
370
     9
100
AcDbVertex
100
AcDb2dVertex
 10
62.52434894270225
 20
139.7241156334718
 30
0.0
  0
VERTEX
  5
3E
330
3C
100
AcDbEntity
  8
cuerpo
 62
     7
420
 16777215
370
     9
100
AcDbVertex
100
AcDb2dVertex
 10
68.24992538441322
 20
139.7241156334718
 30
0.0
  0
SEQEND
  5
3F
330
3C
100
AcDbEntity
  8
cuerpo
370
     9
  0
POLYLINE
  5
40
330
1F
100
AcDbEntity
  8
cuerpo
 62
     7
420
 16777215
370
     9
100
AcDb2dPolyline
 66
     1
 10
0.0
 20
0.0
 30
0.0
  0
VERTEX
  5
41
330
40
100
AcDbEntity
  8
cuerpo
 62
     7
420
 16777215
370
     9
100
AcDbVertex
100
AcDb2dVertex
 10
68.48436413218447
 20
147.9740857919995
 30
0.0
  0
VERTEX
  5
42
330
40
100
AcDbEntity
  8
cuerpo
 62
     7
420
 16777215
370
     9
100
AcDbVertex
100
AcDb2dVertex
 10
68.48436413218447
 20
151.9063177788637
 30
0.0
  0
SEQEND
  5
43
330
40
100
AcDbEntity
  8
cuerpo
370
     9
  0
POLYLINE
  5
44
330
1F
100
AcDbEntity
  8
cuerpo
 62
     7
420
 16777215
370
     9
100
AcDb2dPolyline
 66
     1
 10
0.0
 20
0.0
 30
0.0
  0
VERTEX
  5
45
330
44
100
AcDbEntity
  8
cuerpo
 62
     7
420
 16777215
370
     9
100
AcDbVertex
100
AcDb2dVertex
 10
62.27147893408491
 20
147.9740857919995
 30
0.0
  0
VERTEX
  5
46
330
44
100
AcDbEntity
  8
cuerpo
 62
     7
420
 16777215
370
     9
100
AcDbVertex
100
AcDb2dVertex
 10
62.27147893408491
 20
151.9063177788637
 30
0.0
  0
SEQEND
  5
47
330
44
100
AcDbEntity
  8
cuerpo
370
     9
  0
POLYLINE
  5
48
330
1F
100
AcDbEntity
  8
cuerpo
 62
     7
420
 16777215
370
     9
100
AcDb2dPolyline
 66
     1
 10
0.0
 20
0.0
 30
0.0
  0
VERTEX
  5
49
330
48
100
AcDbEntity
  8
cuerpo
 62
     7
420
 16777215
370
     9
100
AcDbVertex
100
AcDb2dVertex
 10
62.27147893408491
 20
151.9063177788637
 30
0.0
  0
VERTEX
  5
4A
330
48
100
AcDbEntity
  8
cuerpo
 62
     7
420
 16777215
370
     9
100
AcDbVertex
100
AcDb2dVertex
 10
66.31584877899395
 20
151.9063177788637
 30
0.0
  0
SEQEND
  5
4B
330
48
100
AcDbEntity
  8
cuerpo
370
     9
  0
POLYLINE
  5
4C
330
1F
100
AcDbEntity
  8
cuerpo
 62
     7
420
 16777215
370
     9
100
AcDb2dPolyline
 66
     1
 10
0.0
 20
0.0
 30
0.0
  0
VERTEX
  5
4D
330
4C
100
AcDbEntity
  8
cuerpo
 62
     7
420
 16777215
370
     9
100
AcDbVertex
100
AcDb2dVertex
 10
62.27147893408491
 20
147.9740857919995
 30
0.0
  0
VERTEX
  5
4E
330
4C
100
AcDbEntity
  8
cuerpo
 62
     7
420
 16777215
370
     9
100
AcDbVertex
100
AcDb2dVertex
 10
68.48436413218447
 20
147.9740857919995
 30
0.0
  0
SEQEND
  5
4F
330
4C
100
AcDbEntity
  8
cuerpo
370
     9
  0
SPLINE
  5
50
330
1F
100
AcDbEntity
  8
cuerpo
 62
     7
420
 16777215
370
     9
100
AcDbSpline
210
0.0
220
0.0
230
1.0
 70
    11
 71
     3
 72
    20
 73
    16
 74
     0
 42
0.0000000001
 43
0.0000000001
 40
0.0
 40
0.0
 40
0.0
 40
0.0
 40
1.0
 40
1.0
 40
1.0
 40
2.0
 40
2.0
 40
2.0
 40
3.0
 40
3.0
 40
3.0
 40
4.0
 40
4.0
 40
4.0
 40
5.0
 40
5.0
 40
5.0
 40
5.0
 10
65.80442435420862
 20
149.3646985846206
 30
0.0
 10
65.80442435420862
 20
149.6001708610375
 30
0.0
 10
65.61339380955151
 20
149.7912014056946
 30
0.0
 10
65.3779215331347
 20
149.7912014056946
 30
0.0
 10
65.14244925671787
 20
149.7912014056946
 30
0.0
 10
64.95159096683503
 20
149.6001708610375
 30
0.0
 10
64.95159096683503
 20
149.3646985846206
 30
0.0
 10
64.95159096683503
 20
149.1292263082038
 30
0.0
 10
65.14244925671787
 20
148.938368018321
 30
0.0
 10
65.3779215331347
 20
148.938368018321
 30
0.0
 10
65.61339380955151
 20
148.938368018321
 30
0.0
 10
65.80442435420862
 20
149.1292263082038
 30
0.0
 10
65.80442435420862
 20
149.3646985846206
 30
0.0
 10
65.80442435420862
 20
149.3646985846206
 30
0.0
 10
65.80442435420862
 20
149.3646985846206
 30
0.0
 10
65.80442435420862
 20
149.3646985846206
 30
0.0
  0
POLYLINE
  5
51
330
1F
100
AcDbEntity
  8
cuerpo
 62
     7
420
 16777215
370
     9
100
AcDb2dPolyline
 66
     1
 10
0.0
 20
0.0
 30
0.0
  0
VERTEX
  5
52
330
51
100
AcDbEntity
  8
cuerpo
 62
     7
420
 16777215
370
     9
100
AcDbVertex
100
AcDb2dVertex
 10
99.04132755770495
 20
148.2459038257857
 30
0.0
  0
VERTEX
  5
53
330
51
100
AcDbEntity
  8
cuerpo
 62
     7
420
 16777215
370
     9
100
AcDbVertex
100
AcDb2dVertex
 10
99.18826088015085
 20
148.2331569724903
 30
0.0
  0
SEQEND
  5
54
330
51
100
AcDbEntity
  8
cuerpo
370
     9
  0
POLYLINE
  5
55
330
1F
100
AcDbEntity
  8
cuerpo
 62
     7
420
 16777215
370
     9
100
AcDb2dPolyline
 66
     1
 10
0.0
 20
0.0
 30
0.0
  0
VERTEX
  5
56
330
55
100
AcDbEntity
  8
cuerpo
 62
     7
420
 16777215
370
     9
100
AcDbVertex
100
AcDb2dVertex
 10
102.147942411529
 20
147.9740857919995
 30
0.0
  0
VERTEX
  5
57
330
55
100
AcDbEntity
  8
cuerpo
 62
     7
420
 16777215
370
     9
100
AcDbVertex
100
AcDb2dVertex
 10
99.18826088015085
 20
148.2331569724903
 30
0.0
  0
SEQEND
  5
58
330
55
100
AcDbEntity
  8
cuerpo
370
     9
  0
POLYLINE
  5
59
330
1F
100
AcDbEntity
  8
cuerpo
 62
     7
420
 16777215
370
     9
100
AcDb2dPolyline
 66
     1
 10
0.0
 20
0.0
 30
0.0
  0
VERTEX
  5
5A
330
59
100
AcDbEntity
  8
cuerpo
 62
     7
420
 16777215
370
     9
100
AcDbVertex
100
AcDb2dVertex
 10
105.2542127558045
 20
147.9740857919995
 30
0.0
  0
VERTEX
  5
5B
330
59
100
AcDbEntity
  8
cuerpo
 62
     7
420
 16777215
370
     9
100
AcDbVertex
100
AcDb2dVertex
 10
105.1143418791034
 20
147.9740857919995
 30
0.0
  0
SEQEND
  5
5C
330
59
100
AcDbEntity
  8
cuerpo
370
     9
  0
POLYLINE
  5
5D
330
1F
100
AcDbEntity
  8
cuerpo
 62
     7
420
 16777215
370
     9
100
AcDb2dPolyline
 66
     1
 10
0.0
 20
0.0
 30
0.0
  0
VERTEX
  5
5E
330
5D
100
AcDbEntity
  8
cuerpo
 62
     7
420
 16777215
370
     9
100
AcDbVertex
100
AcDb2dVertex
 10
105.1143418791034
 20
147.9740857919995
 30
0.0
  0
VERTEX
  5
5F
330
5D
100
AcDbEntity
  8
cuerpo
 62
     7
420
 16777215
370
     9
100
AcDbVertex
100
AcDb2dVertex
 10
102.147942411529
 20
147.9740857919995
 30
0.0
  0
SEQEND
  5
60
330
5D
100
AcDbEntity
  8
cuerpo
370
     9
  0
POLYLINE
  5
61
330
1F
100
AcDbEntity
  8
cuerpo
 62
     7
420
 16777215
370
     9
100
AcDb2dPolyline
 66
     1
 10
0.0
 20
0.0
 30
0.0
  0
VERTEX
  5
62
330
61
100
AcDbEntity
  8
cuerpo
 62
     7
420
 16777215
370
     9
100
AcDbVertex
100
AcDb2dVertex
 10
105.2542127558045
 20
150.8640041398014
 30
0.0
  0
VERTEX
  5
63
330
61
100
AcDbEntity
  8
cuerpo
 62
     7
420
 16777215
370
     9
100
AcDbVertex
100
AcDb2dVertex
 10
105.2542127558045
 20
147.9740857919995
 30
0.0
  0
SEQEND
  5
64
330
61
100
AcDbEntity
  8
cuerpo
370
     9
  0
POLYLINE
  5
65
330
1F
100
AcDbEntity
  8
cuerpo
 62
     7
420
 16777215
370
     9
100
AcDb2dPolyline
 66
     1
 10
0.0
 20
0.0
 30
0.0
  0
VERTEX
  5
66
330
65
100
AcDbEntity
  8
cuerpo
 62
     7
420
 16777215
370
     9
100
AcDbVertex
100
AcDb2dVertex
 10
99.04132755770495
 20
148.2459038257857
 30
0.0
  0
VERTEX
  5
67
330
65
100
AcDbEntity
  8
cuerpo
 62
     7
420
 16777215
370
     9
100
AcDbVertex
100
AcDb2dVertex
 10
99.04132755770495
 20
152.1771022840043
 30
0.0
  0
SEQEND
  5
68
330
65
100
AcDbEntity
  8
cuerpo
370
     9
  0
POLYLINE
  5
69
330
1F
100
AcDbEntity
  8
cuerpo
 62
     7
420
 16777215
370
     9
100
AcDb2dPolyline
 66
     1
 10
0.0
 20
0.0
 30
0.0
  0
VERTEX
  5
6A
330
69
100
AcDbEntity
  8
cuerpo
 62
     7
420
 16777215
370
     9
100
AcDbVertex
100
AcDb2dVertex
 10
105.0106445049973
 20
147.3040147201185
 30
0.0
  0
VERTEX
  5
6B
330
69
100
AcDbEntity
  8
cuerpo
 62
     7
420
 16777215
370
     9
100
AcDbVertex
100
AcDb2dVertex
 10
99.28506806328637
 20
147.3040147201185
 30
0.0
  0
SEQEND
  5
6C
330
69
100
AcDbEntity
  8
cuerpo
370
     9
  0
SPLINE
  5
6D
330
1F
100
AcDbEntity
  8
cuerpo
 62
     7
420
 16777215
370
     9
100
AcDbSpline
210
0.0
220
0.0
230
1.0
 70
     8
 71
     3
 72
     8
 73
     4
 74
     0
 42
0.0000000001
 43
0.0000000001
 40
0.0
 40
0.0
 40
0.0
 40
0.0
 40
1.0
 40
1.0
 40
1.0
 40
1.0
 10
99.4480210797387
 20
148.2104193422877
 30
0.0
 10
99.34811331066645
 20
147.9182752451385
 30
0.0
 10
99.29316403767672
 20
147.6126952755968
 30
0.0
 10
99.28506806328637
 20
147.3040147201185
 30
0.0
  0
SPLINE
  5
6E
330
1F
100
AcDbEntity
  8
cuerpo
 62
     7
420
 16777215
370
     9
100
AcDbSpline
210
0.0
220
0.0
230
1.0
 70
     8
 71
     3
 72
     8
 73
     4
 74
     0
 42
0.0000000001
 43
0.0000000001
 40
0.0
 40
0.0
 40
0.0
 40
0.0
 40
1.0
 40
1.0
 40
1.0
 40
1.0
 10
105.0106445049973
 20
147.3040147201185
 30
0.0
 10
105.0047878426724
 20
147.5303574934994
 30
0.0
 10
104.9736097285309
 20
147.7549777191377
 30
0.0
 10
104.9179714364441
 20
147.9740857919995
 30
0.0
  0
SPLINE
  5
6F
330
1F
100
AcDbEntity
  8
cuerpo
 62
     7
420
 16777215
370
     9
100
AcDbSpline
210
0.0
220
0.0
230
1.0
 70
     8
 71
     3
 72
     8
 73
     4
 74
     0
 42
0.0000000001
 43
0.0000000001
 40
0.0
 40
0.0
 40
0.0
 40
0.0
 40
1.0
 40
1.0
 40
1.0
 40
1.0
 10
105.1401800952427
 20
152.1771022840043
 30
0.0
 10
105.1024562996792
 20
151.7361300618924
 30
0.0
 10
105.1408691143398
 20
151.2918849990694
 30
0.0
 10
105.2542127558045
 20
150.8640041398014
 30
0.0
  0
SPLINE
  5
70
330
1F
100
AcDbEntity
  8
cuerpo
 62
     7
420
 16777215
370
     9
100
AcDbSpline
210
0.0
220
0.0
230
1.0
 70
     8
 71
     3
 72
     8
 73
     4
 74
     0
 42
0.0000000001
 43
0.0000000001
 40
0.0
 40
0.0
 40
0.0
 40
0.0
 40
1.0
 40
1.0
 40
1.0
 40
1.0
 10
62.61581622783563
 20
147.9740857919995
 30
0.0
 10
62.55518254729523
 20
147.7560112477832
 30
0.0
 10
62.52434894270225
 20
147.5307020030479
 30
0.0
 10
62.52434894270225
 20
147.3040147201185
 30
0.0
  0
SPLINE
  5
71
330
1F
100
AcDbEntity
  8
cuerpo
 62
     7
420
 16777215
370
     9
100
AcDbSpline
210
0.0
220
0.0
230
1.0
 70
     8
 71
     3
 72
     8
 73
     4
 74
     0
 42
0.0000000001
 43
0.0000000001
 40
0.0
 40
0.0
 40
0.0
 40
0.0
 40
1.0
 40
1.0
 40
1.0
 40
1.0
 10
68.24992538441322
 20
147.3040147201185
 30
0.0
 10
68.24992538441322
 20
147.5307020030479
 30
0.0
 10
68.21909177982023
 20
147.7560112477832
 30
0.0
 10
68.15845809927983
 20
147.9740857919995
 30
0.0
  0
POLYLINE
  5
72
330
1F
100
AcDbEntity
  8
cuerpo
 62
     7
420
 16777215
370
     9
100
AcDb2dPolyline
 66
     1
 10
0.0
 20
0.0
 30
0.0
  0
VERTEX
  5
73
330
72
100
AcDbEntity
  8
cuerpo
 62
     7
420
 16777215
370
     9
100
AcDbVertex
100
AcDb2dVertex
 10
68.24992538441322
 20
139.7241156334718
 30
0.0
  0
VERTEX
  5
74
330
72
100
AcDbEntity
  8
cuerpo
 62
     7
420
 16777215
370
     9
100
AcDbVertex
100
AcDb2dVertex
 10
62.52434894270225
 20
139.7241156334718
 30
0.0
  0
SEQEND
  5
75
330
72
100
AcDbEntity
  8
cuerpo
370
     9
  0
POLYLINE
  5
76
330
1F
100
AcDbEntity
  8
cuerpo
 62
     7
420
 16777215
370
     9
100
AcDb2dPolyline
 66
     1
 10
0.0
 20
0.0
 30
0.0
  0
VERTEX
  5
77
330
76
100
AcDbEntity
  8
cuerpo
 62
     7
420
 16777215
370
     9
100
AcDbVertex
100
AcDb2dVertex
 10
68.24992538441322
 20
139.7241156334718
 30
0.0
  0
VERTEX
  5
78
330
76
100
AcDbEntity
  8
cuerpo
 62
     7
420
 16777215
370
     9
100
AcDbVertex
100
AcDb2dVertex
 10
68.24992538441322
 20
147.3040147201185
 30
0.0
  0
SEQEND
  5
79
330
76
100
AcDbEntity
  8
cuerpo
370
     9
  0
POLYLINE
  5
7A
330
1F
100
AcDbEntity
  8
cuerpo
 62
     7
420
 16777215
370
     9
100
AcDb2dPolyline
 66
     1
 10
0.0
 20
0.0
 30
0.0
  0
VERTEX
  5
7B
330
7A
100
AcDbEntity
  8
cuerpo
 62
     7
420
 16777215
370
     9
100
AcDbVertex
100
AcDb2dVertex
 10
68.24992538441322
 20
147.3040147201185
 30
0.0
  0
VERTEX
  5
7C
330
7A
100
AcDbEntity
  8
cuerpo
 62
     7
420
 16777215
370
     9
100
AcDbVertex
100
AcDb2dVertex
 10
62.52434894270225
 20
147.3040147201185
 30
0.0
  0
SEQEND
  5
7D
330
7A
100
AcDbEntity
  8
cuerpo
370
     9
  0
POLYLINE
  5
7E
330
1F
100
AcDbEntity
  8
cuerpo
 62
     7
420
 16777215
370
     9
100
AcDb2dPolyline
 66
     1
 10
0.0
 20
0.0
 30
0.0
  0
VERTEX
  5
7F
330
7E
100
AcDbEntity
  8
cuerpo
 62
     7
420
 16777215
370
     9
100
AcDbVertex
100
AcDb2dVertex
 10
62.52434894270225
 20
139.7241156334718
 30
0.0
  0
VERTEX
  5
80
330
7E
100
AcDbEntity
  8
cuerpo
 62
     7
420
 16777215
370
     9
100
AcDbVertex
100
AcDb2dVertex
 10
62.52434894270225
 20
140.4954725126192
 30
0.0
  0
SEQEND
  5
81
330
7E
100
AcDbEntity
  8
cuerpo
370
     9
  0
POLYLINE
  5
82
330
1F
100
AcDbEntity
  8
cuerpo
 62
     7
420
 16777215
370
     9
100
AcDb2dPolyline
 66
     1
 10
0.0
 20
0.0
 30
0.0
  0
VERTEX
  5
83
330
82
100
AcDbEntity
  8
cuerpo
 62
     7
420
 16777215
370
     9
100
AcDbVertex
100
AcDb2dVertex
 10
62.52434894270225
 20
139.7241156334718
 30
0.0
  0
VERTEX
  5
84
330
82
100
AcDbEntity
  8
cuerpo
 62
     7
420
 16777215
370
     9
100
AcDbVertex
100
AcDb2dVertex
 10
62.52434894270225
 20
140.4954725126192
 30
0.0
  0
SEQEND
  5
85
330
82
100
AcDbEntity
  8
cuerpo
370
     9
  0
POLYLINE
  5
86
330
1F
100
AcDbEntity
  8
cuerpo
 62
     7
420
 16777215
370
     9
100
AcDb2dPolyline
 66
     1
 10
0.0
 20
0.0
 30
0.0
  0
VERTEX
  5
87
330
86
100
AcDbEntity
  8
cuerpo
 62
     7
420
 16777215
370
     9
100
AcDbVertex
100
AcDb2dVertex
 10
62.52434894270225
 20
140.4954725126192
 30
0.0
  0
VERTEX
  5
88
330
86
100
AcDbEntity
  8
cuerpo
 62
     7
420
 16777215
370
     9
100
AcDbVertex
100
AcDb2dVertex
 10
55.09310572624409
 20
140.4954725126192
 30
0.0
  0
SEQEND
  5
89
330
86
100
AcDbEntity
  8
cuerpo
370
     9
  0
POLYLINE
  5
8A
330
1F
100
AcDbEntity
  8
cuerpo
 62
     7
420
 16777215
370
     9
100
AcDb2dPolyline
 66
     1
 10
0.0
 20
0.0
 30
0.0
  0
VERTEX
  5
8B
330
8A
100
AcDbEntity
  8
cuerpo
 62
     7
420
 16777215
370
     9
100
AcDbVertex
100
AcDb2dVertex
 10
62.52434894270225
 20
144.8607530019793
 30
0.0
  0
VERTEX
  5
8C
330
8A
100
AcDbEntity
  8
cuerpo
 62
     7
420
 16777215
370
     9
100
AcDbVertex
100
AcDb2dVertex
 10
59.1335137113451
 20
144.8607530019793
 30
0.0
  0
SEQEND
  5
8D
330
8A
100
AcDbEntity
  8
cuerpo
370
     9
  0
POLYLINE
  5
8E
330
1F
100
AcDbEntity
  8
cuerpo
 62
     7
420
 16777215
370
     9
100
AcDb2dPolyline
 66
     1
 10
0.0
 20
0.0
 30
0.0
  0
VERTEX
  5
8F
330
8E
100
AcDbEntity
  8
cuerpo
 62
     7
420
 16777215
370
     9
100
AcDbVertex
100
AcDb2dVertex
 10
60.20958928616288
 20
140.4954725126192
 30
0.0
  0
VERTEX
  5
90
330
8E
100
AcDbEntity
  8
cuerpo
 62
     7
420
 16777215
370
     9
100
AcDbVertex
100
AcDb2dVertex
 10
60.20958928616288
 20
144.8607530019793
 30
0.0
  0
SEQEND
  5
91
330
8E
100
AcDbEntity
  8
cuerpo
370
     9
  0
SPLINE
  5
92
330
1F
100
AcDbEntity
  8
cuerpo
 62
     7
420
 16777215
370
     9
100
AcDbSpline
210
0.0
220
0.0
230
1.0
 70
     8
 71
     3
 72
     8
 73
     4
 74
     0
 42
0.0000000001
 43
0.0000000001
 40
0.0
 40
0.0
 40
0.0
 40
0.0
 40
1.0
 40
1.0
 40
1.0
 40
1.0
 10
62.52434894270225
 20
140.4954725126192
 30
0.0
 10
63.50292831528746
 20
141.7863497909423
 30
0.0
 10
63.50292831528746
 20
143.5702202332047
 30
0.0
 10
62.52434894270225
 20
144.8607530019793
 30
0.0
  0
POLYLINE
  5
93
330
1F
100
AcDbEntity
  8
cuerpo
 62
     7
420
 16777215
370
     9
100
AcDb2dPolyline
 66
     1
 10
0.0
 20
0.0
 30
0.0
  0
VERTEX
  5
94
330
93
100
AcDbEntity
  8
cuerpo
 62
     7
420
 16777215
370
     9
100
AcDbVertex
100
AcDb2dVertex
 10
62.52434894270225
 20
144.8607530019793
 30
0.0
  0
VERTEX
  5
95
330
93
100
AcDbEntity
  8
cuerpo
 62
     7
420
 16777215
370
     9
100
AcDbVertex
100
AcDb2dVertex
 10
62.52434894270225
 20
147.3040147201185
 30
0.0
  0
SEQEND
  5
96
330
93
100
AcDbEntity
  8
cuerpo
370
     9
  0
POLYLINE
  5
97
330
1F
100
AcDbEntity
  8
cuerpo
 62
     7
420
 16777215
370
     9
100
AcDb2dPolyline
 66
     1
 10
0.0
 20
0.0
 30
0.0
  0
VERTEX
  5
98
330
97
100
AcDbEntity
  8
cuerpo
 62
     7
420
 16777215
370
     9
100
AcDbVertex
100
AcDb2dVertex
 10
55.09310572624409
 20
144.8607530019793
 30
0.0
  0
VERTEX
  5
99
330
97
100
AcDbEntity
  8
cuerpo
 62
     7
420
 16777215
370
     9
100
AcDbVertex
100
AcDb2dVertex
 10
55.09310572624409
 20
140.4954725126192
 30
0.0
  0
SEQEND
  5
9A
330
97
100
AcDbEntity
  8
cuerpo
370
     9
  0
SPLINE
  5
9B
330
1F
100
AcDbEntity
  8
cuerpo
 62
     7
420
 16777215
370
     9
100
AcDbSpline
210
0.0
220
0.0
230
1.0
 70
     8
 71
     3
 72
     8
 73
     4
 74
     0
 42
0.0000000001
 43
0.0000000001
 40
0.0
 40
0.0
 40
0.0
 40
0.0
 40
1.0
 40
1.0
 40
1.0
 40
1.0
 10
55.09310572624409
 20
144.8607530019793
 30
0.0
 10
54.76685518379093
 20
143.4241481846301
 30
0.0
 10
54.76685518379093
 20
141.9324218395169
 30
0.0
 10
55.09310572624409
 20
140.4954725126192
 30
0.0
  0
POLYLINE
  5
9C
330
1F
100
AcDbEntity
  8
cuerpo
 62
     7
420
 16777215
370
     9
100
AcDb2dPolyline
 66
     1
 10
0.0
 20
0.0
 30
0.0
  0
VERTEX
  5
9D
330
9C
100
AcDbEntity
  8
cuerpo
 62
     7
420
 16777215
370
     9
100
AcDbVertex
100
AcDb2dVertex
 10
55.49928248395504
 20
144.8607530019793
 30
0.0
  0
VERTEX
  5
9E
330
9C
100
AcDbEntity
  8
cuerpo
 62
     7
420
 16777215
370
     9
100
AcDbVertex
100
AcDb2dVertex
 10
55.49928248395504
 20
166.1595390752136
 30
0.0
  0
SEQEND
  5
9F
330
9C
100
AcDbEntity
  8
cuerpo
370
     9
  0
POLYLINE
  5
A0
330
1F
100
AcDbEntity
  8
cuerpo
 62
     7
420
 16777215
370
     9
100
AcDb2dPolyline
 66
     1
 10
0.0
 20
0.0
 30
0.0
  0
VERTEX
  5
A1
330
A0
100
AcDbEntity
  8
cuerpo
 62
     7
420
 16777215
370
     9
100
AcDbVertex
100
AcDb2dVertex
 10
55.49928248395504
 20
167.4052856026799
 30
0.0
  0
VERTEX
  5
A2
330
A0
100
AcDbEntity
  8
cuerpo
 62
     7
420
 16777215
370
     9
100
AcDbVertex
100
AcDb2dVertex
 10
55.49928248395504
 20
167.5131170913683
 30
0.0
  0
SEQEND
  5
A3
330
A0
100
AcDbEntity
  8
cuerpo
370
     9
  0
POLYLINE
  5
A4
330
1F
100
AcDbEntity
  8
cuerpo
 62
     7
420
 16777215
370
     9
100
AcDb2dPolyline
 66
     1
 10
0.0
 20
0.0
 30
0.0
  0
VERTEX
  5
A5
330
A4
100
AcDbEntity
  8
cuerpo
 62
     7
420
 16777215
370
     9
100
AcDbVertex
100
AcDb2dVertex
 10
59.1335137113451
 20
144.8607530019793
 30
0.0
  0
VERTEX
  5
A6
330
A4
100
AcDbEntity
  8
cuerpo
 62
     7
420
 16777215
370
     9
100
AcDbVertex
100
AcDb2dVertex
 10
59.1335137113451
 20
166.1595390752136
 30
0.0
  0
SEQEND
  5
A7
330
A4
100
AcDbEntity
  8
cuerpo
370
     9
  0
POLYLINE
  5
A8
330
1F
100
AcDbEntity
  8
cuerpo
 62
     7
420
 16777215
370
     9
100
AcDb2dPolyline
 66
     1
 10
0.0
 20
0.0
 30
0.0
  0
VERTEX
  5
A9
330
A8
100
AcDbEntity
  8
cuerpo
 62
     7
420
 16777215
370
     9
100
AcDbVertex
100
AcDb2dVertex
 10
59.1335137113451
 20
146.1805690823785
 30
0.0
  0
VERTEX
  5
AA
330
A8
100
AcDbEntity
  8
cuerpo
 62
     7
420
 16777215
370
     9
100
AcDbVertex
100
AcDb2dVertex
 10
55.49928248395504
 20
146.1805690823785
 30
0.0
  0
SEQEND
  5
AB
330
A8
100
AcDbEntity
  8
cuerpo
370
     9
  0
POLYLINE
  5
AC
330
1F
100
AcDbEntity
  8
cuerpo
 62
     7
420
 16777215
370
     9
100
AcDb2dPolyline
 66
     1
 10
0.0
 20
0.0
 30
0.0
  0
VERTEX
  5
AD
330
AC
100
AcDbEntity
  8
cuerpo
 62
     7
420
 16777215
370
     9
100
AcDbVertex
100
AcDb2dVertex
 10
59.1335137113451
 20
144.8607530019793
 30
0.0
  0
VERTEX
  5
AE
330
AC
100
AcDbEntity
  8
cuerpo
 62
     7
420
 16777215
370
     9
100
AcDbVertex
100
AcDb2dVertex
 10
58.68341198619721
 20
144.4108235316056
 30
0.0
  0
SEQEND
  5
AF
330
AC
100
AcDbEntity
  8
cuerpo
370
     9
  0
POLYLINE
  5
B0
330
1F
100
AcDbEntity
  8
cuerpo
 62
     7
420
 16777215
370
     9
100
AcDb2dPolyline
 66
     1
 10
0.0
 20
0.0
 30
0.0
  0
VERTEX
  5
B1
330
B0
100
AcDbEntity
  8
cuerpo
 62
     7
420
 16777215
370
     9
100
AcDbVertex
100
AcDb2dVertex
 10
55.49928248395504
 20
144.8607530019793
 30
0.0
  0
VERTEX
  5
B2
330
B0
100
AcDbEntity
  8
cuerpo
 62
     7
420
 16777215
370
     9
100
AcDbVertex
100
AcDb2dVertex
 10
55.94938420910293
 20
144.4108235316056
 30
0.0
  0
SEQEND
  5
B3
330
B0
100
AcDbEntity
  8
cuerpo
370
     9
  0
POLYLINE
  5
B4
330
1F
100
AcDbEntity
  8
cuerpo
 62
     7
420
 16777215
370
     9
100
AcDb2dPolyline
 66
     1
 10
0.0
 20
0.0
 30
0.0
  0
VERTEX
  5
B5
330
B4
100
AcDbEntity
  8
cuerpo
 62
     7
420
 16777215
370
     9
100
AcDbVertex
100
AcDb2dVertex
 10
58.68341198619721
 20
144.4108235316056
 30
0.0
  0
VERTEX
  5
B6
330
B4
100
AcDbEntity
  8
cuerpo
 62
     7
420
 16777215
370
     9
100
AcDbVertex
100
AcDb2dVertex
 10
58.65654024141226
 20
144.3787841435928
 30
0.0
  0
SEQEND
  5
B7
330
B4
100
AcDbEntity
  8
cuerpo
370
     9
  0
SPLINE
  5
B8
330
1F
100
AcDbEntity
  8
cuerpo
 62
     7
420
 16777215
370
     9
100
AcDbSpline
210
0.0
220
0.0
230
1.0
 70
     8
 71
     3
 72
     8
 73
     4
 74
     0
 42
0.0000000001
 43
0.0000000001
 40
0.0
 40
0.0
 40
0.0
 40
0.0
 40
1.0
 40
1.0
 40
1.0
 40
1.0
 10
58.62949624185305
 20
144.34674475558
 30
0.0
 10
58.63862574488896
 20
144.3574245515843
 30
0.0
 10
58.64758299315061
 20
144.3681043475885
 30
0.0
 10
58.65654024141226
 20
144.3787841435928
 30
0.0
  0
SPLINE
  5
B9
330
1F
100
AcDbEntity
  8
cuerpo
 62
     7
420
 16777215
370
     9
100
AcDbSpline
210
0.0
220
0.0
230
1.0
 70
     8
 71
     3
 72
     8
 73
     4
 74
     0
 42
0.0000000001
 43
0.0000000001
 40
0.0
 40
0.0
 40
0.0
 40
0.0
 40
1.0
 40
1.0
 40
1.0
 40
1.0
 10
58.60245224229384
 20
144.3150498771157
 30
0.0
 10
58.61140949055548
 20
144.32572967312
 30
0.0
 10
58.6205389935914
 20
144.3364094691242
 30
0.0
 10
58.62949624185305
 20
144.34674475558
 30
0.0
  0
SPLINE
  5
BA
330
1F
100
AcDbEntity
  8
cuerpo
 62
     7
420
 16777215
370
     9
100
AcDbSpline
210
0.0
220
0.0
230
1.0
 70
     8
 71
     3
 72
     8
 73
     4
 74
     0
 42
0.0000000001
 43
0.0000000001
 40
0.0
 40
0.0
 40
0.0
 40
0.0
 40
1.0
 40
1.0
 40
1.0
 40
1.0
 10
58.5750637331861
 20
144.2833549986514
 30
0.0
 10
58.58419323622201
 20
144.2940347946557
 30
0.0
 10
58.59332273925792
 20
144.3047145906599
 30
0.0
 10
58.60245224229384
 20
144.3150498771157
 30
0.0
  0
SPLINE
  5
BB
330
1F
100
AcDbEntity
  8
cuerpo
 62
     7
420
 16777215
370
     9
100
AcDbSpline
210
0.0
220
0.0
230
1.0
 70
     8
 71
     3
 72
     8
 73
     4
 74
     0
 42
0.0000000001
 43
0.0000000001
 40
0.0
 40
0.0
 40
0.0
 40
0.0
 40
1.0
 40
1.0
 40
1.0
 40
1.0
 10
58.54784747885262
 20
144.2516601201871
 30
0.0
 10
58.55697698188854
 20
144.2623399161914
 30
0.0
 10
58.56593423015018
 20
144.2730197121956
 30
0.0
 10
58.5750637331861
 20
144.2833549986514
 30
0.0
  0
SPLINE
  5
BC
330
1F
100
AcDbEntity
  8
cuerpo
 62
     7
420
 16777215
370
     9
100
AcDbSpline
210
0.0
220
0.0
230
1.0
 70
     8
 71
     3
 72
     8
 73
     4
 74
     0
 42
0.0000000001
 43
0.0000000001
 40
0.0
 40
0.0
 40
0.0
 40
0.0
 40
1.0
 40
1.0
 40
1.0
 40
1.0
 10
58.52045896974489
 20
144.2203097512713
 30
0.0
 10
58.5295884727808
 20
144.2306450377271
 30
0.0
 10
58.53871797581671
 20
144.2413248337313
 30
0.0
 10
58.54784747885262
 20
144.2516601201871
 30
0.0
  0
SPLINE
  5
BD
330
1F
100
AcDbEntity
  8
cuerpo
 62
     7
420
 16777215
370
     9
100
AcDbSpline
210
0.0
220
0.0
230
1.0
 70
     8
 71
     3
 72
     8
 73
     4
 74
     0
 42
0.0000000001
 43
0.0000000001
 40
0.0
 40
0.0
 40
0.0
 40
0.0
 40
1.0
 40
1.0
 40
1.0
 40
1.0
 10
58.52045896974489
 20
144.2203097512713
 30
0.0
 10
58.51132946670898
 20
144.209629955267
 30
0.0
 10
58.50219996367306
 20
144.1989501592628
 30
0.0
 10
58.49324271541141
 20
144.188614872807
 30
0.0
  0
SPLINE
  5
BE
330
1F
100
AcDbEntity
  8
cuerpo
 62
     7
420
 16777215
370
     9
100
AcDbSpline
210
0.0
220
0.0
230
1.0
 70
     8
 71
     3
 72
     8
 73
     4
 74
     0
 42
0.0000000001
 43
0.0000000001
 40
0.0
 40
0.0
 40
0.0
 40
0.0
 40
1.0
 40
1.0
 40
1.0
 40
1.0
 10
58.49324271541141
 20
144.188614872807
 30
0.0
 10
58.4841132123755
 20
144.1779350768028
 30
0.0
 10
58.47498370933959
 20
144.167599790347
 30
0.0
 10
58.46585420630367
 20
144.1569199943427
 30
0.0
  0
SPLINE
  5
BF
330
1F
100
AcDbEntity
  8
cuerpo
 62
     7
420
 16777215
370
     9
100
AcDbSpline
210
0.0
220
0.0
230
1.0
 70
     8
 71
     3
 72
     8
 73
     4
 74
     0
 42
0.0000000001
 43
0.0000000001
 40
0.0
 40
0.0
 40
0.0
 40
0.0
 40
1.0
 40
1.0
 40
1.0
 40
1.0
 10
58.46585420630367
 20
144.1569199943427
 30
0.0
 10
58.45689695804203
 20
144.1462401983384
 30
0.0
 10
58.44776745500612
 20
144.1359049118827
 30
0.0
 10
58.43881020674446
 20
144.1252251158784
 30
0.0
  0
SPLINE
  5
C0
330
1F
100
AcDbEntity
  8
cuerpo
 62
     7
420
 16777215
370
     9
100
AcDbSpline
210
0.0
220
0.0
230
1.0
 70
     8
 71
     3
 72
     8
 73
     4
 74
     0
 42
0.0000000001
 43
0.0000000001
 40
0.0
 40
0.0
 40
0.0
 40
0.0
 40
1.0
 40
1.0
 40
1.0
 40
1.0
 10
58.43881020674446
 20
144.1252251158784
 30
0.0
 10
58.42985295848282
 20
144.1145453198741
 30
0.0
 10
58.42089571022117
 20
144.1038655238699
 30
0.0
 10
58.41193846195952
 20
144.0935302374141
 30
0.0
  0
SPLINE
  5
C1
330
1F
100
AcDbEntity
  8
cuerpo
 62
     7
420
 16777215
370
     9
100
AcDbSpline
210
0.0
220
0.0
230
1.0
 70
    24
 71
     3
 72
     8
 73
     4
 74
     0
 42
0.0000000001
 43
0.0000000001
 40
0.0
 40
0.0
 40
0.0
 40
0.0
 40
1.0
 40
1.0
 40
1.0
 40
1.0
 10
58.41193846195952
 20
144.0935302374141
 30
0.0
 10
58.40298121369787
 20
144.0828504414098
 30
0.0
 10
58.39402396543622
 20
144.0721706454056
 30
0.0
 10
58.38506671717457
 20
144.0614908494013
 30
0.0
  0
SPLINE
  5
C2
330
1F
100
AcDbEntity
  8
cuerpo
 62
     7
420
 16777215
370
     9
100
AcDbSpline
210
0.0
220
0.0
230
1.0
 70
     8
 71
     3
 72
     8
 73
     4
 74
     0
 42
0.0000000001
 43
0.0000000001
 40
0.0
 40
0.0
 40
0.0
 40
0.0
 40
1.0
 40
1.0
 40
1.0
 40
1.0
 10
58.38506671717457
 20
144.0614908494013
 30
0.0
 10
58.37628172368719
 20
144.050811053397
 30
0.0
 10
58.3674967301998
 20
144.0401312573927
 30
0.0
 10
58.35853948193814
 20
144.0294514613885
 30
0.0
  0
SPLINE
  5
C3
330
1F
100
AcDbEntity
  8
cuerpo
 62
     7
420
 16777215
370
     9
100
AcDbSpline
210
0.0
220
0.0
230
1.0
 70
     8
 71
     3
 72
     8
 73
     4
 74
     0
 42
0.0000000001
 43
0.0000000001
 40
0.0
 40
0.0
 40
0.0
 40
0.0
 40
1.0
 40
1.0
 40
1.0
 40
1.0
 10
58.35853948193814
 20
144.0294514613885
 30
0.0
 10
58.34975448845076
 20
144.0187716653842
 30
0.0
 10
58.34114174973763
 20
144.0080918693799
 30
0.0
 10
58.33235675625025
 20
143.9974120733756
 30
0.0
  0
SPLINE
  5
C4
330
1F
100
AcDbEntity
  8
cuerpo
 62
     7
420
 16777215
370
     9
100
AcDbSpline
210
0.0
220
0.0
230
1.0
 70
     8
 71
     3
 72
     8
 73
     4
 74
     0
 42
0.0000000001
 43
0.0000000001
 40
0.0
 40
0.0
 40
0.0
 40
0.0
 40
1.0
 40
1.0
 40
1.0
 40
1.0
 10
58.33235675625025
 20
143.9974120733756
 30
0.0
 10
58.32357176276286
 20
143.9863877678229
 30
0.0
 10
58.31495902404973
 20
143.9757079718186
 30
0.0
 10
58.30634628533661
 20
143.9650281758143
 30
0.0
  0
SPLINE
  5
C5
330
1F
100
AcDbEntity
  8
cuerpo
 62
     7
420
 16777215
370
     9
100
AcDbSpline
210
0.0
220
0.0
230
1.0
 70
     8
 71
     3
 72
     8
 73
     4
 74
     0
 42
0.0000000001
 43
0.0000000001
 40
0.0
 40
0.0
 40
0.0
 40
0.0
 40
1.0
 40
1.0
 40
1.0
 40
1.0
 10
58.30634628533661
 20
143.9650281758143
 30
0.0
 10
58.29756129184922
 20
143.95434837981
 30
0.0
 10
58.2889485531361
 20
143.9433240742572
 30
0.0
 10
58.28033581442298
 20
143.932644278253
 30
0.0
  0
SPLINE
  5
C6
330
1F
100
AcDbEntity
  8
cuerpo
 62
     7
420
 16777215
370
     9
100
AcDbSpline
210
0.0
220
0.0
230
1.0
 70
     8
 71
     3
 72
     8
 73
     4
 74
     0
 42
0.0000000001
 43
0.0000000001
 40
0.0
 40
0.0
 40
0.0
 40
0.0
 40
1.0
 40
1.0
 40
1.0
 40
1.0
 10
58.28033581442298
 20
143.932644278253
 30
0.0
 10
58.27172307570985
 20
143.9219644822487
 30
0.0
 10
58.26311033699672
 20
143.9112846862444
 30
0.0
 10
58.2544975982836
 20
143.9002603806916
 30
0.0
  0
SPLINE
  5
C7
330
1F
100
AcDbEntity
  8
cuerpo
 62
     7
420
 16777215
370
     9
100
AcDbSpline
210
0.0
220
0.0
230
1.0
 70
     8
 71
     3
 72
     8
 73
     4
 74
     0
 42
0.0000000001
 43
0.0000000001
 40
0.0
 40
0.0
 40
0.0
 40
0.0
 40
1.0
 40
1.0
 40
1.0
 40
1.0
 10
58.2544975982836
 20
143.9002603806916
 30
0.0
 10
58.24588485957047
 20
143.8895805846873
 30
0.0
 10
58.23727212085735
 20
143.8789007886831
 30
0.0
 10
58.22865938214423
 20
143.8678764831303
 30
0.0
  0
SPLINE
  5
C8
330
1F
100
AcDbEntity
  8
cuerpo
 62
     7
420
 16777215
370
     9
100
AcDbSpline
210
0.0
220
0.0
230
1.0
 70
     8
 71
     3
 72
     8
 73
     4
 74
     0
 42
0.0000000001
 43
0.0000000001
 40
0.0
 40
0.0
 40
0.0
 40
0.0
 40
1.0
 40
1.0
 40
1.0
 40
1.0
 10
58.20264891123059
 20
143.8354925855689
 30
0.0
 10
58.21126164994372
 20
143.8465168911217
 30
0.0
 10
58.21987438865684
 20
143.857196687126
 30
0.0
 10
58.22865938214423
 20
143.8678764831303
 30
0.0
  0
SPLINE
  5
C9
330
1F
100
AcDbEntity
  8
cuerpo
 62
     7
420
 16777215
370
     9
100
AcDbSpline
210
0.0
220
0.0
230
1.0
 70
     8
 71
     3
 72
     8
 73
     4
 74
     0
 42
0.0000000001
 43
0.0000000001
 40
0.0
 40
0.0
 40
0.0
 40
0.0
 40
1.0
 40
1.0
 40
1.0
 40
1.0
 10
58.17663844031696
 20
143.8034531975561
 30
0.0
 10
58.18525117903008
 20
143.8141329935603
 30
0.0
 10
58.19403617251746
 20
143.8248127895646
 30
0.0
 10
58.20264891123059
 20
143.8354925855689
 30
0.0
  0
SPLINE
  5
CA
330
1F
100
AcDbEntity
  8
cuerpo
 62
     7
420
 16777215
370
     9
100
AcDbSpline
210
0.0
220
0.0
230
1.0
 70
     8
 71
     3
 72
     8
 73
     4
 74
     0
 42
0.0000000001
 43
0.0000000001
 40
0.0
 40
0.0
 40
0.0
 40
0.0
 40
1.0
 40
1.0
 40
1.0
 40
1.0
 10
58.15045571462905
 20
143.7714138095433
 30
0.0
 10
58.15924070811644
 20
143.7820936055475
 30
0.0
 10
58.16802570160383
 20
143.7927734015518
 30
0.0
 10
58.17663844031696
 20
143.8034531975561
 30
0.0
  0
SPLINE
  5
CB
330
1F
100
AcDbEntity
  8
cuerpo
 62
     7
420
 16777215
370
     9
100
AcDbSpline
210
0.0
220
0.0
230
1.0
 70
    24
 71
     3
 72
     8
 73
     4
 74
     0
 42
0.0000000001
 43
0.0000000001
 40
0.0
 40
0.0
 40
0.0
 40
0.0
 40
1.0
 40
1.0
 40
1.0
 40
1.0
 10
58.12410073416689
 20
143.7393744215304
 30
0.0
 10
58.13288572765428
 20
143.7500542175347
 30
0.0
 10
58.14167072114167
 20
143.760734013539
 30
0.0
 10
58.15045571462905
 20
143.7714138095433
 30
0.0
  0
SPLINE
  5
CC
330
1F
100
AcDbEntity
  8
cuerpo
 62
     7
420
 16777215
370
     9
100
AcDbSpline
210
0.0
220
0.0
230
1.0
 70
     8
 71
     3
 72
     8
 73
     4
 74
     0
 42
0.0000000001
 43
0.0000000001
 40
0.0
 40
0.0
 40
0.0
 40
0.0
 40
1.0
 40
1.0
 40
1.0
 40
1.0
 10
58.09740124415621
 20
143.7076795430661
 30
0.0
 10
58.10635849241785
 20
143.7180148295219
 30
0.0
 10
58.11531574067951
 20
143.7286946255262
 30
0.0
 10
58.12410073416689
 20
143.7393744215304
 30
0.0
  0
SPLINE
  5
CD
330
1F
100
AcDbEntity
  8
cuerpo
 62
     7
420
 16777215
370
     9
100
AcDbSpline
210
0.0
220
0.0
230
1.0
 70
     8
 71
     3
 72
     8
 73
     4
 74
     0
 42
0.0000000001
 43
0.0000000001
 40
0.0
 40
0.0
 40
0.0
 40
0.0
 40
1.0
 40
1.0
 40
1.0
 40
1.0
 10
58.070357244597
 20
143.6759846646019
 30
0.0
 10
58.07948674763291
 20
143.6863199510576
 30
0.0
 10
58.08844399589456
 20
143.6969997470619
 30
0.0
 10
58.09740124415621
 20
143.7076795430661
 30
0.0
  0
SPLINE
  5
CE
330
1F
100
AcDbEntity
  8
cuerpo
 62
     7
420
 16777215
370
     9
100
AcDbSpline
210
0.0
220
0.0
230
1.0
 70
     8
 71
     3
 72
     8
 73
     4
 74
     0
 42
0.0000000001
 43
0.0000000001
 40
0.0
 40
0.0
 40
0.0
 40
0.0
 40
1.0
 40
1.0
 40
1.0
 40
1.0
 10
58.04314099026352
 20
143.6446342956861
 30
0.0
 10
58.05227049329943
 20
143.6549695821418
 30
0.0
 10
58.06139999633535
 20
143.6653048685976
 30
0.0
 10
58.070357244597
 20
143.6759846646019
 30
0.0
  0
SPLINE
  5
CF
330
1F
100
AcDbEntity
  8
cuerpo
 62
     7
420
 16777215
370
     9
100
AcDbSpline
210
0.0
220
0.0
230
1.0
 70
    24
 71
     3
 72
     8
 73
     4
 74
     0
 42
0.0000000001
 43
0.0000000001
 40
0.0
 40
0.0
 40
0.0
 40
0.0
 40
1.0
 40
1.0
 40
1.0
 40
1.0
 10
58.015235716833
 20
143.6136284363188
 30
0.0
 10
58.02453747464318
 20
143.6239637227746
 30
0.0
 10
58.03383923245335
 20
143.6342990092303
 30
0.0
 10
58.04314099026352
 20
143.6446342956861
 30
0.0
  0
SPLINE
  5
D0
330
1F
100
AcDbEntity
  8
cuerpo
 62
     7
420
 16777215
370
     9
100
AcDbSpline
210
0.0
220
0.0
230
1.0
 70
     8
 71
     3
 72
     8
 73
     4
 74
     0
 42
0.0000000001
 43
0.0000000001
 40
0.0
 40
0.0
 40
0.0
 40
0.0
 40
1.0
 40
1.0
 40
1.0
 40
1.0
 10
57.98698593385395
 20
143.5829670865001
 30
0.0
 10
57.99645994643839
 20
143.5929578634073
 30
0.0
 10
58.00593395902283
 20
143.6032931498631
 30
0.0
 10
58.015235716833
 20
143.6136284363188
 30
0.0
  0
SPLINE
  5
D1
330
1F
100
AcDbEntity
  8
cuerpo
 62
     7
420
 16777215
370
     9
100
AcDbSpline
210
0.0
220
0.0
230
1.0
 70
     8
 71
     3
 72
     8
 73
     4
 74
     0
 42
0.0000000001
 43
0.0000000001
 40
0.0
 40
0.0
 40
0.0
 40
0.0
 40
1.0
 40
1.0
 40
1.0
 40
1.0
 10
57.95804713177785
 20
143.5526502462299
 30
0.0
 10
57.96769339913655
 20
143.5626410231371
 30
0.0
 10
57.97733966649525
 20
143.5726318000443
 30
0.0
 10
57.98698593385395
 20
143.5829670865001
 30
0.0
  0
SPLINE
  5
D2
330
1F
100
AcDbEntity
  8
cuerpo
 62
     7
420
 16777215
370
     9
100
AcDbSpline
210
0.0
220
0.0
230
1.0
 70
    24
 71
     3
 72
     8
 73
     4
 74
     0
 42
0.0000000001
 43
0.0000000001
 40
0.0
 40
0.0
 40
0.0
 40
0.0
 40
1.0
 40
1.0
 40
1.0
 40
1.0
 10
57.92859156537897
 20
143.5226779155082
 30
0.0
 10
57.93841008751193
 20
143.5326686924155
 30
0.0
 10
57.94822860964489
 20
143.5426594693227
 30
0.0
 10
57.95804713177785
 20
143.5526502462299
 30
0.0
  0
SPLINE
  5
D3
330
1F
100
AcDbEntity
  8
cuerpo
 62
     7
420
 16777215
370
     9
100
AcDbSpline
210
0.0
220
0.0
230
1.0
 70
     8
 71
     3
 72
     8
 73
     4
 74
     0
 42
0.0000000001
 43
0.0000000001
 40
0.0
 40
0.0
 40
0.0
 40
0.0
 40
1.0
 40
1.0
 40
1.0
 40
1.0
 10
57.89827472510877
 20
143.4930500943351
 30
0.0
 10
57.90843775679026
 20
143.5030408712423
 30
0.0
 10
57.91860078847174
 20
143.512687138601
 30
0.0
 10
57.92859156537897
 20
143.5226779155082
 30
0.0
  0
SPLINE
  5
D4
330
1F
100
AcDbEntity
  8
cuerpo
 62
     7
420
 16777215
370
     9
100
AcDbSpline
210
0.0
220
0.0
230
1.0
 70
     8
 71
     3
 72
     8
 73
     4
 74
     0
 42
0.0000000001
 43
0.0000000001
 40
0.0
 40
0.0
 40
0.0
 40
0.0
 40
1.0
 40
1.0
 40
1.0
 40
1.0
 10
57.86744112051578
 20
143.464111292259
 30
0.0
 10
57.87777640697153
 20
143.4737575596177
 30
0.0
 10
57.88811169342728
 20
143.4834038269764
 30
0.0
 10
57.89827472510877
 20
143.4930500943351
 30
0.0
  0
SPLINE
  5
D5
330
1F
100
AcDbEntity
  8
cuerpo
 62
     7
420
 16777215
370
     9
100
AcDbSpline
210
0.0
220
0.0
230
1.0
 70
     8
 71
     3
 72
     8
 73
     4
 74
     0
 42
0.0000000001
 43
0.0000000001
 40
0.0
 40
0.0
 40
0.0
 40
0.0
 40
1.0
 40
1.0
 40
1.0
 40
1.0
 10
57.83574624205148
 20
143.4355169997314
 30
0.0
 10
57.84642603805576
 20
143.4451632670901
 30
0.0
 10
57.85693357928577
 20
143.4544650249003
 30
0.0
 10
57.86744112051578
 20
143.464111292259
 30
0.0
  0
SPLINE
  5
D6
330
1F
100
AcDbEntity
  8
cuerpo
 62
     7
420
 16777215
370
     9
100
AcDbSpline
210
0.0
220
0.0
230
1.0
 70
     8
 71
     3
 72
     8
 73
     4
 74
     0
 42
0.0000000001
 43
0.0000000001
 40
0.0
 40
0.0
 40
0.0
 40
0.0
 40
1.0
 40
1.0
 40
1.0
 40
1.0
 10
57.80319008971587
 20
143.4076117263009
 30
0.0
 10
57.81421439526867
 20
143.4169134841111
 30
0.0
 10
57.82506644604721
 20
143.4262152419212
 30
0.0
 10
57.83574624205148
 20
143.4355169997314
 30
0.0
  0
SPLINE
  5
D7
330
1F
100
AcDbEntity
  8
cuerpo
 62
     7
420
 16777215
370
     9
100
AcDbSpline
210
0.0
220
0.0
230
1.0
 70
     8
 71
     3
 72
     8
 73
     4
 74
     0
 42
0.0000000001
 43
0.0000000001
 40
0.0
 40
0.0
 40
0.0
 40
0.0
 40
1.0
 40
1.0
 40
1.0
 40
1.0
 10
57.76977266350895
 20
143.3803954719674
 30
0.0
 10
57.78096922383601
 20
143.3893527202291
 30
0.0
 10
57.79216578416307
 20
143.3983099684907
 30
0.0
 10
57.80319008971587
 20
143.4076117263009
 30
0.0
  0
SPLINE
  5
D8
330
1F
100
AcDbEntity
  8
cuerpo
 62
     7
420
 16777215
370
     9
100
AcDbSpline
210
0.0
220
0.0
230
1.0
 70
     8
 71
     3
 72
     8
 73
     4
 74
     0
 42
0.0000000001
 43
0.0000000001
 40
0.0
 40
0.0
 40
0.0
 40
0.0
 40
1.0
 40
1.0
 40
1.0
 40
1.0
 10
57.73532170865645
 20
143.3535237271824
 30
0.0
 10
57.74686277853203
 20
143.3621364658956
 30
0.0
 10
57.75840384840762
 20
143.3710937141572
 30
0.0
 10
57.76977266350895
 20
143.3803954719674
 30
0.0
  0
SPLINE
  5
D9
330
1F
100
AcDbEntity
  8
cuerpo
 62
     7
420
 16777215
370
     9
100
AcDbSpline
210
0.0
220
0.0
230
1.0
 70
     8
 71
     3
 72
     8
 73
     4
 74
     0
 42
0.0000000001
 43
0.0000000001
 40
0.0
 40
0.0
 40
0.0
 40
0.0
 40
1.0
 40
1.0
 40
1.0
 40
1.0
 10
57.70000947993264
 20
143.3276855110431
 30
0.0
 10
57.71189505935675
 20
143.3359537402077
 30
0.0
 10
57.7236083840066
 20
143.3445664789208
 30
0.0
 10
57.73532170865645
 20
143.3535237271824
 30
0.0
  0
SPLINE
  5
DA
330
1F
100
AcDbEntity
  8
cuerpo
 62
     7
420
 16777215
370
     9
100
AcDbSpline
210
0.0
220
0.0
230
1.0
 70
     8
 71
     3
 72
     8
 73
     4
 74
     0
 42
0.0000000001
 43
0.0000000001
 40
0.0
 40
0.0
 40
0.0
 40
0.0
 40
1.0
 40
1.0
 40
1.0
 40
1.0
 10
57.66383597733751
 20
143.3028808235493
 30
0.0
 10
57.67606606631016
 20
143.3108045431654
 30
0.0
 10
57.68812390050853
 20
143.31907277233
 30
0.0
 10
57.70000947993264
 20
143.3276855110431
 30
0.0
  0
SPLINE
  5
DB
330
1F
100
AcDbEntity
  8
cuerpo
 62
     7
420
 16777215
370
     9
100
AcDbSpline
210
0.0
220
0.0
230
1.0
 70
     8
 71
     3
 72
     8
 73
     4
 74
     0
 42
0.0000000001
 43
0.0000000001
 40
0.0
 40
0.0
 40
0.0
 40
0.0
 40
1.0
 40
1.0
 40
1.0
 40
1.0
 10
57.62697345564534
 20
143.2794541742496
 30
0.0
 10
57.63937579939224
 20
143.2870333843171
 30
0.0
 10
57.65160588836488
 20
143.2946125943847
 30
0.0
 10
57.66383597733751
 20
143.3028808235493
 30
0.0
  0
SPLINE
  5
DC
330
1F
100
AcDbEntity
  8
cuerpo
 62
     7
420
 16777215
370
     9
100
AcDbSpline
210
0.0
220
0.0
230
1.0
 70
     8
 71
     3
 72
     8
 73
     4
 74
     0
 42
0.0000000001
 43
0.0000000001
 40
0.0
 40
0.0
 40
0.0
 40
0.0
 40
1.0
 40
1.0
 40
1.0
 40
1.0
 10
57.58924966008185
 20
143.257405563144
 30
0.0
 10
57.60199651337728
 20
143.264640263663
 30
0.0
 10
57.61457111189844
 20
143.271874964182
 30
0.0
 10
57.62697345564534
 20
143.2794541742496
 30
0.0
  0
SPLINE
  5
DD
330
1F
100
AcDbEntity
  8
cuerpo
 62
     7
420
 16777215
370
     9
100
AcDbSpline
210
0.0
220
0.0
230
1.0
 70
     8
 71
     3
 72
     8
 73
     4
 74
     0
 42
0.0000000001
 43
0.0000000001
 40
0.0
 40
0.0
 40
0.0
 40
0.0
 40
1.0
 40
1.0
 40
1.0
 40
1.0
 10
57.55118135496985
 20
143.2377685188781
 30
0.0
 10
57.56392820826527
 20
143.2439696907515
 30
0.0
 10
57.57667506156069
 20
143.2505153721735
 30
0.0
 10
57.58924966008185
 20
143.257405563144
 30
0.0
  0
SPLINE
  5
DE
330
1F
100
AcDbEntity
  8
cuerpo
 62
     7
420
 16777215
370
     9
100
AcDbSpline
210
0.0
220
0.0
230
1.0
 70
     8
 71
     3
 72
     8
 73
     4
 74
     0
 42
0.0000000001
 43
0.0000000001
 40
0.0
 40
0.0
 40
0.0
 40
0.0
 40
1.0
 40
1.0
 40
1.0
 40
1.0
 10
57.51242403076078
 20
143.2201985319033
 30
0.0
 10
57.52534313883047
 20
143.2257106846797
 30
0.0
 10
57.53826224690016
 20
143.2315673470046
 30
0.0
 10
57.55118135496985
 20
143.2377685188781
 30
0.0
  0
SPLINE
  5
DF
330
1F
100
AcDbEntity
  8
cuerpo
 62
     7
420
 16777215
370
     9
100
AcDbSpline
210
0.0
220
0.0
230
1.0
 70
     8
 71
     3
 72
     8
 73
     4
 74
     0
 42
0.0000000001
 43
0.0000000001
 40
0.0
 40
0.0
 40
0.0
 40
0.0
 40
1.0
 40
1.0
 40
1.0
 40
1.0
 10
57.47314994222894
 20
143.2050401117682
 30
0.0
 10
57.48641355984715
 20
143.209518735899
 30
0.0
 10
57.4995049226911
 20
143.2146863791269
 30
0.0
 10
57.51242403076078
 20
143.2201985319033
 30
0.0
  0
SPLINE
  5
E0
330
1F
100
AcDbEntity
  8
cuerpo
 62
     7
420
 16777215
370
     9
100
AcDbSpline
210
0.0
220
0.0
230
1.0
 70
     8
 71
     3
 72
     8
 73
     4
 74
     0
 42
0.0000000001
 43
0.0000000001
 40
0.0
 40
0.0
 40
0.0
 40
0.0
 40
1.0
 40
1.0
 40
1.0
 40
1.0
 10
57.43353134414856
 20
143.1926377680213
 30
0.0
 10
57.44696721654104
 20
143.1964273730551
 30
0.0
 10
57.46005857938498
 20
143.2005614876374
 30
0.0
 10
57.47314994222894
 20
143.2050401117682
 30
0.0
  0
SPLINE
  5
E1
330
1F
100
AcDbEntity
  8
cuerpo
 62
     7
420
 16777215
370
     9
100
AcDbSpline
210
0.0
220
0.0
230
1.0
 70
     8
 71
     3
 72
     8
 73
     4
 74
     0
 42
0.0000000001
 43
0.0000000001
 40
0.0
 40
0.0
 40
0.0
 40
0.0
 40
1.0
 40
1.0
 40
1.0
 40
1.0
 10
57.39374049129393
 20
143.1836805197596
 30
0.0
 10
57.4071763636864
 20
143.1860920865993
 30
0.0
 10
57.42043998130462
 20
143.1891926725361
 30
0.0
 10
57.43353134414856
 20
143.1926377680213
 30
0.0
  0
SPLINE
  5
E2
330
1F
100
AcDbEntity
  8
cuerpo
 62
     7
420
 16777215
370
     9
100
AcDbSpline
210
0.0
220
0.0
230
1.0
 70
     8
 71
     3
 72
     8
 73
     4
 74
     0
 42
0.0000000001
 43
0.0000000001
 40
0.0
 40
0.0
 40
0.0
 40
0.0
 40
1.0
 40
1.0
 40
1.0
 40
1.0
 10
57.35360512889077
 20
143.1778238574347
 30
0.0
 10
57.36704100128324
 20
143.1792018956288
 30
0.0
 10
57.38047687367572
 20
143.1809244433715
 30
0.0
 10
57.39374049129393
 20
143.1836805197596
 30
0.0
  0
SPLINE
  5
E3
330
1F
100
AcDbEntity
  8
cuerpo
 62
     7
420
 16777215
370
     9
100
AcDbSpline
210
0.0
220
0.0
230
1.0
 70
     8
 71
     3
 72
     8
 73
     4
 74
     0
 42
0.0000000001
 43
0.0000000001
 40
0.0
 40
0.0
 40
0.0
 40
0.0
 40
1.0
 40
1.0
 40
1.0
 40
1.0
 10
57.31346976648761
 20
143.175412290595
 30
0.0
 10
57.32690563888008
 20
143.1757568001436
 30
0.0
 10
57.34034151127256
 20
143.1764458192406
 30
0.0
 10
57.35360512889077
 20
143.1778238574347
 30
0.0
  0
SPLINE
  5
E4
330
1F
100
AcDbEntity
  8
cuerpo
 62
     7
420
 16777215
370
     9
100
AcDbSpline
210
0.0
220
0.0
230
1.0
 70
     8
 71
     3
 72
     8
 73
     4
 74
     0
 42
0.0000000001
 43
0.0000000001
 40
0.0
 40
0.0
 40
0.0
 40
0.0
 40
1.0
 40
1.0
 40
1.0
 40
1.0
 10
57.27316214931018
 20
143.1771348383377
 30
0.0
 10
57.28659802170266
 20
143.1757568001436
 30
0.0
 10
57.30003389409513
 20
143.175412290595
 30
0.0
 10
57.31346976648761
 20
143.175412290595
 30
0.0
  0
SPLINE
  5
E5
330
1F
100
AcDbEntity
  8
cuerpo
 62
     7
420
 16777215
370
     9
100
AcDbSpline
210
0.0
220
0.0
230
1.0
 70
     8
 71
     3
 72
     8
 73
     4
 74
     0
 42
0.0000000001
 43
0.0000000001
 40
0.0
 40
0.0
 40
0.0
 40
0.0
 40
1.0
 40
1.0
 40
1.0
 40
1.0
 10
57.23302678690703
 20
143.1823024815655
 30
0.0
 10
57.24629040452523
 20
143.1798909147259
 30
0.0
 10
57.25972627691771
 20
143.1781683669832
 30
0.0
 10
57.27316214931018
 20
143.1771348383377
 30
0.0
  0
SPLINE
  5
E6
330
1F
100
AcDbEntity
  8
cuerpo
 62
     7
420
 16777215
370
     9
100
AcDbSpline
210
0.0
220
0.0
230
1.0
 70
     8
 71
     3
 72
     8
 73
     4
 74
     0
 42
0.0000000001
 43
0.0000000001
 40
0.0
 40
0.0
 40
0.0
 40
0.0
 40
1.0
 40
1.0
 40
1.0
 40
1.0
 10
57.19289142450386
 20
143.1905707107301
 30
0.0
 10
57.20615504212208
 20
143.1871256152449
 30
0.0
 10
57.21941865974028
 20
143.1843695388567
 30
0.0
 10
57.23302678690703
 20
143.1823024815655
 30
0.0
  0
SPLINE
  5
E7
330
1F
100
AcDbEntity
  8
cuerpo
 62
     7
420
 16777215
370
     9
100
AcDbSpline
210
0.0
220
0.0
230
1.0
 70
     8
 71
     3
 72
     8
 73
     4
 74
     0
 42
0.0000000001
 43
0.0000000001
 40
0.0
 40
0.0
 40
0.0
 40
0.0
 40
1.0
 40
1.0
 40
1.0
 40
1.0
 10
57.15292831687496
 20
143.2019395258315
 30
0.0
 10
57.16601967971891
 20
143.1978054112492
 30
0.0
 10
57.17945555211139
 20
143.1940158062154
 30
0.0
 10
57.19289142450386
 20
143.1905707107301
 30
0.0
  0
SPLINE
  5
E8
330
1F
100
AcDbEntity
  8
cuerpo
 62
     7
420
 16777215
370
     9
100
AcDbSpline
210
0.0
220
0.0
230
1.0
 70
     8
 71
     3
 72
     8
 73
     4
 74
     0
 42
0.0000000001
 43
0.0000000001
 40
0.0
 40
0.0
 40
0.0
 40
0.0
 40
1.0
 40
1.0
 40
1.0
 40
1.0
 10
57.11330971879459
 20
143.216064417321
 30
0.0
 10
57.12640108163854
 20
143.2108967740931
 30
0.0
 10
57.13949244448249
 20
143.2064181499623
 30
0.0
 10
57.15292831687496
 20
143.2019395258315
 30
0.0
  0
SPLINE
  5
E9
330
1F
100
AcDbEntity
  8
cuerpo
 62
     7
420
 16777215
370
     9
100
AcDbSpline
210
0.0
220
0.0
230
1.0
 70
     8
 71
     3
 72
     8
 73
     4
 74
     0
 42
0.0000000001
 43
0.0000000001
 40
0.0
 40
0.0
 40
0.0
 40
0.0
 40
1.0
 40
1.0
 40
1.0
 40
1.0
 10
57.07403563026274
 20
143.2329453851987
 30
0.0
 10
57.08695473833243
 20
143.2267442133253
 30
0.0
 10
57.10004610117638
 20
143.2212320605489
 30
0.0
 10
57.11330971879459
 20
143.216064417321
 30
0.0
  0
SPLINE
  5
EA
330
1F
100
AcDbEntity
  8
cuerpo
 62
     7
420
 16777215
370
     9
100
AcDbSpline
210
0.0
220
0.0
230
1.0
 70
     8
 71
     3
 72
     8
 73
     4
 74
     0
 42
0.0000000001
 43
0.0000000001
 40
0.0
 40
0.0
 40
0.0
 40
0.0
 40
1.0
 40
1.0
 40
1.0
 40
1.0
 10
57.03527830605368
 20
143.2515489008191
 30
0.0
 10
57.04802515934911
 20
143.2450032193971
 30
0.0
 10
57.0609442674188
 20
143.2388020475236
 30
0.0
 10
57.07403563026274
 20
143.2329453851987
 30
0.0
  0
SPLINE
  5
EB
330
1F
100
AcDbEntity
  8
cuerpo
 62
     7
420
 16777215
370
     9
100
AcDbSpline
210
0.0
220
0.0
230
1.0
 70
     8
 71
     3
 72
     8
 73
     4
 74
     0
 42
0.0000000001
 43
0.0000000001
 40
0.0
 40
0.0
 40
0.0
 40
0.0
 40
1.0
 40
1.0
 40
1.0
 40
1.0
 10
56.99686549139314
 20
143.2725639832791
 30
0.0
 10
57.00944008991431
 20
143.2653292827601
 30
0.0
 10
57.02218694320973
 20
143.2584390917896
 30
0.0
 10
57.03527830605368
 20
143.2515489008191
 30
0.0
  0
SPLINE
  5
EC
330
1F
100
AcDbEntity
  8
cuerpo
 62
     7
420
 16777215
370
     9
100
AcDbSpline
210
0.0
220
0.0
230
1.0
 70
     8
 71
     3
 72
     8
 73
     4
 74
     0
 42
0.0000000001
 43
0.0000000001
 40
0.0
 40
0.0
 40
0.0
 40
0.0
 40
1.0
 40
1.0
 40
1.0
 40
1.0
 10
56.95931395060392
 20
143.2949571039332
 30
0.0
 10
56.97171629435083
 20
143.2873778938657
 30
0.0
 10
56.98429089287198
 20
143.2797986837981
 30
0.0
 10
56.99686549139314
 20
143.2725639832791
 30
0.0
  0
SPLINE
  5
ED
330
1F
100
AcDbEntity
  8
cuerpo
 62
     7
420
 16777215
370
     9
100
AcDbSpline
210
0.0
220
0.0
230
1.0
 70
     8
 71
     3
 72
     8
 73
     4
 74
     0
 42
0.0000000001
 43
0.0000000001
 40
0.0
 40
0.0
 40
0.0
 40
0.0
 40
1.0
 40
1.0
 40
1.0
 40
1.0
 10
56.92227917413749
 20
143.31907277233
 30
0.0
 10
56.93450926311012
 20
143.3108045431654
 30
0.0
 10
56.94673935208277
 20
143.3028808235493
 30
0.0
 10
56.95931395060392
 20
143.2949571039332
 30
0.0
  0
SPLINE
  5
EE
330
1F
100
AcDbEntity
  8
cuerpo
 62
     7
420
 16777215
370
     9
100
AcDbSpline
210
0.0
220
0.0
230
1.0
 70
     8
 71
     3
 72
     8
 73
     4
 74
     0
 42
0.0000000001
 43
0.0000000001
 40
0.0
 40
0.0
 40
0.0
 40
0.0
 40
1.0
 40
1.0
 40
1.0
 40
1.0
 10
56.88610567154237
 20
143.3442219693723
 30
0.0
 10
56.89816350574074
 20
143.3356092306592
 30
0.0
 10
56.91022133993911
 20
143.3273410014946
 30
0.0
 10
56.92227917413749
 20
143.31907277233
 30
0.0
  0
SPLINE
  5
EF
330
1F
100
AcDbEntity
  8
cuerpo
 62
     7
420
 16777215
370
     9
100
AcDbSpline
210
0.0
220
0.0
230
1.0
 70
     8
 71
     3
 72
     8
 73
     4
 74
     0
 42
0.0000000001
 43
0.0000000001
 40
0.0
 40
0.0
 40
0.0
 40
0.0
 40
1.0
 40
1.0
 40
1.0
 40
1.0
 10
56.85096569759282
 20
143.3700601855116
 30
0.0
 10
56.8625067674684
 20
143.3614474467985
 30
0.0
 10
56.87422009211825
 20
143.3528347080854
 30
0.0
 10
56.88610567154237
 20
143.3442219693723
 30
0.0
  0
SPLINE
  5
F0
330
1F
100
AcDbEntity
  8
cuerpo
 62
     7
420
 16777215
370
     9
100
AcDbSpline
210
0.0
220
0.0
230
1.0
 70
     8
 71
     3
 72
     8
 73
     4
 74
     0
 42
0.0000000001
 43
0.0000000001
 40
0.0
 40
0.0
 40
0.0
 40
0.0
 40
1.0
 40
1.0
 40
1.0
 40
1.0
 10
56.81651474274032
 20
143.3969319302966
 30
0.0
 10
56.82788355784164
 20
143.387974682035
 30
0.0
 10
56.83942462771723
 20
143.3790174337733
 30
0.0
 10
56.85096569759282
 20
143.3700601855116
 30
0.0
  0
SPLINE
  5
F1
330
1F
100
AcDbEntity
  8
cuerpo
 62
     7
420
 16777215
370
     9
100
AcDbSpline
210
0.0
220
0.0
230
1.0
 70
     8
 71
     3
 72
     8
 73
     4
 74
     0
 42
0.0000000001
 43
0.0000000001
 40
0.0
 40
0.0
 40
0.0
 40
0.0
 40
1.0
 40
1.0
 40
1.0
 40
1.0
 10
56.78309731653339
 20
143.4241481846301
 30
0.0
 10
56.79412162208619
 20
143.4148464268199
 30
0.0
 10
56.80531818241326
 20
143.4058891785583
 30
0.0
 10
56.81651474274032
 20
143.3969319302966
 30
0.0
  0
SPLINE
  5
F2
330
1F
100
AcDbEntity
  8
cuerpo
 62
     7
420
 16777215
370
     9
100
AcDbSpline
210
0.0
220
0.0
230
1.0
 70
    24
 71
     3
 72
     8
 73
     4
 74
     0
 42
0.0000000001
 43
0.0000000001
 40
0.0
 40
0.0
 40
0.0
 40
0.0
 40
1.0
 40
1.0
 40
1.0
 40
1.0
 10
56.75054116419778
 20
143.4520534580606
 30
0.0
 10
56.76139321497632
 20
143.4427517002504
 30
0.0
 10
56.77224526575485
 20
143.4334499424403
 30
0.0
 10
56.78309731653339
 20
143.4241481846301
 30
0.0
  0
SPLINE
  5
F3
330
1F
100
AcDbEntity
  8
cuerpo
 62
     7
420
 16777215
370
     9
100
AcDbSpline
210
0.0
220
0.0
230
1.0
 70
     8
 71
     3
 72
     8
 73
     4
 74
     0
 42
0.0000000001
 43
0.0000000001
 40
0.0
 40
0.0
 40
0.0
 40
0.0
 40
1.0
 40
1.0
 40
1.0
 40
1.0
 10
56.71884628573348
 20
143.4803032410396
 30
0.0
 10
56.7293538269635
 20
143.4710014832295
 30
0.0
 10
56.73986136819351
 20
143.4613552158708
 30
0.0
 10
56.75054116419778
 20
143.4520534580606
 30
0.0
  0
SPLINE
  5
F4
330
1F
100
AcDbEntity
  8
cuerpo
 62
     7
420
 16777215
370
     9
100
AcDbSpline
210
0.0
220
0.0
230
1.0
 70
    24
 71
     3
 72
     8
 73
     4
 74
     0
 42
0.0000000001
 43
0.0000000001
 40
0.0
 40
0.0
 40
0.0
 40
0.0
 40
1.0
 40
1.0
 40
1.0
 40
1.0
 10
56.68784042636624
 20
143.5092420431158
 30
0.0
 10
56.69817571282199
 20
143.4995957757571
 30
0.0
 10
56.70851099927773
 20
143.4899495083984
 30
0.0
 10
56.71884628573348
 20
143.4803032410396
 30
0.0
  0
SPLINE
  5
F5
330
1F
100
AcDbEntity
  8
cuerpo
 62
     7
420
 16777215
370
     9
100
AcDbSpline
210
0.0
220
0.0
230
1.0
 70
     8
 71
     3
 72
     8
 73
     4
 74
     0
 42
0.0000000001
 43
0.0000000001
 40
0.0
 40
0.0
 40
0.0
 40
0.0
 40
1.0
 40
1.0
 40
1.0
 40
1.0
 10
56.6576958408703
 20
143.5385253547404
 30
0.0
 10
56.66768661777753
 20
143.5288790873817
 30
0.0
 10
56.67767739468475
 20
143.5188883104744
 30
0.0
 10
56.68784042636624
 20
143.5092420431158
 30
0.0
  0
SPLINE
  5
F6
330
1F
100
AcDbEntity
  8
cuerpo
 62
     7
420
 16777215
370
     9
100
AcDbSpline
210
0.0
220
0.0
230
1.0
 70
     8
 71
     3
 72
     8
 73
     4
 74
     0
 42
0.0000000001
 43
0.0000000001
 40
0.0
 40
0.0
 40
0.0
 40
0.0
 40
1.0
 40
1.0
 40
1.0
 40
1.0
 10
56.62806801969715
 20
143.5684976854621
 30
0.0
 10
56.63788654183011
 20
143.5585069085548
 30
0.0
 10
56.64770506396307
 20
143.5485161316476
 30
0.0
 10
56.6576958408703
 20
143.5385253547404
 30
0.0
  0
SPLINE
  5
F7
330
1F
100
AcDbEntity
  8
cuerpo
 62
     7
420
 16777215
370
     9
100
AcDbSpline
210
0.0
220
0.0
230
1.0
 70
     8
 71
     3
 72
     8
 73
     4
 74
     0
 42
0.0000000001
 43
0.0000000001
 40
0.0
 40
0.0
 40
0.0
 40
0.0
 40
1.0
 40
1.0
 40
1.0
 40
1.0
 10
56.59912921762105
 20
143.5988145257323
 30
0.0
 10
56.60877548497975
 20
143.5884792392765
 30
0.0
 10
56.61842175233846
 20
143.5784884623693
 30
0.0
 10
56.62806801969715
 20
143.5684976854621
 30
0.0
  0
SPLINE
  5
F8
330
1F
100
AcDbEntity
  8
cuerpo
 62
     7
420
 16777215
370
     9
100
AcDbSpline
210
0.0
220
0.0
230
1.0
 70
     8
 71
     3
 72
     8
 73
     4
 74
     0
 42
0.0000000001
 43
0.0000000001
 40
0.0
 40
0.0
 40
0.0
 40
0.0
 40
1.0
 40
1.0
 40
1.0
 40
1.0
 10
56.57070717986774
 20
143.6291313660024
 30
0.0
 10
56.58018119245218
 20
143.6191405890952
 30
0.0
 10
56.58965520503661
 20
143.6088053026395
 30
0.0
 10
56.59912921762105
 20
143.5988145257323
 30
0.0
  0
SPLINE
  5
F9
330
1F
100
AcDbEntity
  8
cuerpo
 62
     7
420
 16777215
370
     9
100
AcDbSpline
210
0.0
220
0.0
230
1.0
 70
    24
 71
     3
 72
     8
 73
     4
 74
     0
 42
0.0000000001
 43
0.0000000001
 40
0.0
 40
0.0
 40
0.0
 40
0.0
 40
1.0
 40
1.0
 40
1.0
 40
1.0
 10
56.54280190643722
 20
143.6601372253697
 30
0.0
 10
56.55210366424739
 20
143.649801938914
 30
0.0
 10
56.56140542205757
 20
143.6394666524582
 30
0.0
 10
56.57070717986774
 20
143.6291313660024
 30
0.0
  0
SPLINE
  5
FA
330
1F
100
AcDbEntity
  8
cuerpo
 62
     7
420
 16777215
370
     9
100
AcDbSpline
210
0.0
220
0.0
230
1.0
 70
     8
 71
     3
 72
     8
 73
     4
 74
     0
 42
0.0000000001
 43
0.0000000001
 40
0.0
 40
0.0
 40
0.0
 40
0.0
 40
1.0
 40
1.0
 40
1.0
 40
1.0
 10
56.51541339732948
 20
143.6914875942855
 30
0.0
 10
56.5245429003654
 20
143.6811523078297
 30
0.0
 10
56.5336724034013
 20
143.6704725118254
 30
0.0
 10
56.54280190643722
 20
143.6601372253697
 30
0.0
  0
SPLINE
  5
FB
330
1F
100
AcDbEntity
  8
cuerpo
 62
     7
420
 16777215
370
     9
100
AcDbSpline
210
0.0
220
0.0
230
1.0
 70
     8
 71
     3
 72
     8
 73
     4
 74
     0
 42
0.0000000001
 43
0.0000000001
 40
0.0
 40
0.0
 40
0.0
 40
0.0
 40
1.0
 40
1.0
 40
1.0
 40
1.0
 10
56.48854165254453
 20
143.7231824727498
 30
0.0
 10
56.49749890080619
 20
143.7125026767455
 30
0.0
 10
56.50645614906783
 20
143.7018228807412
 30
0.0
 10
56.51541339732948
 20
143.6914875942855
 30
0.0
  0
SPLINE
  5
FC
330
1F
100
AcDbEntity
  8
cuerpo
 62
     7
420
 16777215
370
     9
100
AcDbSpline
210
0.0
220
0.0
230
1.0
 70
     8
 71
     3
 72
     8
 73
     4
 74
     0
 42
0.0000000001
 43
0.0000000001
 40
0.0
 40
0.0
 40
0.0
 40
0.0
 40
1.0
 40
1.0
 40
1.0
 40
1.0
 10
56.46184216253385
 20
143.7548773512141
 30
0.0
 10
56.4707994107955
 20
143.7441975552098
 30
0.0
 10
56.47958440428288
 20
143.7335177592055
 30
0.0
 10
56.48854165254453
 20
143.7231824727498
 30
0.0
  0
SPLINE
  5
FD
330
1F
100
AcDbEntity
  8
cuerpo
 62
     7
420
 16777215
370
     9
100
AcDbSpline
210
0.0
220
0.0
230
1.0
 70
     8
 71
     3
 72
     8
 73
     4
 74
     0
 42
0.0000000001
 43
0.0000000001
 40
0.0
 40
0.0
 40
0.0
 40
0.0
 40
1.0
 40
1.0
 40
1.0
 40
1.0
 10
56.43565943684595
 20
143.7869167392269
 30
0.0
 10
56.44427217555907
 20
143.7762369432226
 30
0.0
 10
56.45305716904646
 20
143.7655571472183
 30
0.0
 10
56.46184216253385
 20
143.7548773512141
 30
0.0
  0
SPLINE
  5
FE
330
1F
100
AcDbEntity
  8
cuerpo
 62
     7
420
 16777215
370
     9
100
AcDbSpline
210
0.0
220
0.0
230
1.0
 70
     8
 71
     3
 72
     8
 73
     4
 74
     0
 42
0.0000000001
 43
0.0000000001
 40
0.0
 40
0.0
 40
0.0
 40
0.0
 40
1.0
 40
1.0
 40
1.0
 40
1.0
 10
56.40964896593231
 20
143.8193006367882
 30
0.0
 10
56.41826170464544
 20
143.8082763312354
 30
0.0
 10
56.42687444335856
 20
143.7975965352312
 30
0.0
 10
56.43565943684595
 20
143.7869167392269
 30
0.0
  0
SPLINE
  5
FF
330
1F
100
AcDbEntity
  8
cuerpo
 62
     7
420
 16777215
370
     9
100
AcDbSpline
210
0.0
220
0.0
230
1.0
 70
     8
 71
     3
 72
     8
 73
     4
 74
     0
 42
0.0000000001
 43
0.0000000001
 40
0.0
 40
0.0
 40
0.0
 40
0.0
 40
1.0
 40
1.0
 40
1.0
 40
1.0
 10
56.38381074979294
 20
143.8516845343496
 30
0.0
 10
56.39242348850606
 20
143.8410047383453
 30
0.0
 10
56.40103622721919
 20
143.8299804327925
 30
0.0
 10
56.40964896593231
 20
143.8193006367882
 30
0.0
  0
SPLINE
  5
100
330
1F
100
AcDbEntity
  8
cuerpo
 62
     7
420
 16777215
370
     9
100
AcDbSpline
210
0.0
220
0.0
230
1.0
 70
     8
 71
     3
 72
     8
 73
     4
 74
     0
 42
0.0000000001
 43
0.0000000001
 40
0.0
 40
0.0
 40
0.0
 40
0.0
 40
1.0
 40
1.0
 40
1.0
 40
1.0
 10
56.35831704320209
 20
143.8844129414595
 30
0.0
 10
56.36675752714095
 20
143.8733886359067
 30
0.0
 10
56.37519801107982
 20
143.8623643303539
 30
0.0
 10
56.38381074979294
 20
143.8516845343496
 30
0.0
  0
SPLINE
  5
101
330
1F
100
AcDbEntity
  8
cuerpo
 62
     7
420
 16777215
370
     9
100
AcDbSpline
210
0.0
220
0.0
230
1.0
 70
     8
 71
     3
 72
     8
 73
     4
 74
     0
 42
0.0000000001
 43
0.0000000001
 40
0.0
 40
0.0
 40
0.0
 40
0.0
 40
1.0
 40
1.0
 40
1.0
 40
1.0
 10
56.33282333661124
 20
143.9167968390208
 30
0.0
 10
56.3412638205501
 20
143.9061170430165
 30
0.0
 10
56.34970430448897
 20
143.8950927374637
 30
0.0
 10
56.35831704320209
 20
143.8844129414595
 30
0.0
  0
SPLINE
  5
102
330
1F
100
AcDbEntity
  8
cuerpo
 62
     7
420
 16777215
370
     9
100
AcDbSpline
210
0.0
220
0.0
230
1.0
 70
     8
 71
     3
 72
     8
 73
     4
 74
     0
 42
0.0000000001
 43
0.0000000001
 40
0.0
 40
0.0
 40
0.0
 40
0.0
 40
1.0
 40
1.0
 40
1.0
 40
1.0
 10
56.30732963002039
 20
143.9498697556792
 30
0.0
 10
56.31577011395925
 20
143.9388454501264
 30
0.0
 10
56.32421059789812
 20
143.9278211445736
 30
0.0
 10
56.33282333661124
 20
143.9167968390208
 30
0.0
  0
SPLINE
  5
103
330
1F
100
AcDbEntity
  8
cuerpo
 62
     7
420
 16777215
370
     9
100
AcDbSpline
210
0.0
220
0.0
230
1.0
 70
     8
 71
     3
 72
     8
 73
     4
 74
     0
 42
0.0000000001
 43
0.0000000001
 40
0.0
 40
0.0
 40
0.0
 40
0.0
 40
1.0
 40
1.0
 40
1.0
 40
1.0
 10
56.2820081782038
 20
143.9825981627891
 30
0.0
 10
56.29044866214267
 20
143.9715738572363
 30
0.0
 10
56.29888914608153
 20
143.9605495516835
 30
0.0
 10
56.30732963002039
 20
143.9498697556792
 30
0.0
  0
INSERT
  5
105
330
1F
100
AcDbEntity
  8
cuerpo
100
AcDbBlockReference
  2
block 2
 10
0.0
 20
0.0
 30
0.0
  0
SPLINE
  5
109
330
1F
100
AcDbEntity
  8
cuerpo
 62
     7
420
 16777215
370
     9
100
AcDbSpline
210
0.0
220
0.0
230
1.0
 70
     8
 71
     3
 72
     8
 73
     4
 74
     0
 42
0.0000000001
 43
0.0000000001
 40
0.0
 40
0.0
 40
0.0
 40
0.0
 40
1.0
 40
1.0
 40
1.0
 40
1.0
 10
56.25651447161296
 20
144.0153265698989
 30
0.0
 10
56.2480739876741
 20
144.0263508754518
 30
0.0
 10
56.23946124896097
 20
144.0373751810046
 30
0.0
 10
56.23102076502211
 20
144.0483994865573
 30
0.0
  0
SPLINE
  5
10A
330
1F
100
AcDbEntity
  8
cuerpo
 62
     7
420
 16777215
370
     9
100
AcDbSpline
210
0.0
220
0.0
230
1.0
 70
     8
 71
     3
 72
     8
 73
     4
 74
     0
 42
0.0000000001
 43
0.0000000001
 40
0.0
 40
0.0
 40
0.0
 40
0.0
 40
1.0
 40
1.0
 40
1.0
 40
1.0
 10
56.23102076502211
 20
144.0483994865573
 30
0.0
 10
56.22258028108325
 20
144.0590792825616
 30
0.0
 10
56.21396754237012
 20
144.0701035881144
 30
0.0
 10
56.20552705843126
 20
144.0811278936672
 30
0.0
  0
SPLINE
  5
10B
330
1F
100
AcDbEntity
  8
cuerpo
 62
     7
420
 16777215
370
     9
100
AcDbSpline
210
0.0
220
0.0
230
1.0
 70
     8
 71
     3
 72
     8
 73
     4
 74
     0
 42
0.0000000001
 43
0.0000000001
 40
0.0
 40
0.0
 40
0.0
 40
0.0
 40
1.0
 40
1.0
 40
1.0
 40
1.0
 10
56.20552705843126
 20
144.0811278936672
 30
0.0
 10
56.19691431971813
 20
144.0918076896715
 30
0.0
 10
56.18847383577927
 20
144.1028319952243
 30
0.0
 10
56.17986109706615
 20
144.1135117912286
 30
0.0
  0
SPLINE
  5
10C
330
1F
100
AcDbEntity
  8
cuerpo
 62
     7
420
 16777215
370
     9
100
AcDbSpline
210
0.0
220
0.0
230
1.0
 70
     8
 71
     3
 72
     8
 73
     4
 74
     0
 42
0.0000000001
 43
0.0000000001
 40
0.0
 40
0.0
 40
0.0
 40
0.0
 40
1.0
 40
1.0
 40
1.0
 40
1.0
 10
56.17986109706615
 20
144.1135117912286
 30
0.0
 10
56.17124835835303
 20
144.1245360967814
 30
0.0
 10
56.1626356196399
 20
144.1355604023342
 30
0.0
 10
56.15385062615251
 20
144.146584707887
 30
0.0
  0
SPLINE
  5
10D
330
1F
100
AcDbEntity
  8
cuerpo
 62
     7
420
 16777215
370
     9
100
AcDbSpline
210
0.0
220
0.0
230
1.0
 70
     8
 71
     3
 72
     8
 73
     4
 74
     0
 42
0.0000000001
 43
0.0000000001
 40
0.0
 40
0.0
 40
0.0
 40
0.0
 40
1.0
 40
1.0
 40
1.0
 40
1.0
 10
56.15385062615251
 20
144.146584707887
 30
0.0
 10
56.14506563266512
 20
144.1576090134398
 30
0.0
 10
56.13610838440348
 20
144.1689778285411
 30
0.0
 10
56.12732339091609
 20
144.1803466436424
 30
0.0
  0
SPLINE
  5
10E
330
1F
100
AcDbEntity
  8
cuerpo
 62
     7
420
 16777215
370
     9
100
AcDbSpline
210
0.0
220
0.0
230
1.0
 70
     8
 71
     3
 72
     8
 73
     4
 74
     0
 42
0.0000000001
 43
0.0000000001
 40
0.0
 40
0.0
 40
0.0
 40
0.0
 40
1.0
 40
1.0
 40
1.0
 40
1.0
 10
56.12732339091609
 20
144.1803466436424
 30
0.0
 10
56.11888290697723
 20
144.1906819300982
 30
0.0
 10
56.11061467781263
 20
144.2013617261024
 30
0.0
 10
56.10217419387376
 20
144.2120415221067
 30
0.0
  0
SPLINE
  5
10F
330
1F
100
AcDbEntity
  8
cuerpo
 62
     7
420
 16777215
370
     9
100
AcDbSpline
210
0.0
220
0.0
230
1.0
 70
     8
 71
     3
 72
     8
 73
     4
 74
     0
 42
0.0000000001
 43
0.0000000001
 40
0.0
 40
0.0
 40
0.0
 40
0.0
 40
1.0
 40
1.0
 40
1.0
 40
1.0
 10
56.10217419387376
 20
144.2120415221067
 30
0.0
 10
56.09459498380622
 20
144.2216877894654
 30
0.0
 10
56.08701577373866
 20
144.2309895472756
 30
0.0
 10
56.07943656367112
 20
144.2406358146343
 30
0.0
  0
SPLINE
  5
110
330
1F
100
AcDbEntity
  8
cuerpo
 62
     7
420
 16777215
370
     9
100
AcDbSpline
210
0.0
220
0.0
230
1.0
 70
     8
 71
     3
 72
     8
 73
     4
 74
     0
 42
0.0000000001
 43
0.0000000001
 40
0.0
 40
0.0
 40
0.0
 40
0.0
 40
1.0
 40
1.0
 40
1.0
 40
1.0
 10
56.05067001636928
 20
144.277842845875
 30
0.0
 10
56.06014402895372
 20
144.2654405021281
 30
0.0
 10
56.06979029631242
 20
144.2530381583812
 30
0.0
 10
56.07943656367112
 20
144.2406358146343
 30
0.0
  0
SPLINE
  5
111
330
1F
100
AcDbEntity
  8
cuerpo
 62
     7
420
 16777215
370
     9
100
AcDbSpline
210
0.0
220
0.0
230
1.0
 70
     8
 71
     3
 72
     8
 73
     4
 74
     0
 42
0.0000000001
 43
0.0000000001
 40
0.0
 40
0.0
 40
0.0
 40
0.0
 40
1.0
 40
1.0
 40
1.0
 40
1.0
 10
56.00657279415808
 20
144.3350314309301
 30
0.0
 10
56.02121444997039
 20
144.3160834057613
 30
0.0
 10
56.03585610578271
 20
144.2967908710439
 30
0.0
 10
56.05067001636928
 20
144.277842845875
 30
0.0
  0
SPLINE
  5
112
330
1F
100
AcDbEntity
  8
cuerpo
 62
     7
420
 16777215
370
     9
100
AcDbSpline
210
0.0
220
0.0
230
1.0
 70
     8
 71
     3
 72
     8
 73
     4
 74
     0
 42
0.0000000001
 43
0.0000000001
 40
0.0
 40
0.0
 40
0.0
 40
0.0
 40
1.0
 40
1.0
 40
1.0
 40
1.0
 10
55.94938420910293
 20
144.4108235316056
 30
0.0
 10
55.96833223427181
 20
144.3853298250148
 30
0.0
 10
55.98745251421494
 20
144.3601806279725
 30
0.0
 10
56.00657279415808
 20
144.3350314309301
 30
0.0
  0
POLYLINE
  5
113
330
1F
100
AcDbEntity
  8
cuerpo
 62
     7
420
 16777215
370
     9
100
AcDb2dPolyline
 66
     1
 10
0.0
 20
0.0
 30
0.0
  0
VERTEX
  5
114
330
113
100
AcDbEntity
  8
cuerpo
 62
     7
420
 16777215
370
     9
100
AcDbVertex
100
AcDb2dVertex
 10
55.49928248395504
 20
144.8607530019793
 30
0.0
  0
VERTEX
  5
115
330
113
100
AcDbEntity
  8
cuerpo
 62
     7
420
 16777215
370
     9
100
AcDbVertex
100
AcDb2dVertex
 10
55.09310572624409
 20
144.8607530019793
 30
0.0
  0
SEQEND
  5
116
330
113
100
AcDbEntity
  8
cuerpo
370
     9
  0
SPLINE
  5
117
330
1F
100
AcDbEntity
  8
cuerpo
 62
     7
420
 16777215
370
     9
100
AcDbSpline
210
0.0
220
0.0
230
1.0
 70
     8
 71
     3
 72
    11
 73
     7
 74
     0
 42
0.0000000001
 43
0.0000000001
 40
0.0
 40
0.0
 40
0.0
 40
0.0
 40
1.0
 40
1.0
 40
1.0
 40
2.0
 40
2.0
 40
2.0
 40
2.0
 10
83.97540823638462
 20
168.119281641998
 30
0.0
 10
83.318773036896
 20
175.9747883674646
 30
0.0
 10
76.41841903471484
 20
181.8107801194779
 30
0.0
 10
68.56291230924816
 20
181.1541449199892
 30
0.0
 10
60.86984183591102
 20
180.5112901024416
 30
0.0
 10
55.08225367546555
 20
173.8681124782344
 30
0.0
 10
55.49928248395504
 20
166.1595390752136
 30
0.0
  0
SPLINE
  5
118
330
1F
100
AcDbEntity
  8
cuerpo
 62
     7
420
 16777215
370
     9
100
AcDbSpline
210
0.0
220
0.0
230
1.0
 70
     8
 71
     3
 72
    11
 73
     7
 74
     0
 42
0.0000000001
 43
0.0000000001
 40
0.0
 40
0.0
 40
0.0
 40
0.0
 40
1.0
 40
1.0
 40
1.0
 40
2.0
 40
2.0
 40
2.0
 40
2.0
 10
80.40043265134086
 20
167.4641967354777
 30
0.0
 10
79.75430499308226
 20
173.3194810222083
 30
0.0
 10
74.48399791974705
 20
177.5421345584791
 30
0.0
 10
68.6288858877907
 20
176.8960069002204
 30
0.0
 10
63.172543658252
 20
176.293976464173
 30
0.0
 10
59.06426729209157
 20
171.6486097118622
 30
0.0
 10
59.1335137113451
 20
166.1595390752136
 30
0.0
  0
POLYLINE
  5
119
330
1F
100
AcDbEntity
  8
cuerpo
 62
     7
420
 16777215
370
     9
100
AcDb2dPolyline
 66
     1
 10
0.0
 20
0.0
 30
0.0
  0
VERTEX
  5
11A
330
119
100
AcDbEntity
  8
cuerpo
 62
     7
420
 16777215
370
     9
100
AcDbVertex
100
AcDb2dVertex
 10
83.97540823638462
 20
168.119281641998
 30
0.0
  0
VERTEX
  5
11B
330
119
100
AcDbEntity
  8
cuerpo
 62
     7
420
 16777215
370
     9
100
AcDbVertex
100
AcDb2dVertex
 10
80.40043265134086
 20
167.4641967354777
 30
0.0
  0
SEQEND
  5
11C
330
119
100
AcDbEntity
  8
cuerpo
370
     9
  0
POLYLINE
  5
11D
330
1F
100
AcDbEntity
  8
cuerpo
 62
     7
420
 16777215
370
     9
100
AcDb2dPolyline
 66
     1
 10
0.0
 20
0.0
 30
0.0
  0
VERTEX
  5
11E
330
11D
100
AcDbEntity
  8
cuerpo
 62
     7
420
 16777215
370
     9
100
AcDbVertex
100
AcDb2dVertex
 10
84.15438094684335
 20
167.1422525623811
 30
0.0
  0
VERTEX
  5
11F
330
11D
100
AcDbEntity
  8
cuerpo
 62
     7
420
 16777215
370
     9
100
AcDbVertex
100
AcDb2dVertex
 10
80.57957761657386
 20
166.4873399106351
 30
0.0
  0
SEQEND
  5
120
330
11D
100
AcDbEntity
  8
cuerpo
370
     9
  0
POLYLINE
  5
121
330
1F
100
AcDbEntity
  8
cuerpo
 62
     7
420
 16777215
370
     9
100
AcDb2dPolyline
 66
     1
 10
0.0
 20
0.0
 30
0.0
  0
VERTEX
  5
122
330
121
100
AcDbEntity
  8
cuerpo
 62
     7
420
 16777215
370
     9
100
AcDbVertex
100
AcDb2dVertex
 10
105.0106445049973
 20
139.7241156334718
 30
0.0
  0
VERTEX
  5
123
330
121
100
AcDbEntity
  8
cuerpo
 62
     7
420
 16777215
370
     9
100
AcDbVertex
100
AcDb2dVertex
 10
99.28506806328637
 20
139.7241156334718
 30
0.0
  0
SEQEND
  5
124
330
121
100
AcDbEntity
  8
cuerpo
370
     9
  0
POLYLINE
  5
125
330
1F
100
AcDbEntity
  8
cuerpo
 62
     7
420
 16777215
370
     9
100
AcDb2dPolyline
 66
     1
 10
0.0
 20
0.0
 30
0.0
  0
VERTEX
  5
126
330
125
100
AcDbEntity
  8
cuerpo
 62
     7
420
 16777215
370
     9
100
AcDbVertex
100
AcDb2dVertex
 10
105.0106445049973
 20
144.4955728805428
 30
0.0
  0
VERTEX
  5
127
330
125
100
AcDbEntity
  8
cuerpo
 62
     7
420
 16777215
370
     9
100
AcDbVertex
100
AcDb2dVertex
 10
105.0106445049973
 20
147.3040147201185
 30
0.0
  0
SEQEND
  5
128
330
125
100
AcDbEntity
  8
cuerpo
370
     9
  0
POLYLINE
  5
129
330
1F
100
AcDbEntity
  8
cuerpo
 62
     7
420
 16777215
370
     9
100
AcDb2dPolyline
 66
     1
 10
0.0
 20
0.0
 30
0.0
  0
VERTEX
  5
12A
330
129
100
AcDbEntity
  8
cuerpo
 62
     7
420
 16777215
370
     9
100
AcDbVertex
100
AcDb2dVertex
 10
99.28506806328637
 20
139.7241156334718
 30
0.0
  0
VERTEX
  5
12B
330
129
100
AcDbEntity
  8
cuerpo
 62
     7
420
 16777215
370
     9
100
AcDbVertex
100
AcDb2dVertex
 10
99.28506806328637
 20
147.3040147201185
 30
0.0
  0
SEQEND
  5
12C
330
129
100
AcDbEntity
  8
cuerpo
370
     9
  0
SPLINE
  5
12D
330
1F
100
AcDbEntity
  8
cuerpo
 62
     7
420
 16777215
370
     9
100
AcDbSpline
210
0.0
220
0.0
230
1.0
 70
    11
 71
     3
 72
    20
 73
    16
 74
     0
 42
0.0000000001
 43
0.0000000001
 40
0.0
 40
0.0
 40
0.0
 40
0.0
 40
1.0
 40
1.0
 40
1.0
 40
2.0
 40
2.0
 40
2.0
 40
3.0
 40
3.0
 40
3.0
 40
4.0
 40
4.0
 40
4.0
 40
5.0
 40
5.0
 40
5.0
 40
5.0
 10
104.3812255598422
 20
142.6782850120735
 30
0.0
 10
104.3812255598422
 20
143.9116291957929
 30
0.0
 10
103.3814588500227
 20
144.9117404151609
 30
0.0
 10
102.147942411529
 20
144.9117404151609
 30
0.0
 10
100.9144259730353
 20
144.9117404151609
 30
0.0
 10
99.91448700844153
 20
143.9116291957929
 30
0.0
 10
99.91448700844153
 20
142.6782850120735
 30
0.0
 10
99.91448700844153
 20
141.444940828354
 30
0.0
 10
100.9144259730353
 20
140.444829608986
 30
0.0
 10
102.147942411529
 20
140.444829608986
 30
0.0
 10
103.3814588500227
 20
140.444829608986
 30
0.0
 10
104.3812255598422
 20
141.444940828354
 30
0.0
 10
104.3812255598422
 20
142.6782850120735
 30
0.0
 10
104.3812255598422
 20
142.6782850120735
 30
0.0
 10
104.3812255598422
 20
142.6782850120735
 30
0.0
 10
104.3812255598422
 20
142.6782850120735
 30
0.0
  0
POLYLINE
  5
12E
330
1F
100
AcDbEntity
  8
cuerpo
 62
     7
420
 16777215
370
     9
100
AcDb2dPolyline
 66
     1
 10
0.0
 20
0.0
 30
0.0
  0
VERTEX
  5
12F
330
12E
100
AcDbEntity
  8
cuerpo
 62
     7
420
 16777215
370
     9
100
AcDbVertex
100
AcDb2dVertex
 10
105.6503987366082
 20
140.8609971436042
 30
0.0
  0
VERTEX
  5
130
330
12E
100
AcDbEntity
  8
cuerpo
 62
     7
420
 16777215
370
     9
100
AcDbVertex
100
AcDb2dVertex
 10
105.6503987366082
 20
144.4955728805428
 30
0.0
  0
SEQEND
  5
131
330
12E
100
AcDbEntity
  8
cuerpo
370
     9
  0
POLYLINE
  5
132
330
1F
100
AcDbEntity
  8
cuerpo
 62
     7
420
 16777215
370
     9
100
AcDb2dPolyline
 66
     1
 10
0.0
 20
0.0
 30
0.0
  0
VERTEX
  5
133
330
132
100
AcDbEntity
  8
cuerpo
 62
     7
420
 16777215
370
     9
100
AcDbVertex
100
AcDb2dVertex
 10
105.0106445049973
 20
139.7241156334718
 30
0.0
  0
VERTEX
  5
134
330
132
100
AcDbEntity
  8
cuerpo
 62
     7
420
 16777215
370
     9
100
AcDbVertex
100
AcDb2dVertex
 10
105.0022040210585
 20
140.8609971436042
 30
0.0
  0
SEQEND
  5
135
330
132
100
AcDbEntity
  8
cuerpo
370
     9
  0
POLYLINE
  5
136
330
1F
100
AcDbEntity
  8
cuerpo
 62
     7
420
 16777215
370
     9
100
AcDb2dPolyline
 66
     1
 10
0.0
 20
0.0
 30
0.0
  0
VERTEX
  5
137
330
136
100
AcDbEntity
  8
cuerpo
 62
     7
420
 16777215
370
     9
100
AcDbVertex
100
AcDb2dVertex
 10
99.28506806328637
 20
139.7241156334718
 30
0.0
  0
VERTEX
  5
138
330
136
100
AcDbEntity
  8
cuerpo
 62
     7
420
 16777215
370
     9
100
AcDbVertex
100
AcDb2dVertex
 10
105.0106445049973
 20
139.7241156334718
 30
0.0
  0
SEQEND
  5
139
330
136
100
AcDbEntity
  8
cuerpo
370
     9
  0
POLYLINE
  5
13A
330
1F
100
AcDbEntity
  8
cuerpo
 62
     7
420
 16777215
370
     9
100
AcDb2dPolyline
 66
     1
 10
0.0
 20
0.0
 30
0.0
  0
VERTEX
  5
13B
330
13A
100
AcDbEntity
  8
cuerpo
 62
     7
420
 16777215
370
     9
100
AcDbVertex
100
AcDb2dVertex
 10
105.0106445049973
 20
139.7241156334718
 30
0.0
  0
VERTEX
  5
13C
330
13A
100
AcDbEntity
  8
cuerpo
 62
     7
420
 16777215
370
     9
100
AcDbVertex
100
AcDb2dVertex
 10
99.28506806328637
 20
139.7241156334718
 30
0.0
  0
SEQEND
  5
13D
330
13A
100
AcDbEntity
  8
cuerpo
370
     9
  0
POLYLINE
  5
13E
330
1F
100
AcDbEntity
  8
cuerpo
 62
     7
420
 16777215
370
     9
100
AcDb2dPolyline
 66
     1
 10
0.0
 20
0.0
 30
0.0
  0
VERTEX
  5
13F
330
13E
100
AcDbEntity
  8
cuerpo
 62
     7
420
 16777215
370
     9
100
AcDbVertex
100
AcDb2dVertex
 10
80.40043265134086
 20
167.4641967354777
 30
0.0
  0
VERTEX
  5
140
330
13E
100
AcDbEntity
  8
cuerpo
 62
     7
420
 16777215
370
     9
100
AcDbVertex
100
AcDb2dVertex
 10
80.57957761657386
 20
166.4873399106351
 30
0.0
  0
SEQEND
  5
141
330
13E
100
AcDbEntity
  8
cuerpo
370
     9
  0
POLYLINE
  5
142
330
1F
100
AcDbEntity
  8
cuerpo
 62
     7
420
 16777215
370
     9
100
AcDb2dPolyline
 66
     1
 10
0.0
 20
0.0
 30
0.0
  0
VERTEX
  5
143
330
142
100
AcDbEntity
  8
cuerpo
 62
     7
420
 16777215
370
     9
100
AcDbVertex
100
AcDb2dVertex
 10
83.97540823638462
 20
168.119281641998
 30
0.0
  0
VERTEX
  5
144
330
142
100
AcDbEntity
  8
cuerpo
 62
     7
420
 16777215
370
     9
100
AcDbVertex
100
AcDb2dVertex
 10
84.15438094684335
 20
167.1422525623811
 30
0.0
  0
SEQEND
  5
145
330
142
100
AcDbEntity
  8
cuerpo
370
     9
  0
SPLINE
  5
146
330
1F
100
AcDbEntity
  8
cuerpo
 62
     7
420
 16777215
370
     9
100
AcDbSpline
210
0.0
220
0.0
230
1.0
 70
     8
 71
     3
 72
    11
 73
     7
 74
     0
 42
0.0000000001
 43
0.0000000001
 40
0.0
 40
0.0
 40
0.0
 40
0.0
 40
1.0
 40
1.0
 40
1.0
 40
2.0
 40
2.0
 40
2.0
 40
2.0
 10
64.5659125272613
 20
151.9063177788637
 30
0.0
 10
64.5659125272613
 20
151.4577663466842
 30
0.0
 10
64.92937010095515
 20
151.0941365182161
 30
0.0
 10
65.3779215331347
 20
151.0941365182161
 30
0.0
 10
65.82647296531422
 20
151.0941365182161
 30
0.0
 10
66.19010279378234
 20
151.4577663466842
 30
0.0
 10
66.19010279378234
 20
151.9063177788637
 30
0.0
  0
POLYLINE
  5
147
330
1F
100
AcDbEntity
  8
cuerpo
 62
     7
420
 16777215
370
     9
100
AcDb2dPolyline
 66
     1
 10
0.0
 20
0.0
 30
0.0
  0
VERTEX
  5
148
330
147
100
AcDbEntity
  8
cuerpo
 62
     7
420
 16777215
370
     9
100
AcDbVertex
100
AcDb2dVertex
 10
68.48436413218447
 20
151.9063177788637
 30
0.0
  0
VERTEX
  5
149
330
147
100
AcDbEntity
  8
cuerpo
 62
     7
420
 16777215
370
     9
100
AcDbVertex
100
AcDb2dVertex
 10
66.31584877899395
 20
151.9063177788637
 30
0.0
  0
SEQEND
  5
14A
330
147
100
AcDbEntity
  8
cuerpo
370
     9
  0
POLYLINE
  5
14B
330
1F
100
AcDbEntity
  8
cuerpo
 62
     7
420
 16777215
370
     9
100
AcDb2dPolyline
 66
     1
 10
0.0
 20
0.0
 30
0.0
  0
VERTEX
  5
14C
330
14B
100
AcDbEntity
  8
cuerpo
 62
     7
420
 16777215
370
     9
100
AcDbVertex
100
AcDb2dVertex
 10
64.71491290699836
 20
151.9063177788637
 30
0.0
  0
VERTEX
  5
14D
330
14B
100
AcDbEntity
  8
cuerpo
 62
     7
420
 16777215
370
     9
100
AcDbVertex
100
AcDb2dVertex
 10
66.04110241404528
 20
151.9063177788637
 30
0.0
  0
SEQEND
  5
14E
330
14B
100
AcDbEntity
  8
cuerpo
370
     9
  0
POLYLINE
  5
14F
330
1F
100
AcDbEntity
  8
cuerpo
 62
     7
420
 16777215
370
     9
100
AcDb2dPolyline
 66
     1
 10
0.0
 20
0.0
 30
0.0
  0
VERTEX
  5
150
330
14F
100
AcDbEntity
  8
cuerpo
 62
     7
420
 16777215
370
     9
100
AcDbVertex
100
AcDb2dVertex
 10
103.4463988999197
 20
144.4955728805428
 30
0.0
  0
VERTEX
  5
151
330
14F
100
AcDbEntity
  8
cuerpo
 62
     7
420
 16777215
370
     9
100
AcDbVertex
100
AcDb2dVertex
 10
125.5954345389137
 20
144.4955728805428
 30
0.0
  0
SEQEND
  5
152
330
14F
100
AcDbEntity
  8
cuerpo
370
     9
  0
POLYLINE
  5
153
330
1F
100
AcDbEntity
  8
cuerpo
 62
     7
420
 16777215
370
     9
100
AcDb2dPolyline
 66
     1
 10
0.0
 20
0.0
 30
0.0
  0
VERTEX
  5
154
330
153
100
AcDbEntity
  8
cuerpo
 62
     7
420
 16777215
370
     9
100
AcDbVertex
100
AcDb2dVertex
 10
126.84118106638
 20
144.4955728805428
 30
0.0
  0
VERTEX
  5
155
330
153
100
AcDbEntity
  8
cuerpo
 62
     7
420
 16777215
370
     9
100
AcDbVertex
100
AcDb2dVertex
 10
126.9490125550683
 20
144.4955728805428
 30
0.0
  0
SEQEND
  5
156
330
153
100
AcDbEntity
  8
cuerpo
370
     9
  0
POLYLINE
  5
157
330
1F
100
AcDbEntity
  8
cuerpo
 62
     7
420
 16777215
370
     9
100
AcDb2dPolyline
 66
     1
 10
0.0
 20
0.0
 30
0.0
  0
VERTEX
  5
158
330
157
100
AcDbEntity
  8
cuerpo
 62
     7
420
 16777215
370
     9
100
AcDbVertex
100
AcDb2dVertex
 10
103.4463988999197
 20
140.8609971436042
 30
0.0
  0
VERTEX
  5
159
330
157
100
AcDbEntity
  8
cuerpo
 62
     7
420
 16777215
370
     9
100
AcDbVertex
100
AcDb2dVertex
 10
125.8648410058602
 20
140.8609971436042
 30
0.0
  0
SEQEND
  5
15A
330
157
100
AcDbEntity
  8
cuerpo
370
     9
  0
POLYLINE
  5
15B
330
1F
100
AcDbEntity
  8
cuerpo
 62
     7
420
 16777215
370
     9
100
AcDb2dPolyline
 66
     1
 10
0.0
 20
0.0
 30
0.0
  0
VERTEX
  5
15C
330
15B
100
AcDbEntity
  8
cuerpo
 62
     7
420
 16777215
370
     9
100
AcDbVertex
100
AcDb2dVertex
 10
67.60913762415674
 20
139.3179388757608
 30
0.0
  0
VERTEX
  5
15D
330
15B
100
AcDbEntity
  8
cuerpo
 62
     7
420
 16777215
370
     9
100
AcDbVertex
100
AcDb2dVertex
 10
67.72127548220163
 20
139.5422145918506
 30
0.0
  0
SEQEND
  5
15E
330
15B
100
AcDbEntity
  8
cuerpo
370
     9
  0
SPLINE
  5
15F
330
1F
100
AcDbEntity
  8
cuerpo
 62
     7
420
 16777215
370
     9
100
AcDbSpline
210
0.0
220
0.0
230
1.0
 70
     8
 71
     3
 72
     8
 73
     4
 74
     0
 42
0.0000000001
 43
0.0000000001
 40
0.0
 40
0.0
 40
0.0
 40
0.0
 40
1.0
 40
1.0
 40
1.0
 40
1.0
 10
67.72127548220163
 20
139.5422145918506
 30
0.0
 10
67.74969751995494
 20
139.5990586673572
 30
0.0
 10
67.75210908679462
 20
139.6655490102225
 30
0.0
 10
67.72799341839787
 20
139.7241156334718
 30
0.0
  0
SPLINE
  5
160
330
1F
100
AcDbEntity
  8
cuerpo
 62
     7
420
 16777215
370
     9
100
AcDbSpline
210
0.0
220
0.0
230
1.0
 70
     8
 71
     3
 72
    11
 73
     7
 74
     0
 42
0.0000000001
 43
0.0000000001
 40
0.0
 40
0.0
 40
0.0
 40
0.0
 40
1.0
 40
1.0
 40
1.0
 40
2.0
 40
2.0
 40
2.0
 40
2.0
 10
67.10150280440519
 20
139.3179388757608
 30
0.0
 10
67.10150280440519
 20
139.4113009634111
 30
0.0
 10
67.02571070372969
 20
139.4870930640866
 30
0.0
 10
66.93234861607941
 20
139.4870930640866
 30
0.0
 10
66.83881427365488
 20
139.4870930640866
 30
0.0
 10
66.76319442775365
 20
139.4113009634111
 30
0.0
 10
66.76319442775365
 20
139.3179388757608
 30
0.0
  0
SPLINE
  5
161
330
1F
100
AcDbEntity
  8
cuerpo
 62
     7
420
 16777215
370
     9
100
AcDbSpline
210
0.0
220
0.0
230
1.0
 70
     8
 71
     3
 72
    11
 73
     7
 74
     0
 42
0.0000000001
 43
0.0000000001
 40
0.0
 40
0.0
 40
0.0
 40
0.0
 40
1.0
 40
1.0
 40
1.0
 40
2.0
 40
2.0
 40
2.0
 40
2.0
 10
67.50767956211614
 20
139.3179388757608
 30
0.0
 10
67.50767956211614
 20
139.4113009634111
 30
0.0
 10
67.4546250916433
 20
139.4870930640866
 30
0.0
 10
67.38916827742355
 20
139.4870930640866
 30
0.0
 10
67.3237114632038
 20
139.4870930640866
 30
0.0
 10
67.27065699273095
 20
139.4113009634111
 30
0.0
 10
67.27065699273095
 20
139.3179388757608
 30
0.0
  0
POLYLINE
  5
162
330
1F
100
AcDbEntity
  8
cuerpo
 62
     7
420
 16777215
370
     9
100
AcDb2dPolyline
 66
     1
 10
0.0
 20
0.0
 30
0.0
  0
VERTEX
  5
163
330
162
100
AcDbEntity
  8
cuerpo
 62
     7
420
 16777215
370
     9
100
AcDbVertex
100
AcDb2dVertex
 10
66.25555960800209
 20
139.3179388757608
 30
0.0
  0
VERTEX
  5
164
330
162
100
AcDbEntity
  8
cuerpo
 62
     7
420
 16777215
370
     9
100
AcDbVertex
100
AcDb2dVertex
 10
66.1434217499572
 20
139.5422145918506
 30
0.0
  0
SEQEND
  5
165
330
162
100
AcDbEntity
  8
cuerpo
370
     9
  0
SPLINE
  5
166
330
1F
100
AcDbEntity
  8
cuerpo
 62
     7
420
 16777215
370
     9
100
AcDbSpline
210
0.0
220
0.0
230
1.0
 70
     8
 71
     3
 72
     8
 73
     4
 74
     0
 42
0.0000000001
 43
0.0000000001
 40
0.0
 40
0.0
 40
0.0
 40
0.0
 40
1.0
 40
1.0
 40
1.0
 40
1.0
 10
66.13670381376096
 20
139.7241156334718
 30
0.0
 10
66.11258814536421
 20
139.6655490102225
 30
0.0
 10
66.1149997122039
 20
139.5990586673572
 30
0.0
 10
66.1434217499572
 20
139.5422145918506
 30
0.0
  0
SPLINE
  5
167
330
1F
100
AcDbEntity
  8
cuerpo
 62
     7
420
 16777215
370
     9
100
AcDbSpline
210
0.0
220
0.0
230
1.0
 70
     8
 71
     3
 72
    11
 73
     7
 74
     0
 42
0.0000000001
 43
0.0000000001
 40
0.0
 40
0.0
 40
0.0
 40
0.0
 40
1.0
 40
1.0
 40
1.0
 40
2.0
 40
2.0
 40
2.0
 40
2.0
 10
66.59386798465361
 20
139.3179388757608
 30
0.0
 10
66.59386798465361
 20
139.4113009634111
 30
0.0
 10
66.54098576895504
 20
139.4870930640866
 30
0.0
 10
66.47552895473528
 20
139.4870930640866
 30
0.0
 10
66.41007214051554
 20
139.4870930640866
 30
0.0
 10
66.3570176700427
 20
139.4113009634111
 30
0.0
 10
66.3570176700427
 20
139.3179388757608
 30
0.0
  0
POLYLINE
  5
168
330
1F
100
AcDbEntity
  8
cuerpo
 62
     7
420
 16777215
370
     9
100
AcDb2dPolyline
 66
     1
 10
0.0
 20
0.0
 30
0.0
  0
VERTEX
  5
169
330
168
100
AcDbEntity
  8
cuerpo
 62
     7
420
 16777215
370
     9
100
AcDbVertex
100
AcDb2dVertex
 10
66.25555960800209
 20
139.3179388757608
 30
0.0
  0
VERTEX
  5
16A
330
168
100
AcDbEntity
  8
cuerpo
 62
     7
420
 16777215
370
     9
100
AcDbVertex
100
AcDb2dVertex
 10
66.1434217499572
 20
139.5422145918506
 30
0.0
  0
SEQEND
  5
16B
330
168
100
AcDbEntity
  8
cuerpo
370
     9
  0
SPLINE
  5
16C
330
1F
100
AcDbEntity
  8
cuerpo
 62
     7
420
 16777215
370
     9
100
AcDbSpline
210
0.0
220
0.0
230
1.0
 70
     8
 71
     3
 72
    11
 73
     7
 74
     0
 42
0.0000000001
 43
0.0000000001
 40
0.0
 40
0.0
 40
0.0
 40
0.0
 40
1.0
 40
1.0
 40
1.0
 40
2.0
 40
2.0
 40
2.0
 40
2.0
 10
66.3570176700427
 20
139.3179388757608
 30
0.0
 10
66.3570176700427
 20
139.4113009634111
 30
0.0
 10
66.41007214051554
 20
139.4870930640866
 30
0.0
 10
66.47552895473528
 20
139.4870930640866
 30
0.0
 10
66.54098576895504
 20
139.4870930640866
 30
0.0
 10
66.59386798465361
 20
139.4113009634111
 30
0.0
 10
66.59386798465361
 20
139.3179388757608
 30
0.0
  0
POLYLINE
  5
16D
330
1F
100
AcDbEntity
  8
cuerpo
 62
     7
420
 16777215
370
     9
100
AcDb2dPolyline
 66
     1
 10
0.0
 20
0.0
 30
0.0
  0
VERTEX
  5
16E
330
16D
100
AcDbEntity
  8
cuerpo
 62
     7
420
 16777215
370
     9
100
AcDbVertex
100
AcDb2dVertex
 10
104.3698567447409
 20
139.3179388757608
 30
0.0
  0
VERTEX
  5
16F
330
16D
100
AcDbEntity
  8
cuerpo
 62
     7
420
 16777215
370
     9
100
AcDbVertex
100
AcDb2dVertex
 10
104.48216685756
 20
139.5422145918506
 30
0.0
  0
SEQEND
  5
170
330
16D
100
AcDbEntity
  8
cuerpo
370
     9
  0
SPLINE
  5
171
330
1F
100
AcDbEntity
  8
cuerpo
 62
     7
420
 16777215
370
     9
100
AcDbSpline
210
0.0
220
0.0
230
1.0
 70
     8
 71
     3
 72
     8
 73
     4
 74
     0
 42
0.0000000001
 43
0.0000000001
 40
0.0
 40
0.0
 40
0.0
 40
0.0
 40
1.0
 40
1.0
 40
1.0
 40
1.0
 10
104.48216685756
 20
139.5422145918506
 30
0.0
 10
104.5104166405391
 20
139.5990586673572
 30
0.0
 10
104.5128282073787
 20
139.6655490102225
 30
0.0
 10
104.488712538982
 20
139.7241156334718
 30
0.0
  0
SPLINE
  5
172
330
1F
100
AcDbEntity
  8
cuerpo
 62
     7
420
 16777215
370
     9
100
AcDbSpline
210
0.0
220
0.0
230
1.0
 70
     8
 71
     3
 72
    11
 73
     7
 74
     0
 42
0.0000000001
 43
0.0000000001
 40
0.0
 40
0.0
 40
0.0
 40
0.0
 40
1.0
 40
1.0
 40
1.0
 40
2.0
 40
2.0
 40
2.0
 40
2.0
 10
103.8622219249893
 20
139.3179388757608
 30
0.0
 10
103.8622219249893
 20
139.4113009634111
 30
0.0
 10
103.7866020790881
 20
139.4870930640866
 30
0.0
 10
103.6930677366635
 20
139.4870930640866
 30
0.0
 10
103.5997056490133
 20
139.4870930640866
 30
0.0
 10
103.5239135483378
 20
139.4113009634111
 30
0.0
 10
103.5239135483378
 20
139.3179388757608
 30
0.0
  0
SPLINE
  5
173
330
1F
100
AcDbEntity
  8
cuerpo
 62
     7
420
 16777215
370
     9
100
AcDbSpline
210
0.0
220
0.0
230
1.0
 70
     8
 71
     3
 72
    11
 73
     7
 74
     0
 42
0.0000000001
 43
0.0000000001
 40
0.0
 40
0.0
 40
0.0
 40
0.0
 40
1.0
 40
1.0
 40
1.0
 40
2.0
 40
2.0
 40
2.0
 40
2.0
 10
104.2683986827003
 20
139.3179388757608
 30
0.0
 10
104.2683986827003
 20
139.4113009634111
 30
0.0
 10
104.2153442122274
 20
139.4870930640866
 30
0.0
 10
104.1498873980077
 20
139.4870930640866
 30
0.0
 10
104.0846028385622
 20
139.4870930640866
 30
0.0
 10
104.0315483680893
 20
139.4113009634111
 30
0.0
 10
104.0315483680893
 20
139.3179388757608
 30
0.0
  0
POLYLINE
  5
174
330
1F
100
AcDbEntity
  8
cuerpo
 62
     7
420
 16777215
370
     9
100
AcDb2dPolyline
 66
     1
 10
0.0
 20
0.0
 30
0.0
  0
VERTEX
  5
175
330
174
100
AcDbEntity
  8
cuerpo
 62
     7
420
 16777215
370
     9
100
AcDbVertex
100
AcDb2dVertex
 10
103.0162787285862
 20
139.3179388757608
 30
0.0
  0
VERTEX
  5
176
330
174
100
AcDbEntity
  8
cuerpo
 62
     7
420
 16777215
370
     9
100
AcDbVertex
100
AcDb2dVertex
 10
102.9041408705413
 20
139.5422145918506
 30
0.0
  0
SEQEND
  5
177
330
174
100
AcDbEntity
  8
cuerpo
370
     9
  0
SPLINE
  5
178
330
1F
100
AcDbEntity
  8
cuerpo
 62
     7
420
 16777215
370
     9
100
AcDbSpline
210
0.0
220
0.0
230
1.0
 70
     8
 71
     3
 72
     8
 73
     4
 74
     0
 42
0.0000000001
 43
0.0000000001
 40
0.0
 40
0.0
 40
0.0
 40
0.0
 40
1.0
 40
1.0
 40
1.0
 40
1.0
 10
102.8974229343451
 20
139.7241156334718
 30
0.0
 10
102.8733072659483
 20
139.6655490102225
 30
0.0
 10
102.875718832788
 20
139.5990586673572
 30
0.0
 10
102.9041408705413
 20
139.5422145918506
 30
0.0
  0
SPLINE
  5
179
330
1F
100
AcDbEntity
  8
cuerpo
 62
     7
420
 16777215
370
     9
100
AcDbSpline
210
0.0
220
0.0
230
1.0
 70
     8
 71
     3
 72
    11
 73
     7
 74
     0
 42
0.0000000001
 43
0.0000000001
 40
0.0
 40
0.0
 40
0.0
 40
0.0
 40
1.0
 40
1.0
 40
1.0
 40
2.0
 40
2.0
 40
2.0
 40
2.0
 10
103.354759360012
 20
139.3179388757608
 30
0.0
 10
103.354759360012
 20
139.4113009634111
 30
0.0
 10
103.3017048895392
 20
139.4870930640866
 30
0.0
 10
103.2362480753194
 20
139.4870930640866
 30
0.0
 10
103.1707912610997
 20
139.4870930640866
 30
0.0
 10
103.1177367906268
 20
139.4113009634111
 30
0.0
 10
103.1177367906268
 20
139.3179388757608
 30
0.0
  0
POLYLINE
  5
17A
330
1F
100
AcDbEntity
  8
cuerpo
 62
     7
420
 16777215
370
     9
100
AcDb2dPolyline
 66
     1
 10
0.0
 20
0.0
 30
0.0
  0
VERTEX
  5
17B
330
17A
100
AcDbEntity
  8
cuerpo
 62
     7
420
 16777215
370
     9
100
AcDbVertex
100
AcDb2dVertex
 10
103.0162787285862
 20
139.3179388757608
 30
0.0
  0
VERTEX
  5
17C
330
17A
100
AcDbEntity
  8
cuerpo
 62
     7
420
 16777215
370
     9
100
AcDbVertex
100
AcDb2dVertex
 10
102.9041408705413
 20
139.5422145918506
 30
0.0
  0
SEQEND
  5
17D
330
17A
100
AcDbEntity
  8
cuerpo
370
     9
  0
SPLINE
  5
17E
330
1F
100
AcDbEntity
  8
cuerpo
 62
     7
420
 16777215
370
     9
100
AcDbSpline
210
0.0
220
0.0
230
1.0
 70
     8
 71
     3
 72
    11
 73
     7
 74
     0
 42
0.0000000001
 43
0.0000000001
 40
0.0
 40
0.0
 40
0.0
 40
0.0
 40
1.0
 40
1.0
 40
1.0
 40
2.0
 40
2.0
 40
2.0
 40
2.0
 10
103.1177367906268
 20
139.3179388757608
 30
0.0
 10
103.1177367906268
 20
139.4113009634111
 30
0.0
 10
103.1707912610997
 20
139.4870930640866
 30
0.0
 10
103.2362480753194
 20
139.4870930640866
 30
0.0
 10
103.3017048895392
 20
139.4870930640866
 30
0.0
 10
103.354759360012
 20
139.4113009634111
 30
0.0
 10
103.354759360012
 20
139.3179388757608
 30
0.0
  0
POLYLINE
  5
17F
330
1F
100
AcDbEntity
  8
cuerpo
 62
     7
420
 16777215
370
     9
100
AcDb2dPolyline
 66
     1
 10
0.0
 20
0.0
 30
0.0
  0
VERTEX
  5
180
330
17F
100
AcDbEntity
  8
cuerpo
 62
     7
420
 16777215
370
     9
100
AcDbVertex
100
AcDb2dVertex
 10
99.04132755770495
 20
152.1771022840043
 30
0.0
  0
VERTEX
  5
181
330
17F
100
AcDbEntity
  8
cuerpo
 62
     7
420
 16777215
370
     9
100
AcDbVertex
100
AcDb2dVertex
 10
114.2745062648342
 20
152.1771022840043
 30
0.0
  0
SEQEND
  5
182
330
17F
100
AcDbEntity
  8
cuerpo
370
     9
  0
POLYLINE
  5
183
330
1F
100
AcDbEntity
  8
cuerpo
 62
     7
420
 16777215
370
     9
100
AcDb2dPolyline
 66
     1
 10
0.0
 20
0.0
 30
0.0
  0
VERTEX
  5
184
330
183
100
AcDbEntity
  8
cuerpo
 62
     7
420
 16777215
370
     9
100
AcDbVertex
100
AcDb2dVertex
 10
114.2745062648342
 20
151.1158406197731
 30
0.0
  0
VERTEX
  5
185
330
183
100
AcDbEntity
  8
cuerpo
 62
     7
420
 16777215
370
     9
100
AcDbVertex
100
AcDb2dVertex
 10
105.2542127558045
 20
151.1158406197731
 30
0.0
  0
SEQEND
  5
186
330
183
100
AcDbEntity
  8
cuerpo
370
     9
  0
POLYLINE
  5
187
330
1F
100
AcDbEntity
  8
cuerpo
 62
     7
420
 16777215
370
     9
100
AcDb2dPolyline
 66
     1
 10
0.0
 20
0.0
 30
0.0
  0
VERTEX
  5
188
330
187
100
AcDbEntity
  8
cuerpo
 62
     7
420
 16777215
370
     9
100
AcDbVertex
100
AcDb2dVertex
 10
114.2745062648342
 20
151.1158406197731
 30
0.0
  0
VERTEX
  5
189
330
187
100
AcDbEntity
  8
cuerpo
 62
     7
420
 16777215
370
     9
100
AcDbVertex
100
AcDb2dVertex
 10
114.2745062648342
 20
152.1771022840043
 30
0.0
  0
SEQEND
  5
18A
330
187
100
AcDbEntity
  8
cuerpo
370
     9
  0
SPLINE
  5
18B
330
1F
100
AcDbEntity
  8
cuerpo
 62
     7
420
 16777215
370
     9
100
AcDbSpline
210
0.0
220
0.0
230
1.0
 70
     8
 71
     3
 72
    11
 73
     7
 74
     0
 42
0.0000000001
 43
0.0000000001
 40
0.0
 40
0.0
 40
0.0
 40
0.0
 40
1.0
 40
1.0
 40
1.0
 40
2.0
 40
2.0
 40
2.0
 40
2.0
 10
127.5550048509238
 20
116.0194471281132
 30
0.0
 10
135.4105115763904
 20
116.6757378180533
 30
0.0
 10
141.2465033284037
 20
123.5762640750087
 30
0.0
 10
140.589868128915
 20
131.4317708004754
 30
0.0
 10
139.9470133113674
 20
139.1246690190383
 30
0.0
 10
133.3038356871602
 20
144.912429434258
 30
0.0
 10
125.5954345389137
 20
144.4955728805428
 30
0.0
  0
SPLINE
  5
18C
330
1F
100
AcDbEntity
  8
cuerpo
 62
     7
420
 16777215
370
     9
100
AcDbSpline
210
0.0
220
0.0
230
1.0
 70
     8
 71
     3
 72
    11
 73
     7
 74
     0
 42
0.0000000001
 43
0.0000000001
 40
0.0
 40
0.0
 40
0.0
 40
0.0
 40
1.0
 40
1.0
 40
1.0
 40
2.0
 40
2.0
 40
2.0
 40
2.0
 10
126.9000921991778
 20
119.5940782036084
 30
0.0
 10
132.7553764859084
 20
120.2403781166413
 30
0.0
 10
136.9780300221791
 20
125.5106851899765
 30
0.0
 10
136.3317301091462
 20
131.3656249671586
 30
0.0
 10
135.7298719278731
 20
136.8223117062458
 30
0.0
 10
131.0845051755622
 20
140.9305880724062
 30
0.0
 10
125.5954345389137
 20
140.8609971436042
 30
0.0
  0
POLYLINE
  5
18D
330
1F
100
AcDbEntity
  8
cuerpo
 62
     7
420
 16777215
370
     9
100
AcDb2dPolyline
 66
     1
 10
0.0
 20
0.0
 30
0.0
  0
VERTEX
  5
18E
330
18D
100
AcDbEntity
  8
cuerpo
 62
     7
420
 16777215
370
     9
100
AcDbVertex
100
AcDb2dVertex
 10
127.5550048509238
 20
116.0194471281132
 30
0.0
  0
VERTEX
  5
18F
330
18D
100
AcDbEntity
  8
cuerpo
 62
     7
420
 16777215
370
     9
100
AcDbVertex
100
AcDb2dVertex
 10
126.9000921991778
 20
119.5940782036084
 30
0.0
  0
SEQEND
  5
190
330
18D
100
AcDbEntity
  8
cuerpo
370
     9
  0
POLYLINE
  5
191
330
1F
100
AcDbEntity
  8
cuerpo
 62
     7
420
 16777215
370
     9
100
AcDb2dPolyline
 66
     1
 10
0.0
 20
0.0
 30
0.0
  0
VERTEX
  5
192
330
191
100
AcDbEntity
  8
cuerpo
 62
     7
420
 16777215
370
     9
100
AcDbVertex
100
AcDb2dVertex
 10
126.5779757713069
 20
115.8403021628802
 30
0.0
  0
VERTEX
  5
193
330
191
100
AcDbEntity
  8
cuerpo
 62
     7
420
 16777215
370
     9
100
AcDbVertex
100
AcDb2dVertex
 10
125.9230631195609
 20
119.415277747924
 30
0.0
  0
SEQEND
  5
194
330
191
100
AcDbEntity
  8
cuerpo
370
     9
  0
POLYLINE
  5
195
330
1F
100
AcDbEntity
  8
cuerpo
 62
     7
420
 16777215
370
     9
100
AcDb2dPolyline
 66
     1
 10
0.0
 20
0.0
 30
0.0
  0
VERTEX
  5
196
330
195
100
AcDbEntity
  8
cuerpo
 62
     7
420
 16777215
370
     9
100
AcDbVertex
100
AcDb2dVertex
 10
126.9000921991778
 20
119.5940782036084
 30
0.0
  0
VERTEX
  5
197
330
195
100
AcDbEntity
  8
cuerpo
 62
     7
420
 16777215
370
     9
100
AcDbVertex
100
AcDb2dVertex
 10
125.9230631195609
 20
119.415277747924
 30
0.0
  0
SEQEND
  5
198
330
195
100
AcDbEntity
  8
cuerpo
370
     9
  0
POLYLINE
  5
199
330
1F
100
AcDbEntity
  8
cuerpo
 62
     7
420
 16777215
370
     9
100
AcDb2dPolyline
 66
     1
 10
0.0
 20
0.0
 30
0.0
  0
VERTEX
  5
19A
330
199
100
AcDbEntity
  8
cuerpo
 62
     7
420
 16777215
370
     9
100
AcDbVertex
100
AcDb2dVertex
 10
127.5550048509238
 20
116.0194471281132
 30
0.0
  0
VERTEX
  5
19B
330
199
100
AcDbEntity
  8
cuerpo
 62
     7
420
 16777215
370
     9
100
AcDbVertex
100
AcDb2dVertex
 10
126.5779757713069
 20
115.8403021628802
 30
0.0
  0
SEQEND
  5
19C
330
199
100
AcDbEntity
  8
cuerpo
370
     9
  0
INSERT
  5
19F
330
1F
100
AcDbEntity
  8
cotas
100
AcDbBlockReference
  2
block 3
 10
0.0
 20
0.0
 30
0.0
  0
INSERT
  5
1A7
330
1F
100
AcDbEntity
  8
cotas
100
AcDbBlockReference
  2
block 4
 10
0.0
 20
0.0
 30
0.0
  0
INSERT
  5
1AF
330
1F
100
AcDbEntity
  8
cotas
100
AcDbBlockReference
  2
block 5
 10
0.0
 20
0.0
 30
0.0
  0
INSERT
  5
1B7
330
1F
100
AcDbEntity
  8
cotas
100
AcDbBlockReference
  2
block 6
 10
0.0
 20
0.0
 30
0.0
  0
INSERT
  5
1BF
330
1F
100
AcDbEntity
  8
cotas
100
AcDbBlockReference
  2
block 7
 10
0.0
 20
0.0
 30
0.0
  0
INSERT
  5
1CA
330
1F
100
AcDbEntity
  8
cotas
100
AcDbBlockReference
  2
block 8
 10
0.0
 20
0.0
 30
0.0
  0
INSERT
  5
1D5
330
1F
100
AcDbEntity
  8
cotas
100
AcDbBlockReference
  2
block 9
 10
0.0
 20
0.0
 30
0.0
  0
INSERT
  5
1DA
330
1F
100
AcDbEntity
  8
cotas
100
AcDbBlockReference
  2
block 10
 10
0.0
 20
0.0
 30
0.0
  0
INSERT
  5
1E2
330
1F
100
AcDbEntity
  8
cotas
100
AcDbBlockReference
  2
block 11
 10
0.0
 20
0.0
 30
0.0
  0
INSERT
  5
1EA
330
1F
100
AcDbEntity
  8
cotas
100
AcDbBlockReference
  2
block 12
 10
0.0
 20
0.0
 30
0.0
  0
INSERT
  5
1F2
330
1F
100
AcDbEntity
  8
cotas
100
AcDbBlockReference
  2
block 13
 10
0.0
 20
0.0
 30
0.0
  0
INSERT
  5
1FA
330
1F
100
AcDbEntity
  8
cotas
100
AcDbBlockReference
  2
block 14
 10
0.0
 20
0.0
 30
0.0
  0
INSERT
  5
202
330
1F
100
AcDbEntity
  8
cotas
100
AcDbBlockReference
  2
block 15
 10
0.0
 20
0.0
 30
0.0
  0
INSERT
  5
20A
330
1F
100
AcDbEntity
  8
cotas
100
AcDbBlockReference
  2
block 16
 10
0.0
 20
0.0
 30
0.0
  0
INSERT
  5
212
330
1F
100
AcDbEntity
  8
cotas
100
AcDbBlockReference
  2
block 17
 10
0.0
 20
0.0
 30
0.0
  0
INSERT
  5
21D
330
1F
100
AcDbEntity
  8
cotas
100
AcDbBlockReference
  2
block 18
 10
0.0
 20
0.0
 30
0.0
  0
INSERT
  5
228
330
1F
100
AcDbEntity
  8
cotas
100
AcDbBlockReference
  2
block 19
 10
0.0
 20
0.0
 30
0.0
  0
INSERT
  5
22D
330
1F
100
AcDbEntity
  8
cotas
100
AcDbBlockReference
  2
block 20
 10
0.0
 20
0.0
 30
0.0
  0
INSERT
  5
235
330
1F
100
AcDbEntity
  8
cotas
100
AcDbBlockReference
  2
block 21
 10
0.0
 20
0.0
 30
0.0
  0
INSERT
  5
23D
330
1F
100
AcDbEntity
  8
cotas
100
AcDbBlockReference
  2
block 22
 10
0.0
 20
0.0
 30
0.0
  0
INSERT
  5
245
330
1F
100
AcDbEntity
  8
cotas
100
AcDbBlockReference
  2
block 23
 10
0.0
 20
0.0
 30
0.0
  0
INSERT
  5
24D
330
1F
100
AcDbEntity
  8
cotas
100
AcDbBlockReference
  2
block 24
 10
0.0
 20
0.0
 30
0.0
  0
INSERT
  5
255
330
1F
100
AcDbEntity
  8
cotas
100
AcDbBlockReference
  2
block 25
 10
0.0
 20
0.0
 30
0.0
  0
INSERT
  5
25D
330
1F
100
AcDbEntity
  8
cotas
100
AcDbBlockReference
  2
block 26
 10
0.0
 20
0.0
 30
0.0
  0
INSERT
  5
265
330
1F
100
AcDbEntity
  8
cotas
100
AcDbBlockReference
  2
block 27
 10
0.0
 20
0.0
 30
0.0
  0
INSERT
  5
270
330
1F
100
AcDbEntity
  8
cotas
100
AcDbBlockReference
  2
block 28
 10
0.0
 20
0.0
 30
0.0
  0
INSERT
  5
27B
330
1F
100
AcDbEntity
  8
cotas
100
AcDbBlockReference
  2
block 29
 10
0.0
 20
0.0
 30
0.0
  0
INSERT
  5
280
330
1F
100
AcDbEntity
  8
cotas
100
AcDbBlockReference
  2
block 30
 10
0.0
 20
0.0
 30
0.0
  0
INSERT
  5
288
330
1F
100
AcDbEntity
  8
cotas
100
AcDbBlockReference
  2
block 31
 10
0.0
 20
0.0
 30
0.0
  0
INSERT
  5
290
330
1F
100
AcDbEntity
  8
cotas
100
AcDbBlockReference
  2
block 32
 10
0.0
 20
0.0
 30
0.0
  0
INSERT
  5
298
330
1F
100
AcDbEntity
  8
cotas
100
AcDbBlockReference
  2
block 33
 10
0.0
 20
0.0
 30
0.0
  0
INSERT
  5
2A0
330
1F
100
AcDbEntity
  8
cotas
100
AcDbBlockReference
  2
block 34
 10
0.0
 20
0.0
 30
0.0
  0
INSERT
  5
2A8
330
1F
100
AcDbEntity
  8
cotas
100
AcDbBlockReference
  2
block 35
 10
0.0
 20
0.0
 30
0.0
  0
INSERT
  5
2B0
330
1F
100
AcDbEntity
  8
cotas
100
AcDbBlockReference
  2
block 36
 10
0.0
 20
0.0
 30
0.0
  0
INSERT
  5
2B8
330
1F
100
AcDbEntity
  8
cotas
100
AcDbBlockReference
  2
block 37
 10
0.0
 20
0.0
 30
0.0
  0
INSERT
  5
2C3
330
1F
100
AcDbEntity
  8
cotas
100
AcDbBlockReference
  2
block 38
 10
0.0
 20
0.0
 30
0.0
  0
INSERT
  5
2CE
330
1F
100
AcDbEntity
  8
cotas
100
AcDbBlockReference
  2
block 39
 10
0.0
 20
0.0
 30
0.0
  0
INSERT
  5
2D3
330
1F
100
AcDbEntity
  8
cotas
100
AcDbBlockReference
  2
block 40
 10
0.0
 20
0.0
 30
0.0
  0
INSERT
  5
2DB
330
1F
100
AcDbEntity
  8
cotas
100
AcDbBlockReference
  2
block 41
 10
0.0
 20
0.0
 30
0.0
  0
INSERT
  5
2E3
330
1F
100
AcDbEntity
  8
cotas
100
AcDbBlockReference
  2
block 42
 10
0.0
 20
0.0
 30
0.0
  0
INSERT
  5
2EB
330
1F
100
AcDbEntity
  8
cotas
100
AcDbBlockReference
  2
block 43
 10
0.0
 20
0.0
 30
0.0
  0
INSERT
  5
2F3
330
1F
100
AcDbEntity
  8
cotas
100
AcDbBlockReference
  2
block 44
 10
0.0
 20
0.0
 30
0.0
  0
INSERT
  5
2FB
330
1F
100
AcDbEntity
  8
cotas
100
AcDbBlockReference
  2
block 45
 10
0.0
 20
0.0
 30
0.0
  0
INSERT
  5
303
330
1F
100
AcDbEntity
  8
cotas
100
AcDbBlockReference
  2
block 46
 10
0.0
 20
0.0
 30
0.0
  0
INSERT
  5
30B
330
1F
100
AcDbEntity
  8
cotas
100
AcDbBlockReference
  2
block 47
 10
0.0
 20
0.0
 30
0.0
  0
INSERT
  5
316
330
1F
100
AcDbEntity
  8
cotas
100
AcDbBlockReference
  2
block 48
 10
0.0
 20
0.0
 30
0.0
  0
INSERT
  5
321
330
1F
100
AcDbEntity
  8
cotas
100
AcDbBlockReference
  2
block 49
 10
0.0
 20
0.0
 30
0.0
  0
INSERT
  5
326
330
1F
100
AcDbEntity
  8
cotas
100
AcDbBlockReference
  2
block 50
 10
0.0
 20
0.0
 30
0.0
  0
INSERT
  5
32E
330
1F
100
AcDbEntity
  8
cotas
100
AcDbBlockReference
  2
block 51
 10
0.0
 20
0.0
 30
0.0
  0
INSERT
  5
336
330
1F
100
AcDbEntity
  8
cotas
100
AcDbBlockReference
  2
block 52
 10
0.0
 20
0.0
 30
0.0
  0
INSERT
  5
33E
330
1F
100
AcDbEntity
  8
cotas
100
AcDbBlockReference
  2
block 53
 10
0.0
 20
0.0
 30
0.0
  0
INSERT
  5
346
330
1F
100
AcDbEntity
  8
cotas
100
AcDbBlockReference
  2
block 54
 10
0.0
 20
0.0
 30
0.0
  0
INSERT
  5
34E
330
1F
100
AcDbEntity
  8
cotas
100
AcDbBlockReference
  2
block 55
 10
0.0
 20
0.0
 30
0.0
  0
INSERT
  5
356
330
1F
100
AcDbEntity
  8
cotas
100
AcDbBlockReference
  2
block 56
 10
0.0
 20
0.0
 30
0.0
  0
INSERT
  5
35E
330
1F
100
AcDbEntity
  8
cotas
100
AcDbBlockReference
  2
block 57
 10
0.0
 20
0.0
 30
0.0
  0
INSERT
  5
369
330
1F
100
AcDbEntity
  8
cotas
100
AcDbBlockReference
  2
block 58
 10
0.0
 20
0.0
 30
0.0
  0
INSERT
  5
374
330
1F
100
AcDbEntity
  8
cotas
100
AcDbBlockReference
  2
block 59
 10
0.0
 20
0.0
 30
0.0
  0
INSERT
  5
379
330
1F
100
AcDbEntity
  8
cotas
100
AcDbBlockReference
  2
block 60
 10
0.0
 20
0.0
 30
0.0
  0
INSERT
  5
381
330
1F
100
AcDbEntity
  8
cotas
100
AcDbBlockReference
  2
block 61
 10
0.0
 20
0.0
 30
0.0
  0
INSERT
  5
389
330
1F
100
AcDbEntity
  8
cotas
100
AcDbBlockReference
  2
block 62
 10
0.0
 20
0.0
 30
0.0
  0
INSERT
  5
391
330
1F
100
AcDbEntity
  8
cotas
100
AcDbBlockReference
  2
block 63
 10
0.0
 20
0.0
 30
0.0
  0
INSERT
  5
399
330
1F
100
AcDbEntity
  8
cotas
100
AcDbBlockReference
  2
block 64
 10
0.0
 20
0.0
 30
0.0
  0
INSERT
  5
3A1
330
1F
100
AcDbEntity
  8
cotas
100
AcDbBlockReference
  2
block 65
 10
0.0
 20
0.0
 30
0.0
  0
INSERT
  5
3A9
330
1F
100
AcDbEntity
  8
cotas
100
AcDbBlockReference
  2
block 66
 10
0.0
 20
0.0
 30
0.0
  0
INSERT
  5
3B1
330
1F
100
AcDbEntity
  8
cotas
100
AcDbBlockReference
  2
block 67
 10
0.0
 20
0.0
 30
0.0
  0
INSERT
  5
3BC
330
1F
100
AcDbEntity
  8
cotas
100
AcDbBlockReference
  2
block 68
 10
0.0
 20
0.0
 30
0.0
  0
INSERT
  5
3C7
330
1F
100
AcDbEntity
  8
cotas
100
AcDbBlockReference
  2
block 69
 10
0.0
 20
0.0
 30
0.0
  0
INSERT
  5
3CC
330
1F
100
AcDbEntity
  8
cotas
100
AcDbBlockReference
  2
block 70
 10
0.0
 20
0.0
 30
0.0
  0
INSERT
  5
3D4
330
1F
100
AcDbEntity
  8
cotas
100
AcDbBlockReference
  2
block 71
 10
0.0
 20
0.0
 30
0.0
  0
INSERT
  5
3DC
330
1F
100
AcDbEntity
  8
cotas
100
AcDbBlockReference
  2
block 72
 10
0.0
 20
0.0
 30
0.0
  0
INSERT
  5
3E4
330
1F
100
AcDbEntity
  8
cotas
100
AcDbBlockReference
  2
block 73
 10
0.0
 20
0.0
 30
0.0
  0
INSERT
  5
3EC
330
1F
100
AcDbEntity
  8
cotas
100
AcDbBlockReference
  2
block 74
 10
0.0
 20
0.0
 30
0.0
  0
INSERT
  5
3F4
330
1F
100
AcDbEntity
  8
cotas
100
AcDbBlockReference
  2
block 75
 10
0.0
 20
0.0
 30
0.0
  0
INSERT
  5
3FC
330
1F
100
AcDbEntity
  8
cotas
100
AcDbBlockReference
  2
block 76
 10
0.0
 20
0.0
 30
0.0
  0
INSERT
  5
404
330
1F
100
AcDbEntity
  8
cotas
100
AcDbBlockReference
  2
block 77
 10
0.0
 20
0.0
 30
0.0
  0
INSERT
  5
40C
330
1F
100
AcDbEntity
  8
cotas
100
AcDbBlockReference
  2
block 78
 10
0.0
 20
0.0
 30
0.0
  0
INSERT
  5
417
330
1F
100
AcDbEntity
  8
cotas
100
AcDbBlockReference
  2
block 79
 10
0.0
 20
0.0
 30
0.0
  0
INSERT
  5
422
330
1F
100
AcDbEntity
  8
cotas
100
AcDbBlockReference
  2
block 80
 10
0.0
 20
0.0
 30
0.0
  0
INSERT
  5
427
330
1F
100
AcDbEntity
  8
cotas
100
AcDbBlockReference
  2
block 81
 10
0.0
 20
0.0
 30
0.0
  0
INSERT
  5
42F
330
1F
100
AcDbEntity
  8
cotas
100
AcDbBlockReference
  2
block 82
 10
0.0
 20
0.0
 30
0.0
  0
INSERT
  5
437
330
1F
100
AcDbEntity
  8
cotas
100
AcDbBlockReference
  2
block 83
 10
0.0
 20
0.0
 30
0.0
  0
INSERT
  5
43F
330
1F
100
AcDbEntity
  8
cotas
100
AcDbBlockReference
  2
block 84
 10
0.0
 20
0.0
 30
0.0
  0
INSERT
  5
447
330
1F
100
AcDbEntity
  8
cotas
100
AcDbBlockReference
  2
block 85
 10
0.0
 20
0.0
 30
0.0
  0
INSERT
  5
44F
330
1F
100
AcDbEntity
  8
cotas
100
AcDbBlockReference
  2
block 86
 10
0.0
 20
0.0
 30
0.0
  0
INSERT
  5
457
330
1F
100
AcDbEntity
  8
cotas
100
AcDbBlockReference
  2
block 87
 10
0.0
 20
0.0
 30
0.0
  0
INSERT
  5
45F
330
1F
100
AcDbEntity
  8
cotas
100
AcDbBlockReference
  2
block 88
 10
0.0
 20
0.0
 30
0.0
  0
INSERT
  5
467
330
1F
100
AcDbEntity
  8
cotas
100
AcDbBlockReference
  2
block 89
 10
0.0
 20
0.0
 30
0.0
  0
INSERT
  5
472
330
1F
100
AcDbEntity
  8
cotas
100
AcDbBlockReference
  2
block 90
 10
0.0
 20
0.0
 30
0.0
  0
INSERT
  5
47D
330
1F
100
AcDbEntity
  8
cotas
100
AcDbBlockReference
  2
block 91
 10
0.0
 20
0.0
 30
0.0
  0
INSERT
  5
482
330
1F
100
AcDbEntity
  8
cotas
100
AcDbBlockReference
  2
block 92
 10
0.0
 20
0.0
 30
0.0
  0
INSERT
  5
48A
330
1F
100
AcDbEntity
  8
cotas
100
AcDbBlockReference
  2
block 93
 10
0.0
 20
0.0
 30
0.0
  0
INSERT
  5
492
330
1F
100
AcDbEntity
  8
cotas
100
AcDbBlockReference
  2
block 94
 10
0.0
 20
0.0
 30
0.0
  0
INSERT
  5
49A
330
1F
100
AcDbEntity
  8
cotas
100
AcDbBlockReference
  2
block 95
 10
0.0
 20
0.0
 30
0.0
  0
INSERT
  5
4A2
330
1F
100
AcDbEntity
  8
cotas
100
AcDbBlockReference
  2
block 96
 10
0.0
 20
0.0
 30
0.0
  0
INSERT
  5
4AA
330
1F
100
AcDbEntity
  8
cotas
100
AcDbBlockReference
  2
block 97
 10
0.0
 20
0.0
 30
0.0
  0
INSERT
  5
4B2
330
1F
100
AcDbEntity
  8
cotas
100
AcDbBlockReference
  2
block 98
 10
0.0
 20
0.0
 30
0.0
  0
INSERT
  5
4BA
330
1F
100
AcDbEntity
  8
cotas
100
AcDbBlockReference
  2
block 99
 10
0.0
 20
0.0
 30
0.0
  0
INSERT
  5
4C5
330
1F
100
AcDbEntity
  8
cotas
100
AcDbBlockReference
  2
block 100
 10
0.0
 20
0.0
 30
0.0
  0
INSERT
  5
4D0
330
1F
100
AcDbEntity
  8
cotas
100
AcDbBlockReference
  2
block 101
 10
0.0
 20
0.0
 30
0.0
  0
INSERT
  5
4D5
330
1F
100
AcDbEntity
  8
cotas
100
AcDbBlockReference
  2
block 102
 10
0.0
 20
0.0
 30
0.0
  0
INSERT
  5
4DD
330
1F
100
AcDbEntity
  8
cotas
100
AcDbBlockReference
  2
block 103
 10
0.0
 20
0.0
 30
0.0
  0
INSERT
  5
4E5
330
1F
100
AcDbEntity
  8
cotas
100
AcDbBlockReference
  2
block 104
 10
0.0
 20
0.0
 30
0.0
  0
ENDSEC
  0
SECTION
  2
OBJECTS
  0
DICTIONARY
  5
C
330
0
100
AcDbDictionary
281
     1
  3
ACAD_GROUP
350
D
  3
ACAD_LAYOUT
350
1A
  3
ACAD_MLINESTYLE
350
17
  3
ACAD_PLOTSETTINGS
350
19
  3
ACAD_PLOTSTYLENAME
350
E
  3
ACAD_TABLESTYLE
350
4ED
  3
ACAD_VISUALSTYLE
350
2A
  0
DICTIONARY
  5
D
102
{ACAD_REACTORS
330
C
102
}
330
C
100
AcDbDictionary
281
     1
  0
DICTIONARY
  5
1A
102
{ACAD_REACTORS
330
C
102
}
330
C
100
AcDbDictionary
281
     1
  3
Layout1
350
1E
  3
Layout2
350
26
  3
Model
350
22
  0
DICTIONARY
  5
17
102
{ACAD_REACTORS
330
C
102
}
330
C
100
AcDbDictionary
281
     1
  3
Standard
350
18
  0
DICTIONARY
  5
19
102
{ACAD_REACTORS
330
C
102
}
330
C
100
AcDbDictionary
281
     1
  0
ACDBDICTIONARYWDFLT
  5
E
102
{ACAD_REACTORS
330
C
102
}
330
C
100
AcDbDictionary
281
     1
  3
Normal
350
F
100
AcDbDictionaryWithDefault
340
F
  0
DICTIONARY
  5
4ED
102
{ACAD_REACTORS
330
C
102
}
330
C
100
AcDbDictionary
281
     1
  0
DICTIONARY
  5
2A
102
{ACAD_REACTORS
330
C
102
}
330
C
100
AcDbDictionary
281
     1
  3
2dWireframe
350
2F
  3
3D Hidden
350
31
  3
3dWireframe
350
30
  3
Basic
350
32
  3
Brighten
350
36
  3
ColorChange
350
3A
  3
Conceptual
350
34
  3
Dim
350
35
  3
Facepattern
350
39
  3
Flat
350
2B
  3
FlatWithEdges
350
2C
  3
Gouraud
350
2D
  3
GouraudWithEdges
350
2E
  3
Linepattern
350
38
  3
Realistic
350
33
  3
Thicken
350
37
  0
LAYOUT
  5
1E
102
{ACAD_REACTORS
330
1A
102
}
330
1A
100
AcDbPlotSettings
  1

  2
none_device
  4

  6

 40
0.0
 41
0.0
 42
0.0
 43
0.0
 44
0.0
 45
0.0
 46
0.0
 47
0.0
 48
0.0
 49
0.0
140
0.0
141
0.0
142
1.0
143
1.0
 70
   688
 72
     0
 73
     0
 74
     5
  7

 75
    16
 76
     0
 77
     2
 78
   300
147
1.0
148
0.0
149
0.0
100
AcDbLayout
  1
Layout1
 70
     1
 71
     1
 10
0.0
 20
0.0
 11
12.0
 21
9.0
 12
0.0
 22
0.0
 32
0.0
 14
1.000000000000000E+20
 24
1.000000000000000E+20
 34
1.000000000000000E+20
 15
-1.000000000000000E+20
 25
-1.000000000000000E+20
 35
-1.000000000000000E+20
146
0.0
 13
0.0
 23
0.0
 33
0.0
 16
1.0
 26
0.0
 36
0.0
 17
0.0
 27
1.0
 37
0.0
 76
     0
330
1B
  0
LAYOUT
  5
26
102
{ACAD_REACTORS
330
1A
102
}
330
1A
100
AcDbPlotSettings
  1

  2
none_device
  4

  6

 40
0.0
 41
0.0
 42
0.0
 43
0.0
 44
0.0
 45
0.0
 46
0.0
 47
0.0
 48
0.0
 49
0.0
140
0.0
141
0.0
142
1.0
143
1.0
 70
   688
 72
     0
 73
     0
 74
     5
  7

 75
    16
 76
     0
 77
     2
 78
   300
147
1.0
148
0.0
149
0.0
100
AcDbLayout
  1
Layout2
 70
     1
 71
     2
 10
0.0
 20
0.0
 11
0.0
 21
0.0
 12
0.0
 22
0.0
 32
0.0
 14
0.0
 24
0.0
 34
0.0
 15
0.0
 25
0.0
 35
0.0
146
0.0
 13
0.0
 23
0.0
 33
0.0
 16
1.0
 26
0.0
 36
0.0
 17
0.0
 27
1.0
 37
0.0
 76
     0
330
23
  0
LAYOUT
  5
22
102
{ACAD_REACTORS
330
1A
102
}
330
1A
100
AcDbPlotSettings
  1

  2
none_device
  4

  6

 40
0.0
 41
0.0
 42
0.0
 43
0.0
 44
0.0
 45
0.0
 46
0.0
 47
0.0
 48
0.0
 49
0.0
140
0.0
141
0.0
142
1.0
143
1.0
 70
  1712
 72
     0
 73
     0
 74
     0
  7

 75
     0
 76
     0
 77
     2
 78
   300
147
1.0
148
0.0
149
0.0
100
AcDbLayout
  1
Model
 70
     1
 71
     0
 10
0.0
 20
0.0
 11
12.0
 21
9.0
 12
0.0
 22
0.0
 32
0.0
 14
1.000000000000000E+20
 24
1.000000000000000E+20
 34
1.000000000000000E+20
 15
-1.000000000000000E+20
 25
-1.000000000000000E+20
 35
-1.000000000000000E+20
146
0.0
 13
0.0
 23
0.0
 33
0.0
 16
1.0
 26
0.0
 36
0.0
 17
0.0
 27
1.0
 37
0.0
 76
     0
330
1F
331
29
  0
MLINESTYLE
  5
18
102
{ACAD_REACTORS
330
17
102
}
330
17
100
AcDbMlineStyle
  2
Standard
 70
     0
  3

 62
   256
 51
90.0
 52
90.0
 71
     2
 49
0.5
 62
   256
  6
BYLAYER
 49
-0.5
 62
   256
  6
BYLAYER
  0
ACDBPLACEHOLDER
  5
F
102
{ACAD_REACTORS
330
E
102
}
330
E
  0
VISUALSTYLE
  5
2F
102
{ACAD_REACTORS
330
2A
102
}
330
2A
100
AcDbVisualStyle
  2
2dWireframe
 70
     4
 71
     0
 72
     2
 73
     0
 90
        0
 40
-0.6
 41
-30.0
 62
     5
 63
     7
421
 16777215
 74
     1
 91
        4
 64
     7
 65
   257
 75
     1
175
     1
 42
1.0
 92
        0
 66
   257
 43
1.0
 76
     1
 77
     6
 78
     2
 67
     7
 79
     5
170
     0
171
     0
290
     0
174
     0
 93
        1
 44
0.0
173
     0
291
     0
 45
0.0
1001
ACAD
1000
AcDbSavedByObjectVersion
1070
     0
  0
VISUALSTYLE
  5
31
102
{ACAD_REACTORS
330
2A
102
}
330
2A
100
AcDbVisualStyle
  2
3D Hidden
 70
     6
 71
     1
 72
     2
 73
     2
 90
        0
 40
-0.6
 41
-30.0
 62
     5
 63
     7
421
 16777215
 74
     2
 91
        2
 64
     7
 65
   257
 75
     2
175
     1
 42
40.0
 92
        0
 66
   257
 43
1.0
 76
     1
 77
     6
 78
     2
 67
     7
 79
     3
170
     0
171
     0
290
     0
174
     0
 93
        1
 44
0.0
173
     0
291
     0
 45
0.0
1001
ACAD
1000
AcDbSavedByObjectVersion
1070
     0
  0
VISUALSTYLE
  5
30
102
{ACAD_REACTORS
330
2A
102
}
330
2A
100
AcDbVisualStyle
  2
3dWireframe
 70
     5
 71
     0
 72
     2
 73
     0
 90
        0
 40
-0.6
 41
-30.0
 62
     5
 63
     7
421
 16777215
 74
     1
 91
        4
 64
     7
 65
   257
 75
     1
175
     1
 42
1.0
 92
        0
 66
   257
 43
1.0
 76
     1
 77
     6
 78
     2
 67
     7
 79
     5
170
     0
171
     0
290
     0
174
     0
 93
        1
 44
0.0
173
     0
291
     0
 45
0.0
1001
ACAD
1000
AcDbSavedByObjectVersion
1070
     0
  0
VISUALSTYLE
  5
32
102
{ACAD_REACTORS
330
2A
102
}
330
2A
100
AcDbVisualStyle
  2
Basic
 70
     7
 71
     1
 72
     0
 73
     1
 90
        0
 40
-0.6
 41
-30.0
 62
     5
 63
     7
421
 16777215
 74
     0
 91
        4
 64
     7
 65
   257
 75
     1
175
     1
 42
1.0
 92
        8
 66
     7
 43
1.0
 76
     1
 77
     6
 78
     2
 67
     7
 79
     5
170
     0
171
     0
290
     0
174
     0
 93
        1
 44
0.0
173
     0
291
     1
 45
0.0
1001
ACAD
1000
AcDbSavedByObjectVersion
1070
     0
  0
VISUALSTYLE
  5
36
102
{ACAD_REACTORS
330
2A
102
}
330
2A
100
AcDbVisualStyle
  2
Brighten
 70
    12
 71
     2
 72
     2
 73
     0
 90
        0
 40
-0.6
 41
-30.0
 62
     5
 63
     7
421
 16777215
 74
     1
 91
        4
 64
     7
 65
   257
 75
     1
175
     1
 42
1.0
 92
        8
 66
     7
 43
1.0
 76
     1
 77
     6
 78
     2
 67
     7
 79
     5
170
     0
171
     0
290
     0
174
     0
 93
        1
 44
50.0
173
     0
291
     1
 45
0.0
1001
ACAD
1000
AcDbSavedByObjectVersion
1070
     0
  0
VISUALSTYLE
  5
3A
102
{ACAD_REACTORS
330
2A
102
}
330
2A
100
AcDbVisualStyle
  2
ColorChange
 70
    16
 71
     2
 72
     2
 73
     3
 90
        0
 40
-0.6
 41
-30.0
 62
     5
 63
     8
421
  8421504
 74
     1
 91
        4
 64
     7
 65
   257
 75
     1
175
     1
 42
1.0
 92
        8
 66
     8
424
  8421504
 43
1.0
 76
     1
 77
     6
 78
     2
 67
     7
 79
     5
170
     0
171
     0
290
     0
174
     0
 93
        1
 44
0.0
173
     0
291
     1
 45
0.0
1001
ACAD
1000
AcDbSavedByObjectVersion
1070
     0
  0
VISUALSTYLE
  5
34
102
{ACAD_REACTORS
330
2A
102
}
330
2A
100
AcDbVisualStyle
  2
Conceptual
 70
     9
 71
     3
 72
     2
 73
     0
 90
        0
 40
-0.6
 41
-30.0
 62
     5
 63
     7
421
 16777215
 74
     2
 91
        2
 64
     7
 65
   257
 75
     1
175
     1
 42
40.0
 92
        8
 66
     7
 43
1.0
 76
     1
 77
     6
 78
     2
 67
     7
 79
     3
170
     0
171
     0
290
     0
174
     0
 93
        1
 44
0.0
173
     0
291
     0
 45
0.0
1001
ACAD
1000
AcDbSavedByObjectVersion
1070
     0
  0
VISUALSTYLE
  5
35
102
{ACAD_REACTORS
330
2A
102
}
330
2A
100
AcDbVisualStyle
  2
Dim
 70
    11
 71
     2
 72
     2
 73
     0
 90
        0
 40
-0.6
 41
-30.0
 62
     5
 63
     7
421
 16777215
 74
     1
 91
        4
 64
     7
 65
   257
 75
     1
175
     1
 42
1.0
 92
        8
 66
     7
 43
1.0
 76
     1
 77
     6
 78
     2
 67
     7
 79
     5
170
     0
171
     0
290
     0
174
     0
 93
        1
 44
-50.0
173
     0
291
     1
 45
0.0
1001
ACAD
1000
AcDbSavedByObjectVersion
1070
     0
  0
VISUALSTYLE
  5
39
102
{ACAD_REACTORS
330
2A
102
}
330
2A
100
AcDbVisualStyle
  2
Facepattern
 70
    15
 71
     2
 72
     2
 73
     0
 90
        0
 40
-0.6
 41
-30.0
 62
     5
 63
     7
421
 16777215
 74
     1
 91
        4
 64
     7
 65
   257
 75
     1
175
     1
 42
1.0
 92
        8
 66
     7
 43
1.0
 76
     1
 77
     6
 78
     2
 67
     7
 79
     5
170
     0
171
     0
290
     0
174
     0
 93
        1
 44
0.0
173
     0
291
     1
 45
0.0
1001
ACAD
1000
AcDbSavedByObjectVersion
1070
     0
  0
VISUALSTYLE
  5
2B
102
{ACAD_REACTORS
330
2A
102
}
330
2A
100
AcDbVisualStyle
  2
Flat
 70
     0
 71
     2
 72
     1
 73
     1
 90
        2
 40
-0.6
 41
30.0
 62
     5
 63
     7
421
 16777215
 74
     0
 91
        4
 64
     7
 65
   257
 75
     1
175
     1
 42
1.0
 92
        8
 66
     7
 43
1.0
 76
     1
 77
     6
 78
     2
 67
     7
 79
     5
170
     0
171
     0
290
     0
174
     0
 93
       13
 44
0.0
173
     0
291
     1
 45
0.0
1001
ACAD
1000
AcDbSavedByObjectVersion
1070
     0
  0
VISUALSTYLE
  5
2C
102
{ACAD_REACTORS
330
2A
102
}
330
2A
100
AcDbVisualStyle
  2
FlatWithEdges
 70
     1
 71
     2
 72
     1
 73
     1
 90
        2
 40
-0.6
 41
30.0
 62
     5
 63
     7
421
 16777215
 74
     1
 91
        4
 64
     7
 65
   257
 75
     1
175
     1
 42
1.0
 92
        0
 66
   257
 43
1.0
 76
     1
 77
     6
 78
     2
 67
     7
 79
     5
170
     0
171
     0
290
     0
174
     0
 93
       13
 44
0.0
173
     0
291
     1
 45
0.0
1001
ACAD
1000
AcDbSavedByObjectVersion
1070
     0
  0
VISUALSTYLE
  5
2D
102
{ACAD_REACTORS
330
2A
102
}
330
2A
100
AcDbVisualStyle
  2
Gouraud
 70
     2
 71
     2
 72
     2
 73
     1
 90
        2
 40
-0.6
 41
30.0
 62
     5
 63
     7
421
 16777215
 74
     0
 91
        4
 64
     7
 65
   257
 75
     1
175
     1
 42
1.0
 92
        0
 66
     7
 43
1.0
 76
     1
 77
     6
 78
     2
 67
     7
 79
     5
170
     0
171
     0
290
     0
174
     0
 93
       13
 44
0.0
173
     0
291
     1
 45
0.0
1001
ACAD
1000
AcDbSavedByObjectVersion
1070
     0
  0
VISUALSTYLE
  5
2E
102
{ACAD_REACTORS
330
2A
102
}
330
2A
100
AcDbVisualStyle
  2
GouraudWithEdges
 70
     3
 71
     2
 72
     2
 73
     1
 90
        2
 40
-0.6
 41
30.0
 62
     5
 63
     7
421
 16777215
 74
     1
 91
        4
 64
     7
 65
   257
 75
     1
175
     1
 42
1.0
 92
        0
 66
   257
 43
1.0
 76
     1
 77
     6
 78
     2
 67
     7
 79
     5
170
     0
171
     0
290
     0
174
     0
 93
       13
 44
0.0
173
     0
291
     1
 45
0.0
1001
ACAD
1000
AcDbSavedByObjectVersion
1070
     0
  0
VISUALSTYLE
  5
38
102
{ACAD_REACTORS
330
2A
102
}
330
2A
100
AcDbVisualStyle
  2
Linepattern
 70
    14
 71
     2
 72
     2
 73
     0
 90
        0
 40
-0.6
 41
-30.0
 62
     5
 63
     7
421
 16777215
 74
     1
 91
        4
 64
     7
 65
   257
 75
     7
175
     7
 42
1.0
 92
        8
 66
     7
 43
1.0
 76
     1
 77
     6
 78
     2
 67
     7
 79
     5
170
     0
171
     0
290
     0
174
     0
 93
        1
 44
0.0
173
     0
291
     1
 45
0.0
1001
ACAD
1000
AcDbSavedByObjectVersion
1070
     0
  0
VISUALSTYLE
  5
33
102
{ACAD_REACTORS
330
2A
102
}
330
2A
100
AcDbVisualStyle
  2
Realistic
 70
     8
 71
     2
 72
     2
 73
     0
 90
        0
 40
-0.6
 41
-30.0
 62
     5
 63
     7
421
 16777215
 74
     1
 91
        0
 64
     7
 65
   257
 75
     1
175
     1
 42
1.0
 92
        8
 66
     8
424
  7895160
 43
1.0
 76
     1
 77
     6
 78
     2
 67
     7
 79
     5
170
     0
171
     0
290
     0
174
     0
 93
       13
 44
0.0
173
     0
291
     0
 45
0.0
1001
ACAD
1000
AcDbSavedByObjectVersion
1070
     0
  0
VISUALSTYLE
  5
37
102
{ACAD_REACTORS
330
2A
102
}
330
2A
100
AcDbVisualStyle
  2
Thicken
 70
    13
 71
     2
 72
     2
 73
     0
 90
        0
 40
-0.6
 41
-30.0
 62
     5
 63
     7
421
 16777215
 74
     1
 91
        4
 64
     7
 65
   257
 75
     1
175
     1
 42
1.0
 92
       12
 66
     7
 43
1.0
 76
     1
 77
     6
 78
     2
 67
     7
 79
     5
170
     0
171
     0
290
     0
174
     0
 93
        1
 44
0.0
173
     0
291
     1
 45
0.0
1001
ACAD
1000
AcDbSavedByObjectVersion
1070
     0
  0
ENDSEC
  0
EOF
